ISO-10303-21;
HEADER;
FILE_DESCRIPTION(('STEP'), '1');
FILE_NAME('C:\\Users\\ds2002\\OneDrive - Sandvik\\HomeShare\\Documents\\Batchrepair\\CorSRT2\\NEW_MILBN_SLD\\Output2\\MOD000000000000000020084648100000.stp', '2018-11-23T12:38:44', (''), (''), 'Express v3.0.0.0', 'Express Tool', 'Unknown');
FILE_SCHEMA(('AUTOMOTIVE_DESIGN'));
ENDSEC;

DATA;
#1 = MANIFOLD_SOLID_BREP('NOCUT', #2);
#2 = CLOSED_SHELL('', (#3, #50, #97, #106, #137, #176));
#3 = ADVANCED_FACE('', (#4), #31, .T.);
#4 = FACE_OUTER_BOUND('', #5, .T.);
#5 = EDGE_LOOP('', (#6, #16, #23, #24));
#6 = ORIENTED_EDGE('', *, *, #7, .F.);
#7 = EDGE_CURVE('', #8, #10, #12, .T.);
#8 = VERTEX_POINT('', #9);
#9 = CARTESIAN_POINT('', (-6., 3.11060286983428E-15, -44.8));
#10 = VERTEX_POINT('', #11);
#11 = CARTESIAN_POINT('', (-4., 5.75583995599256E-15, -90.));
#12 = LINE('', #13, #14);
#13 = CARTESIAN_POINT('', (-6., 3.11060286983428E-15, -44.8));
#14 = VECTOR('', #15, 45.2442261509687);
#15 = DIRECTION('', (2., 2.64523708615828E-15, -45.2));
#16 = ORIENTED_EDGE('', *, *, #17, .T.);
#17 = EDGE_CURVE('', #8, #8, #18, .T.);
#18 = CIRCLE('', #19, 6.);
#19 = AXIS2_PLACEMENT_3D('', #20, #21, #22);
#20 = CARTESIAN_POINT('', (-1.33226762955019E-15, 1.11022302462516E-16, -44.8));
#21 = DIRECTION('', (0., 0., -1.));
#22 = DIRECTION('', (-1., 4.99930094561961E-16, 0.));
#23 = ORIENTED_EDGE('', *, *, #7, .T.);
#24 = ORIENTED_EDGE('', *, *, #25, .F.);
#25 = EDGE_CURVE('', #10, #10, #26, .T.);
#26 = CIRCLE('', #27, 3.99999999999997);
#27 = AXIS2_PLACEMENT_3D('', #28, #29, #30);
#28 = CARTESIAN_POINT('', (3.33066907387547E-16, 2.1094237467878E-15, -90.));
#29 = DIRECTION('', (0., 0., -1.));
#30 = DIRECTION('', (-1., 9.11604052301197E-16, 0.));
#31 = (
   BOUNDED_SURFACE ()
   B_SPLINE_SURFACE (2, 1, ((#32, #33), (#34, #35), (#36, #37), (#38, #39), (#40, #41), (#42, #43), (#44, #45), (#46, #47), (#48, #49)), .UNSPECIFIED., .T., .F., .U.)
   B_SPLINE_SURFACE_WITH_KNOTS ((3, 2, 2, 2, 3), (2, 2), (0., 0.25, 0.5, 0.75, 1.), (0., 1.), .UNSPECIFIED.)
   GEOMETRIC_REPRESENTATION_ITEM ()
   RATIONAL_B_SPLINE_SURFACE (((1., 1.), (0.707106781186548, 0.707106781186548), (1., 1.), (0.707106781186548, 0.707106781186548), (1., 1.), (0.707106781186548, 0.707106781186548), (1., 1.), (0.707106781186548, 0.707106781186548), (1., 1.)))
   REPRESENTATION_ITEM ('')
   SURFACE ()
);
#32 = CARTESIAN_POINT('', (-6., 3.11060286983428E-15, -44.8));
#33 = CARTESIAN_POINT('', (-4., 4.2941812958065E-15, -90.));
#34 = CARTESIAN_POINT('', (-6., 6., -44.8));
#35 = CARTESIAN_POINT('', (-4., 4., -90.));
#36 = CARTESIAN_POINT('', (9.66851990689824E-16, 6., -44.8));
#37 = CARTESIAN_POINT('', (8.29605164564075E-16, 4., -90.));
#38 = CARTESIAN_POINT('', (6., 6., -44.8));
#39 = CARTESIAN_POINT('', (4., 4., -90.));
#40 = CARTESIAN_POINT('', (6., 2.28712191307979E-15, -44.8));
#41 = CARTESIAN_POINT('', (4., 3.74519399130351E-15, -90.));
#42 = CARTESIAN_POINT('', (6., -6., -44.8));
#43 = CARTESIAN_POINT('', (4., -4., -90.));
#44 = CARTESIAN_POINT('', (8.78159113423745E-16, -6., -44.8));
#45 = CARTESIAN_POINT('', (7.70476579720023E-16, -4., -90.));
#46 = CARTESIAN_POINT('', (-6., -6., -44.8));
#47 = CARTESIAN_POINT('', (-4., -4., -90.));
#48 = CARTESIAN_POINT('', (-6., 3.11060286983428E-15, -44.8));
#49 = CARTESIAN_POINT('', (-4., 4.2941812958065E-15, -90.));
#50 = ADVANCED_FACE('', (#51), #78, .T.);
#51 = FACE_OUTER_BOUND('', #52, .T.);
#52 = EDGE_LOOP('', (#53, #63, #70, #71));
#53 = ORIENTED_EDGE('', *, *, #54, .T.);
#54 = EDGE_CURVE('', #55, #57, #59, .T.);
#55 = VERTEX_POINT('', #56);
#56 = CARTESIAN_POINT('', (-6., 4.04133443718627E-16, -0.600000000000001));
#57 = VERTEX_POINT('', #58);
#58 = CARTESIAN_POINT('', (-5.4, 3.30654635769785E-16, 0.));
#59 = LINE('', #60, #61);
#60 = CARTESIAN_POINT('', (-6., 4.04133443718627E-16, -0.600000000000001));
#61 = VECTOR('', #62, 0.848528137423857);
#62 = DIRECTION('', (0.6, -7.3478807948842E-17, 0.600000000000001));
#63 = ORIENTED_EDGE('', *, *, #64, .T.);
#64 = EDGE_CURVE('', #57, #57, #65, .T.);
#65 = CIRCLE('', #66, 5.4);
#66 = AXIS2_PLACEMENT_3D('', #67, #68, #69);
#67 = CARTESIAN_POINT('', (1.2490009027033E-16, -3.77475828372553E-15, -3.26637718568075E-31));
#68 = DIRECTION('', (-1.39358664844757E-32, 6.12323399573677E-17, -1.));
#69 = DIRECTION('', (-1., 7.60261651758392E-16, 6.04884664014954E-32));
#70 = ORIENTED_EDGE('', *, *, #54, .F.);
#71 = ORIENTED_EDGE('', *, *, #72, .F.);
#72 = EDGE_CURVE('', #55, #55, #73, .T.);
#73 = CIRCLE('', #74, 6.);
#74 = AXIS2_PLACEMENT_3D('', #75, #76, #77);
#75 = CARTESIAN_POINT('', (-1.22124532708767E-15, -2.1094237467878E-15, -0.600000000000001));
#76 = DIRECTION('', (-1.85037170770859E-17, 1.2317654765601E-16, -1.));
#77 = DIRECTION('', (-1., 1.73996838588266E-16, 1.85037170770859E-17));
#78 = (
   BOUNDED_SURFACE ()
   B_SPLINE_SURFACE (1, 2, ((#79, #80, #81, #82, #83, #84, #85, #86, #87), (#88, #89, #90, #91, #92, #93, #94, #95, #96)), .UNSPECIFIED., .F., .T., .U.)
   B_SPLINE_SURFACE_WITH_KNOTS ((2, 2), (3, 2, 2, 2, 3), (0., 1.), (0., 0.25, 0.5, 0.75, 1.), .UNSPECIFIED.)
   GEOMETRIC_REPRESENTATION_ITEM ()
   RATIONAL_B_SPLINE_SURFACE (((1., 0.707106781186548, 1., 0.707106781186548, 1., 0.707106781186548, 1., 0.707106781186548, 1.), (1., 0.707106781186548, 1., 0.707106781186548, 1., 0.707106781186548, 1., 0.707106781186548, 1.)))
   REPRESENTATION_ITEM ('')
   SURFACE ()
);
#79 = CARTESIAN_POINT('', (-6., 2.98258605330568E-15, -0.600000000000001));
#80 = CARTESIAN_POINT('', (-6., 6., -0.599999999999978));
#81 = CARTESIAN_POINT('', (4.68298239692583E-15, 6., -0.599999999999978));
#82 = CARTESIAN_POINT('', (6., 6., -0.599999999999978));
#83 = CARTESIAN_POINT('', (6., -2.69188718366733E-15, -0.600000000000001));
#84 = CARTESIAN_POINT('', (6., -6., -0.600000000000024));
#85 = CARTESIAN_POINT('', (-2.56702760558774E-16, -6., -0.600000000000024));
#86 = CARTESIAN_POINT('', (-6., -6., -0.600000000000024));
#87 = CARTESIAN_POINT('', (-6., 2.98258605330568E-15, -0.600000000000001));
#88 = CARTESIAN_POINT('', (-5.4, 3.30654635769784E-16, -6.56858655152258E-47));
#89 = CARTESIAN_POINT('', (-5.4, 5.4, 2.09832151654154E-14));
#90 = CARTESIAN_POINT('', (4.39925873507718E-15, 5.4, 2.09832151654154E-14));
#91 = CARTESIAN_POINT('', (5.4, 5.4, 2.09832151654154E-14));
#92 = CARTESIAN_POINT('', (5.4, -4.77637127750593E-15, 2.27387988935674E-30));
#93 = CARTESIAN_POINT('', (5.4, -5.40000000000001, -2.09832151654154E-14));
#94 = CARTESIAN_POINT('', (-4.64579066589654E-17, -5.4, -2.09832151654154E-14));
#95 = CARTESIAN_POINT('', (-5.4, -5.4, -2.09832151654154E-14));
#96 = CARTESIAN_POINT('', (-5.4, 3.30654635769784E-16, -6.56858655152258E-47));
#97 = ADVANCED_FACE('', (#98), #101, .T.);
#98 = FACE_OUTER_BOUND('', #99, .T.);
#99 = EDGE_LOOP('', (#100));
#100 = ORIENTED_EDGE('', *, *, #64, .F.);
#101 = B_SPLINE_SURFACE_WITH_KNOTS('', 1, 1, ((#102, #103), (#104, #105)), .UNSPECIFIED., .F., .F., .U., (2, 2), (2, 2), (3.00042856049618, 13.8004285604962), (3.00042856049619, 13.8004285604962), .UNSPECIFIED.);
#102 = CARTESIAN_POINT('', (5.4, -5.4, -7.43608199337079E-15));
#103 = CARTESIAN_POINT('', (-5.4, -5.4, -2.16469367085728E-14));
#104 = CARTESIAN_POINT('', (5.4, 5.4, 7.43608199337079E-15));
#105 = CARTESIAN_POINT('', (-5.4, 5.4, -6.77477272183119E-15));
#106 = ADVANCED_FACE('', (#107), #118, .T.);
#107 = FACE_OUTER_BOUND('', #108, .T.);
#108 = EDGE_LOOP('', (#109, #115, #116, #117));
#109 = ORIENTED_EDGE('', *, *, #110, .T.);
#110 = EDGE_CURVE('', #8, #55, #111, .T.);
#111 = LINE('', #112, #113);
#112 = CARTESIAN_POINT('', (-6., 3.11060286983428E-15, -44.8));
#113 = VECTOR('', #114, 44.2);
#114 = DIRECTION('', (0., -2.70646942611565E-15, 44.2));
#115 = ORIENTED_EDGE('', *, *, #72, .T.);
#116 = ORIENTED_EDGE('', *, *, #110, .F.);
#117 = ORIENTED_EDGE('', *, *, #17, .F.);
#118 = (
   BOUNDED_SURFACE ()
   B_SPLINE_SURFACE (1, 2, ((#119, #120, #121, #122, #123, #124, #125, #126, #127), (#128, #129, #130, #131, #132, #133, #134, #135, #136)), .UNSPECIFIED., .F., .T., .U.)
   B_SPLINE_SURFACE_WITH_KNOTS ((2, 2), (3, 2, 2, 2, 3), (0., 1.), (0., 9.42477796076938, 18.8495559215388, 28.2743338823081, 37.6991118430775), .UNSPECIFIED.)
   GEOMETRIC_REPRESENTATION_ITEM ()
   RATIONAL_B_SPLINE_SURFACE (((1., 0.707106781186548, 1., 0.707106781186548, 1., 0.707106781186548, 1., 0.707106781186548, 1.), (1., 0.707106781186548, 1., 0.707106781186548, 1., 0.707106781186548, 1., 0.707106781186548, 1.)))
   REPRESENTATION_ITEM ('')
   SURFACE ()
);
#119 = CARTESIAN_POINT('', (-6., -3.99557661314357E-17, -44.8));
#120 = CARTESIAN_POINT('', (-6., 6., -44.8));
#121 = CARTESIAN_POINT('', (1.24503212910813E-15, 6., -44.8));
#122 = CARTESIAN_POINT('', (6., 6., -44.8));
#123 = CARTESIAN_POINT('', (6., -1.22365759870543E-15, -44.8));
#124 = CARTESIAN_POINT('', (6., -6., -44.8));
#125 = CARTESIAN_POINT('', (7.96118376022547E-16, -6., -44.8));
#126 = CARTESIAN_POINT('', (-6., -6., -44.8));
#127 = CARTESIAN_POINT('', (-6., -3.99557661314357E-17, -44.8));
#128 = CARTESIAN_POINT('', (-6., 4.04133443718627E-16, -0.600000000000001));
#129 = CARTESIAN_POINT('', (-6., 6., -0.600000000000001));
#130 = CARTESIAN_POINT('', (2.06289642391533E-15, 6., -0.600000000000001));
#131 = CARTESIAN_POINT('', (6., 6., -0.600000000000001));
#132 = CARTESIAN_POINT('', (6., -7.79568388855371E-16, -0.600000000000001));
#133 = CARTESIAN_POINT('', (6., -6., -0.600000000000001));
#134 = CARTESIAN_POINT('', (1.61398267082975E-15, -6., -0.600000000000001));
#135 = CARTESIAN_POINT('', (-6., -6., -0.600000000000001));
#136 = CARTESIAN_POINT('', (-6., 4.04133443718627E-16, -0.600000000000001));
#137 = ADVANCED_FACE('', (#138), #157, .T.);
#138 = FACE_OUTER_BOUND('', #139, .T.);
#139 = EDGE_LOOP('', (#140, #149, #155, #156));
#140 = ORIENTED_EDGE('', *, *, #141, .F.);
#141 = EDGE_CURVE('', #142, #142, #144, .T.);
#142 = VERTEX_POINT('', #143);
#143 = CARTESIAN_POINT('', (-4., 5.8783046359073E-15, -92.));
#144 = CIRCLE('', #145, 4.);
#145 = AXIS2_PLACEMENT_3D('', #146, #147, #148);
#146 = CARTESIAN_POINT('', (-6.93889390390723E-17, 3.44169137633799E-15, -92.));
#147 = DIRECTION('', (0., 0., -1.));
#148 = DIRECTION('', (-1., 6.09153314892329E-16, 0.));
#149 = ORIENTED_EDGE('', *, *, #150, .F.);
#150 = EDGE_CURVE('', #10, #142, #151, .T.);
#151 = LINE('', #152, #153);
#152 = CARTESIAN_POINT('', (-4., 5.75583995599256E-15, -90.));
#153 = VECTOR('', #154, 2.);
#154 = DIRECTION('', (0., 1.2246467991474E-16, -2.));
#155 = ORIENTED_EDGE('', *, *, #25, .T.);
#156 = ORIENTED_EDGE('', *, *, #150, .T.);
#157 = (
   BOUNDED_SURFACE ()
   B_SPLINE_SURFACE (2, 1, ((#158, #159), (#160, #161), (#162, #163), (#164, #165), (#166, #167), (#168, #169), (#170, #171), (#172, #173), (#174, #175)), .UNSPECIFIED., .T., .F., .U.)
   B_SPLINE_SURFACE_WITH_KNOTS ((3, 2, 2, 2, 3), (2, 2), (0., 6.28318530717958, 12.5663706143592, 18.8495559215387, 25.1327412287183), (0., 0.333333333333333), .UNSPECIFIED.)
   GEOMETRIC_REPRESENTATION_ITEM ()
   RATIONAL_B_SPLINE_SURFACE (((1., 1.), (0.707106781186548, 0.707106781186548), (1., 1.), (0.707106781186548, 0.707106781186548), (1., 1.), (0.707106781186548, 0.707106781186548), (1., 1.), (0.707106781186548, 0.707106781186548), (1., 1.)))
   REPRESENTATION_ITEM ('')
   SURFACE ()
);
#158 = CARTESIAN_POINT('', (-4., 5.75583995599256E-15, -90.));
#159 = CARTESIAN_POINT('', (-4., 9.86366514710564E-15, -92.));
#160 = CARTESIAN_POINT('', (-4., 4., -90.));
#161 = CARTESIAN_POINT('', (-4., 4.00000000000001, -92.));
#162 = CARTESIAN_POINT('', (1.777785675861E-15, 4., -90.));
#163 = CARTESIAN_POINT('', (1.777785675861E-15, 4.00000000000001, -92.));
#164 = CARTESIAN_POINT('', (4., 4., -90.));
#165 = CARTESIAN_POINT('', (4., 4., -92.));
#166 = CARTESIAN_POINT('', (4., 1.39535691141732E-15, -90.));
#167 = CARTESIAN_POINT('', (4., 5.5031821025304E-15, -92.));
#168 = CARTESIAN_POINT('', (4., -4., -90.));
#169 = CARTESIAN_POINT('', (4., -3.99999999999999, -92.));
#170 = CARTESIAN_POINT('', (-2.0928386490553E-15, -4., -90.));
#171 = CARTESIAN_POINT('', (-2.0928386490553E-15, -3.99999999999999, -92.));
#172 = CARTESIAN_POINT('', (-4., -3.99999999999999, -90.));
#173 = CARTESIAN_POINT('', (-4., -3.99999999999999, -92.));
#174 = CARTESIAN_POINT('', (-4., 5.75583995599256E-15, -90.));
#175 = CARTESIAN_POINT('', (-4., 9.86366514710564E-15, -92.));
#176 = ADVANCED_FACE('', (#177), #180, .T.);
#177 = FACE_OUTER_BOUND('', #178, .T.);
#178 = EDGE_LOOP('', (#179));
#179 = ORIENTED_EDGE('', *, *, #141, .T.);
#180 = B_SPLINE_SURFACE_WITH_KNOTS('', 1, 1, ((#181, #182), (#183, #184)), .UNSPECIFIED., .F., .F., .U., (2, 2), (2, 2), (102.469784157827, 110.469784157827), (92.3897809802268, 100.389780980227), .UNSPECIFIED.);
#181 = CARTESIAN_POINT('', (-4., 4.00000000000001, -92.));
#182 = CARTESIAN_POINT('', (-4., -4., -92.));
#183 = CARTESIAN_POINT('', (4., 4.00000000000001, -92.));
#184 = CARTESIAN_POINT('', (4., -4., -92.));
#185 = DRAUGHTING_MODEL('', (#193, #301, #341, #346, #351, #356, #361), #375);
#186 = PRESENTATION_STYLE_ASSIGNMENT((#187));
#187 = SURFACE_STYLE_USAGE(.POSITIVE., #188);
#188 = SURFACE_SIDE_STYLE('', (#189));
#189 = SURFACE_STYLE_FILL_AREA(#190);
#190 = FILL_AREA_STYLE('', (#191));
#191 = FILL_AREA_STYLE_COLOUR('', #192);
#192 = COLOUR_RGB('', 0.50196078431373, 0.50196078431373, 0.50196078431373);
#193 = STYLED_ITEM('', (#186), #1);
#194 = MANIFOLD_SOLID_BREP('CUT', #195);
#195 = CLOSED_SHELL('', (#196, #213, #252));
#196 = ADVANCED_FACE('', (#197), #208, .T.);
#197 = FACE_OUTER_BOUND('', #198, .T.);
#198 = EDGE_LOOP('', (#199));
#199 = ORIENTED_EDGE('', *, *, #200, .F.);
#200 = EDGE_CURVE('', #201, #201, #203, .T.);
#201 = VERTEX_POINT('', #202);
#202 = CARTESIAN_POINT('', (-4., 5.8783046359073E-15, -92.));
#203 = CIRCLE('', #204, 4.);
#204 = AXIS2_PLACEMENT_3D('', #205, #206, #207);
#205 = CARTESIAN_POINT('', (-6.93889390390723E-17, 3.44169137633799E-15, -92.));
#206 = DIRECTION('', (0., 0., -1.));
#207 = DIRECTION('', (-1., 6.09153314892329E-16, 0.));
#208 = B_SPLINE_SURFACE_WITH_KNOTS('', 1, 1, ((#209, #210), (#211, #212)), .UNSPECIFIED., .F., .F., .U., (2, 2), (2, 2), (92.3897809802267, 100.389780980227), (102.469784157827, 110.469784157827), .UNSPECIFIED.);
#209 = CARTESIAN_POINT('', (-4., 4.00000000000002, -92.));
#210 = CARTESIAN_POINT('', (4., 4.00000000000002, -92.));
#211 = CARTESIAN_POINT('', (-4., -4., -92.));
#212 = CARTESIAN_POINT('', (4., -4., -92.));
#213 = ADVANCED_FACE('', (#214), #233, .T.);
#214 = FACE_OUTER_BOUND('', #215, .T.);
#215 = EDGE_LOOP('', (#216, #217, #225, #232));
#216 = ORIENTED_EDGE('', *, *, #200, .T.);
#217 = ORIENTED_EDGE('', *, *, #218, .T.);
#218 = EDGE_CURVE('', #201, #219, #221, .T.);
#219 = VERTEX_POINT('', #220);
#220 = CARTESIAN_POINT('', (-4., 6.12323399573677E-15, -96.));
#221 = LINE('', #222, #223);
#222 = CARTESIAN_POINT('', (-4., 5.8783046359073E-15, -92.));
#223 = VECTOR('', #224, 4.);
#224 = DIRECTION('', (0., 2.4492935982947E-16, -4.));
#225 = ORIENTED_EDGE('', *, *, #226, .F.);
#226 = EDGE_CURVE('', #219, #219, #227, .T.);
#227 = CIRCLE('', #228, 4.);
#228 = AXIS2_PLACEMENT_3D('', #229, #230, #231);
#229 = CARTESIAN_POINT('', (-9.71445146547012E-17, 3.5527136788005E-15, -96.));
#230 = DIRECTION('', (0., 0., -1.));
#231 = DIRECTION('', (-1., 6.42630079234067E-16, 0.));
#232 = ORIENTED_EDGE('', *, *, #218, .F.);
#233 = (
   BOUNDED_SURFACE ()
   B_SPLINE_SURFACE (2, 1, ((#234, #235), (#236, #237), (#238, #239), (#240, #241), (#242, #243), (#244, #245), (#246, #247), (#248, #249), (#250, #251)), .UNSPECIFIED., .T., .F., .U.)
   B_SPLINE_SURFACE_WITH_KNOTS ((3, 2, 2, 2, 3), (2, 2), (0., 6.28318530717957, 12.5663706143591, 18.8495559215387, 25.1327412287183), (0.333333333333333, 1.), .UNSPECIFIED.)
   GEOMETRIC_REPRESENTATION_ITEM ()
   RATIONAL_B_SPLINE_SURFACE (((1., 1.), (0.707106781186548, 0.707106781186548), (1., 1.), (0.707106781186548, 0.707106781186548), (1., 1.), (0.707106781186548, 0.707106781186548), (1., 1.), (0.707106781186548, 0.707106781186548), (1., 1.)))
   REPRESENTATION_ITEM ('')
   SURFACE ()
);
#234 = CARTESIAN_POINT('', (-4., 5.8783046359073E-15, -92.));
#235 = CARTESIAN_POINT('', (-4., 2.43661325956931E-15, -96.));
#236 = CARTESIAN_POINT('', (-4., 4.00000000000001, -92.));
#237 = CARTESIAN_POINT('', (-4., 4., -96.));
#238 = CARTESIAN_POINT('', (-1.37490756686847E-15, 4.00000000000001, -92.));
#239 = CARTESIAN_POINT('', (-1.37490756686847E-15, 4., -96.));
#240 = CARTESIAN_POINT('', (4., 4.00000000000001, -92.));
#241 = CARTESIAN_POINT('', (4., 4.00000000000001, -96.));
#242 = CARTESIAN_POINT('', (4., 8.60036419402861E-15, -92.));
#243 = CARTESIAN_POINT('', (4., 5.15867281769063E-15, -96.));
#244 = CARTESIAN_POINT('', (4., -3.99999999999999, -92.));
#245 = CARTESIAN_POINT('', (4., -4., -96.));
#246 = CARTESIAN_POINT('', (1.83701071091178E-15, -3.99999999999999, -92.));
#247 = CARTESIAN_POINT('', (1.83701071091178E-15, -4., -96.));
#248 = CARTESIAN_POINT('', (-4., -4., -92.));
#249 = CARTESIAN_POINT('', (-4., -4., -96.));
#250 = CARTESIAN_POINT('', (-4., 5.8783046359073E-15, -92.));
#251 = CARTESIAN_POINT('', (-4., 2.43661325956931E-15, -96.));
#252 = ADVANCED_FACE('', (#253), #266, .T.);
#253 = FACE_OUTER_BOUND('', #254, .T.);
#254 = EDGE_LOOP('', (#255, #264, #265));
#255 = ORIENTED_EDGE('', *, *, #256, .F.);
#256 = EDGE_CURVE('', #219, #257, #259, .T.);
#257 = VERTEX_POINT('', #258);
#258 = CARTESIAN_POINT('', (1.17887728933848E-15, 6.12323399573677E-15, -100.));
#259 = CIRCLE('', #260, 3.99999999999999);
#260 = AXIS2_PLACEMENT_3D('', #261, #262, #263);
#261 = CARTESIAN_POINT('', (-1.55431223447522E-14, 5.87830463590729E-15, -96.));
#262 = DIRECTION('', (-6.12323399573692E-17, -1., -6.12323399573671E-17));
#263 = DIRECTION('', (-1., 6.12323399573692E-17, 0.));
#264 = ORIENTED_EDGE('', *, *, #226, .T.);
#265 = ORIENTED_EDGE('', *, *, #256, .T.);
#266 = (
   BOUNDED_SURFACE ()
   B_SPLINE_SURFACE (2, 2, ((#267, #268, #269), (#270, #271, #272), (#273, #274, #275), (#276, #277, #278), (#279, #280, #281), (#282, #283, #284), (#285, #286, #287), (#288, #289, #290), (#291, #292, #293)), .UNSPECIFIED., .T., .F., .U.)
   B_SPLINE_SURFACE_WITH_KNOTS ((3, 2, 2, 2, 3), (3, 3), (0., 0.25, 0.5, 0.75, 1.), (0., 1.), .UNSPECIFIED.)
   GEOMETRIC_REPRESENTATION_ITEM ()
   RATIONAL_B_SPLINE_SURFACE (((1., 0.707106781186548, 1.), (0.707106781186548, 0.5, 0.707106781186548), (1., 0.707106781186548, 1.), (0.707106781186548, 0.5, 0.707106781186548), (1., 0.707106781186548, 1.), (0.707106781186548, 0.5, 0.707106781186548), (1., 0.707106781186548, 1.), (0.707106781186548, 0.5, 0.707106781186548), (1., 0.707106781186548, 1.)))
   REPRESENTATION_ITEM ('')
   SURFACE ()
);
#267 = CARTESIAN_POINT('', (-4., 6.12323399573677E-15, -96.));
#268 = CARTESIAN_POINT('', (-4., 6.36816335556624E-15, -100.));
#269 = CARTESIAN_POINT('', (1.17887728933848E-15, 6.12323399573677E-15, -100.));
#270 = CARTESIAN_POINT('', (-4., 3.99999999999994, -96.));
#271 = CARTESIAN_POINT('', (-4., 3.99999999999994, -100.));
#272 = CARTESIAN_POINT('', (1.17887728933848E-15, 6.12323399573677E-15, -100.));
#273 = CARTESIAN_POINT('', (-6.21724893790088E-14, 3.99999999999994, -96.));
#274 = CARTESIAN_POINT('', (-6.19275600191793E-14, 3.99999999999994, -100.));
#275 = CARTESIAN_POINT('', (1.17887728933848E-15, 6.12323399573677E-15, -100.));
#276 = CARTESIAN_POINT('', (3.99999999999988, 3.99999999999994, -96.));
#277 = CARTESIAN_POINT('', (3.99999999999988, 3.99999999999994, -100.));
#278 = CARTESIAN_POINT('', (1.17887728933848E-15, 6.12323399573677E-15, -100.));
#279 = CARTESIAN_POINT('', (3.99999999999988, 6.12323399573679E-15, -96.));
#280 = CARTESIAN_POINT('', (3.99999999999988, 5.87830463590732E-15, -100.));
#281 = CARTESIAN_POINT('', (1.17887728933848E-15, 6.12323399573677E-15, -100.));
#282 = CARTESIAN_POINT('', (3.99999999999988, -3.99999999999993, -96.));
#283 = CARTESIAN_POINT('', (3.99999999999988, -3.99999999999993, -100.));
#284 = CARTESIAN_POINT('', (1.17887728933848E-15, 6.12323399573677E-15, -100.));
#285 = CARTESIAN_POINT('', (-6.16826306593498E-14, -3.99999999999993, -96.));
#286 = CARTESIAN_POINT('', (-6.19275600191793E-14, -3.99999999999993, -100.));
#287 = CARTESIAN_POINT('', (1.17887728933848E-15, 6.12323399573677E-15, -100.));
#288 = CARTESIAN_POINT('', (-4., -3.99999999999993, -96.));
#289 = CARTESIAN_POINT('', (-4., -3.99999999999993, -100.));
#290 = CARTESIAN_POINT('', (1.17887728933848E-15, 6.12323399573677E-15, -100.));
#291 = CARTESIAN_POINT('', (-4., 6.12323399573677E-15, -96.));
#292 = CARTESIAN_POINT('', (-4., 6.36816335556624E-15, -100.));
#293 = CARTESIAN_POINT('', (1.17887728933848E-15, 6.12323399573677E-15, -100.));
#294 = PRESENTATION_STYLE_ASSIGNMENT((#295));
#295 = SURFACE_STYLE_USAGE(.POSITIVE., #296);
#296 = SURFACE_SIDE_STYLE('', (#297));
#297 = SURFACE_STYLE_FILL_AREA(#298);
#298 = FILL_AREA_STYLE('', (#299));
#299 = FILL_AREA_STYLE_COLOUR('', #300);
#300 = COLOUR_RGB('', 0.8, 0.8, 0.8);
#301 = STYLED_ITEM('', (#294), #194);
#302 = TRIMMED_CURVE('cutting part line', #303, (#307), (#308), .T., .CARTESIAN.);
#303 = LINE('', #304, #305);
#304 = CARTESIAN_POINT('', (-1.03483425003668E-30, -5.63337527607782E-15, -92.));
#305 = VECTOR('', #306, 4.);
#306 = DIRECTION('', (4., -7.34788079488421E-16, 0.));
#307 = CARTESIAN_POINT('', (-1.03483425003668E-30, -5.63337527607782E-15, -92.));
#308 = CARTESIAN_POINT('', (4., -6.36816335556624E-15, -92.));
#309 = TRIMMED_CURVE('cutting part line', #310, (#314), (#315), .T., .CARTESIAN.);
#310 = LINE('', #311, #312);
#311 = CARTESIAN_POINT('', (4., -6.36816335556624E-15, -92.));
#312 = VECTOR('', #313, 4.);
#313 = DIRECTION('', (0., -2.4492935982947E-16, -4.));
#314 = CARTESIAN_POINT('', (4., -6.36816335556624E-15, -92.));
#315 = CARTESIAN_POINT('', (4., -6.61309271539571E-15, -96.));
#316 = TRIMMED_CURVE('cutting part line', #317, (#322), (#323), .T., .CARTESIAN.);
#317 = CIRCLE('', #318, 4.00000000000005);
#318 = AXIS2_PLACEMENT_3D('', #319, #320, #321);
#319 = CARTESIAN_POINT('', (-5.50670620214078E-14, -5.87830463590728E-15, -96.));
#320 = DIRECTION('', (1.83697019872104E-16, 1., -6.12323399573685E-17));
#321 = DIRECTION('', (1., -1.83697019872105E-16, -7.1054273576009E-15));
#322 = CARTESIAN_POINT('', (4., -6.61309271539571E-15, -96.));
#323 = CARTESIAN_POINT('', (-1.53142747956971E-15, -6.12323399573677E-15, -100.));
#324 = TRIMMED_CURVE('cutting part line', #325, (#329), (#330), .T., .CARTESIAN.);
#325 = LINE('', #326, #327);
#326 = CARTESIAN_POINT('', (-1.12481983699639E-30, -6.12323399573677E-15, -100.));
#327 = VECTOR('', #328, 8.);
#328 = DIRECTION('', (8.99855869597124E-32, 4.8985871965895E-16, 8.));
#329 = CARTESIAN_POINT('', (-1.12481983699639E-30, -6.12323399573677E-15, -100.));
#330 = CARTESIAN_POINT('', (-1.03483425003668E-30, -5.63337527607782E-15, -92.));
#331 = COMPOSITE_CURVE('cutting part line', (#332, #333, #334, #335), .U.);
#332 = COMPOSITE_CURVE_SEGMENT(.CONTINUOUS., .T., #302);
#333 = COMPOSITE_CURVE_SEGMENT(.CONTINUOUS., .T., #309);
#334 = COMPOSITE_CURVE_SEGMENT(.CONTINUOUS., .T., #316);
#335 = COMPOSITE_CURVE_SEGMENT(.CONTINUOUS., .T., #324);
#336 = GEOMETRIC_SET('', (#331, #374));
#337 = PRESENTATION_STYLE_ASSIGNMENT((#338));
#338 = CURVE_STYLE('', #340, POSITIVE_LENGTH_MEASURE(1.E-6), #339);
#339 = COLOUR_RGB('', 0., 0., 1.);
#340 = DRAUGHTING_PRE_DEFINED_CURVE_FONT('continuous');
#341 = STYLED_ITEM('', (#337), #331);
#342 = PRESENTATION_STYLE_ASSIGNMENT((#343));
#343 = CURVE_STYLE('', #345, POSITIVE_LENGTH_MEASURE(1.E-6), #344);
#344 = COLOUR_RGB('', 0., 0., 1.);
#345 = DRAUGHTING_PRE_DEFINED_CURVE_FONT('continuous');
#346 = OVER_RIDING_STYLED_ITEM('', (#342), #302, #341);
#347 = PRESENTATION_STYLE_ASSIGNMENT((#348));
#348 = CURVE_STYLE('', #350, POSITIVE_LENGTH_MEASURE(1.E-6), #349);
#349 = COLOUR_RGB('', 0., 0., 1.);
#350 = DRAUGHTING_PRE_DEFINED_CURVE_FONT('continuous');
#351 = OVER_RIDING_STYLED_ITEM('', (#347), #309, #341);
#352 = PRESENTATION_STYLE_ASSIGNMENT((#353));
#353 = CURVE_STYLE('', #355, POSITIVE_LENGTH_MEASURE(1.E-6), #354);
#354 = COLOUR_RGB('', 0., 0., 1.);
#355 = DRAUGHTING_PRE_DEFINED_CURVE_FONT('continuous');
#356 = OVER_RIDING_STYLED_ITEM('', (#352), #316, #341);
#357 = PRESENTATION_STYLE_ASSIGNMENT((#358));
#358 = CURVE_STYLE('', #360, POSITIVE_LENGTH_MEASURE(1.E-6), #359);
#359 = COLOUR_RGB('', 0., 0., 1.);
#360 = DRAUGHTING_PRE_DEFINED_CURVE_FONT('continuous');
#361 = OVER_RIDING_STYLED_ITEM('', (#357), #324, #341);
#362 = AXIS2_PLACEMENT_3D('CIP', #363, #364, #365);
#363 = CARTESIAN_POINT('', (3.74939945665464E-31, 6.12323399573677E-15, -100.));
#364 = DIRECTION('', (-3.74939945665465E-33, -6.12323399573677E-17, 1.));
#365 = DIRECTION('', (1., -6.12323399573677E-17, 0.));
#366 = AXIS2_PLACEMENT_3D('MCS', #367, #368, #369);
#367 = CARTESIAN_POINT('', (1.67973095658128E-31, 2.74320883009007E-15, -44.8));
#368 = DIRECTION('', (-3.74939945665465E-33, -6.12323399573677E-17, 1.));
#369 = DIRECTION('', (1., -6.12323399573677E-17, 0.));
#370 = AXIS2_PLACEMENT_3D('PCS', #371, #372, #373);
#371 = CARTESIAN_POINT('', (0., 0., 0.));
#372 = DIRECTION('', (0., 0., 1.));
#373 = DIRECTION('', (1., 0., 0.));
#374 = CARTESIAN_POINT('CRP', (4., 0., -100.));
#375 = (
   GEOMETRIC_REPRESENTATION_CONTEXT (3)
   GLOBAL_UNCERTAINTY_ASSIGNED_CONTEXT ((#377))
   GLOBAL_UNIT_ASSIGNED_CONTEXT ((#376, #378, #379))
   REPRESENTATION_CONTEXT ('', '3D')
);
#376 = (
   LENGTH_UNIT ()
   NAMED_UNIT (*)
   SI_UNIT (.MILLI., .METRE.)
);
#377 = UNCERTAINTY_MEASURE_WITH_UNIT(LENGTH_MEASURE(1.E-6), #376, 'DISTANCE_ACCURACY_VALUE', '');
#378 = (
   NAMED_UNIT (*)
   SI_UNIT ($, .STERADIAN.)
   SOLID_ANGLE_UNIT ()
);
#379 = (
   NAMED_UNIT (*)
   PLANE_ANGLE_UNIT ()
   SI_UNIT ($, .RADIAN.)
);
#380 = SHAPE_REPRESENTATION('', (), #375);
#381 = PRODUCT_DEFINITION_SHAPE('', '', #382);
#382 = PRODUCT_DEFINITION('', '', #385, #389);
#383 = APPLICATION_CONTEXT('configuration controlled 3D designs of mechanical parts and assemblies');
#384 = APPLICATION_PROTOCOL_DEFINITION('International Standard', 'automotive_design', 2002, #383);
#385 = PRODUCT_DEFINITION_FORMATION_WITH_SPECIFIED_SOURCE('', '', #386, .NOT_KNOWN.);
#386 = PRODUCT('EmptyName', 'EmptyName', '', (#387));
#387 = PRODUCT_CONTEXT('', #383, 'mechanical');
#388 = PRODUCT_RELATED_PRODUCT_CATEGORY('detail', '', (#386));
#389 = PRODUCT_DEFINITION_CONTEXT('part definition', #383, 'design');
#390 = SHAPE_DEFINITION_REPRESENTATION(#381, #380);
#391 = CONSTRUCTIVE_GEOMETRY_REPRESENTATION('supplemental geometry', (#362, #366, #370), #375);
#392 = CONSTRUCTIVE_GEOMETRY_REPRESENTATION_RELATIONSHIP('', '', #380, #391);
#393 = SHAPE_REPRESENTATION_RELATIONSHIP('', '', #380, #394);
#394 = SHAPE_REPRESENTATION('', (#336), #375);
#395 = SHAPE_REPRESENTATION_RELATIONSHIP('', '', #380, #396);
#396 = ADVANCED_BREP_SHAPE_REPRESENTATION('', (#1, #194), #375);
ENDSEC;
END-ISO-10303-21;
