ISO-10303-21;
HEADER;
FILE_DESCRIPTION(('STEP'), '1');
FILE_NAME('C:\\Users\\ds2002\\OneDrive - Sandvik\\HomeShare\\Documents\\Batchrepair\\CorSRT2\\NEW_MILBN_SLD\\Output2\\MOD000000000000000020084647400000.stp', '2018-11-23T12:39:12', (''), (''), 'Express v3.0.0.0', 'Express Tool', 'Unknown');
FILE_SCHEMA(('AUTOMOTIVE_DESIGN'));
ENDSEC;

DATA;
#1 = MANIFOLD_SOLID_BREP('NOCUT', #2);
#2 = CLOSED_SHELL('', (#3, #50, #59, #98));
#3 = ADVANCED_FACE('', (#4), #31, .T.);
#4 = FACE_OUTER_BOUND('', #5, .T.);
#5 = EDGE_LOOP('', (#6, #16, #23, #24));
#6 = ORIENTED_EDGE('', *, *, #7, .T.);
#7 = EDGE_CURVE('', #8, #10, #12, .T.);
#8 = VERTEX_POINT('', #9);
#9 = CARTESIAN_POINT('', (-4., 2.69422295812418E-16, -0.399999999999999));
#10 = VERTEX_POINT('', #11);
#11 = CARTESIAN_POINT('', (-3.6, 2.20436423846524E-16, 0.));
#12 = LINE('', #13, #14);
#13 = CARTESIAN_POINT('', (-4., 2.69422295812418E-16, -0.399999999999999));
#14 = VECTOR('', #15, 0.565685424949237);
#15 = DIRECTION('', (0.4, -4.8985871965894E-17, 0.399999999999999));
#16 = ORIENTED_EDGE('', *, *, #17, .T.);
#17 = EDGE_CURVE('', #10, #10, #18, .T.);
#18 = CIRCLE('', #19, 3.6);
#19 = AXIS2_PLACEMENT_3D('', #20, #21, #22);
#20 = CARTESIAN_POINT('', (-7.21644966006352E-16, -2.22044604925031E-15, -1.4791141972894E-31));
#21 = DIRECTION('', (4.30423794362901E-34, 6.12323399573678E-17, -1.));
#22 = DIRECTION('', (-1., 6.78022909193566E-16, 4.1086505480261E-32));
#23 = ORIENTED_EDGE('', *, *, #7, .F.);
#24 = ORIENTED_EDGE('', *, *, #25, .F.);
#25 = EDGE_CURVE('', #8, #8, #26, .T.);
#26 = CIRCLE('', #27, 4.);
#27 = AXIS2_PLACEMENT_3D('', #28, #29, #30);
#28 = CARTESIAN_POINT('', (-3.33066907387547E-16, -1.77635683940025E-15, -0.399999999999999));
#29 = DIRECTION('', (2.77555756156289E-17, 5.14030469134514E-17, -1.));
#30 = DIRECTION('', (-1., 5.11444783803167E-16, -2.77555756156289E-17));
#31 = (
   BOUNDED_SURFACE ()
   B_SPLINE_SURFACE (1, 2, ((#32, #33, #34, #35, #36, #37, #38, #39, #40), (#41, #42, #43, #44, #45, #46, #47, #48, #49)), .UNSPECIFIED., .F., .T., .U.)
   B_SPLINE_SURFACE_WITH_KNOTS ((2, 2), (3, 2, 2, 2, 3), (0., 1.), (0., 0.25, 0.5, 0.75, 1.), .UNSPECIFIED.)
   GEOMETRIC_REPRESENTATION_ITEM ()
   RATIONAL_B_SPLINE_SURFACE (((1., 0.707106781186548, 1., 0.707106781186548, 1., 0.707106781186548, 1., 0.707106781186548, 1.), (1., 0.707106781186548, 1., 0.707106781186548, 1., 0.707106781186548, 1., 0.707106781186548, 1.)))
   REPRESENTATION_ITEM ('')
   SURFACE ()
);
#32 = CARTESIAN_POINT('', (-4., -2.04953155772919E-15, -0.399999999999999));
#33 = CARTESIAN_POINT('', (-4., 4., -0.400000000000022));
#34 = CARTESIAN_POINT('', (3.28440978118275E-16, 4., -0.400000000000022));
#35 = CARTESIAN_POINT('', (4., 4., -0.400000000000022));
#36 = CARTESIAN_POINT('', (4., -2.78968024081262E-15, -0.399999999999999));
#37 = CARTESIAN_POINT('', (4., -4., -0.399999999999976));
#38 = CARTESIAN_POINT('', (7.81510146937783E-17, -4., -0.399999999999976));
#39 = CARTESIAN_POINT('', (-4., -4., -0.399999999999976));
#40 = CARTESIAN_POINT('', (-4., -2.04953155772919E-15, -0.399999999999999));
#41 = CARTESIAN_POINT('', (-3.6, 2.20436423846524E-16, 0.));
#42 = CARTESIAN_POINT('', (-3.6, 3.6, -2.09832151654155E-14));
#43 = CARTESIAN_POINT('', (2.91433543964104E-16, 3.6, -2.09832151654155E-14));
#44 = CARTESIAN_POINT('', (3.6, 3.6, -2.09832151654155E-14));
#45 = CARTESIAN_POINT('', (3.6, -4.45697390928571E-16, -2.60668058374687E-30));
#46 = CARTESIAN_POINT('', (3.6, -3.6, 2.09832151654155E-14));
#47 = CARTESIAN_POINT('', (6.61725768820564E-17, -3.6, 2.09832151654155E-14));
#48 = CARTESIAN_POINT('', (-3.6, -3.6, 2.09832151654155E-14));
#49 = CARTESIAN_POINT('', (-3.6, 2.20436423846524E-16, 0.));
#50 = ADVANCED_FACE('', (#51), #54, .T.);
#51 = FACE_OUTER_BOUND('', #52, .T.);
#52 = EDGE_LOOP('', (#53));
#53 = ORIENTED_EDGE('', *, *, #17, .F.);
#54 = B_SPLINE_SURFACE_WITH_KNOTS('', 1, 1, ((#55, #56), (#57, #58)), .UNSPECIFIED., .F., .F., .U., (2, 2), (2, 2), (2.00028570699746, 9.20028570699746), (2.00028570699746, 9.20028570699746), .UNSPECIFIED.);
#55 = CARTESIAN_POINT('', (3.6, -3.6, 1.39904182913555E-14));
#56 = CARTESIAN_POINT('', (-3.6, -3.6, -2.20436423846509E-16));
#57 = CARTESIAN_POINT('', (3.6, 3.6, 2.20436423846479E-16));
#58 = CARTESIAN_POINT('', (-3.6, 3.6, -1.39904182913555E-14));
#59 = ADVANCED_FACE('', (#60), #79, .T.);
#60 = FACE_OUTER_BOUND('', #61, .T.);
#61 = EDGE_LOOP('', (#62, #71, #77, #78));
#62 = ORIENTED_EDGE('', *, *, #63, .F.);
#63 = EDGE_CURVE('', #64, #64, #66, .T.);
#64 = VERTEX_POINT('', #65);
#65 = CARTESIAN_POINT('', (-4., 5.63337527607783E-15, -88.));
#66 = CIRCLE('', #67, 4.);
#67 = AXIS2_PLACEMENT_3D('', #68, #69, #70);
#68 = CARTESIAN_POINT('', (9.29811783123569E-16, 4.10782519111308E-15, -88.));
#69 = DIRECTION('', (0., 0., -1.));
#70 = DIRECTION('', (-1., 3.81387521241188E-16, 0.));
#71 = ORIENTED_EDGE('', *, *, #72, .F.);
#72 = EDGE_CURVE('', #8, #64, #73, .T.);
#73 = LINE('', #74, #75);
#74 = CARTESIAN_POINT('', (-4., 2.69422295812418E-16, -0.399999999999999));
#75 = VECTOR('', #76, 87.6);
#76 = DIRECTION('', (0., 5.36395298026541E-15, -87.6));
#77 = ORIENTED_EDGE('', *, *, #25, .T.);
#78 = ORIENTED_EDGE('', *, *, #72, .T.);
#79 = (
   BOUNDED_SURFACE ()
   B_SPLINE_SURFACE (1, 2, ((#80, #81, #82, #83, #84, #85, #86, #87, #88), (#89, #90, #91, #92, #93, #94, #95, #96, #97)), .UNSPECIFIED., .F., .T., .U.)
   B_SPLINE_SURFACE_WITH_KNOTS ((2, 2), (3, 2, 2, 2, 3), (-1.39344262295082, 1.), (0., 0.25, 0.5, 0.75, 1.), .UNSPECIFIED.)
   GEOMETRIC_REPRESENTATION_ITEM ()
   RATIONAL_B_SPLINE_SURFACE (((1., 0.707106781186548, 1., 0.707106781186548, 1., 0.707106781186548, 1., 0.707106781186548, 1.), (1., 0.707106781186548, 1., 0.707106781186548, 1., 0.707106781186548, 1., 0.707106781186548, 1.)))
   REPRESENTATION_ITEM ('')
   SURFACE ()
);
#80 = CARTESIAN_POINT('', (-4., 5.26542590662562E-15, -88.));
#81 = CARTESIAN_POINT('', (-4., 4.00000000000001, -88.));
#82 = CARTESIAN_POINT('', (4.84286086285613E-15, 4., -88.));
#83 = CARTESIAN_POINT('', (4., 4., -88.));
#84 = CARTESIAN_POINT('', (4., 1.66372635585923E-15, -88.));
#85 = CARTESIAN_POINT('', (4., -4., -88.));
#86 = CARTESIAN_POINT('', (1.73102003174868E-15, -4., -88.));
#87 = CARTESIAN_POINT('', (-4., -4., -88.));
#88 = CARTESIAN_POINT('', (-4., 5.26542590662562E-15, -88.));
#89 = CARTESIAN_POINT('', (-4., 2.69422295812417E-16, -0.399999999999999));
#90 = CARTESIAN_POINT('', (-4., 4., -0.399999999999999));
#91 = CARTESIAN_POINT('', (2.41147243892703E-15, 4., -0.399999999999999));
#92 = CARTESIAN_POINT('', (4., 4., -0.399999999999999));
#93 = CARTESIAN_POINT('', (4., -3.33227725495398E-15, -0.399999999999999));
#94 = CARTESIAN_POINT('', (4., -4., -0.399999999999999));
#95 = CARTESIAN_POINT('', (-7.0036839218042E-16, -4., -0.399999999999999));
#96 = CARTESIAN_POINT('', (-4., -4., -0.399999999999999));
#97 = CARTESIAN_POINT('', (-4., 2.69422295812417E-16, -0.399999999999999));
#98 = ADVANCED_FACE('', (#99), #102, .T.);
#99 = FACE_OUTER_BOUND('', #100, .T.);
#100 = EDGE_LOOP('', (#101));
#101 = ORIENTED_EDGE('', *, *, #63, .T.);
#102 = B_SPLINE_SURFACE_WITH_KNOTS('', 1, 1, ((#103, #104), (#105, #106)), .UNSPECIFIED., .F., .F., .U., (2, 2), (2, 2), (99.677970088998, 107.677970088998), (93.5979671513985, 101.597967151398), .UNSPECIFIED.);
#103 = CARTESIAN_POINT('', (-4., 4.00000000000001, -88.));
#104 = CARTESIAN_POINT('', (-4., -4., -88.));
#105 = CARTESIAN_POINT('', (4., 4.00000000000001, -88.));
#106 = CARTESIAN_POINT('', (4., -4., -88.));
#107 = DRAUGHTING_MODEL('', (#115, #223, #263, #268, #273, #278, #283), #297);
#108 = PRESENTATION_STYLE_ASSIGNMENT((#109));
#109 = SURFACE_STYLE_USAGE(.POSITIVE., #110);
#110 = SURFACE_SIDE_STYLE('', (#111));
#111 = SURFACE_STYLE_FILL_AREA(#112);
#112 = FILL_AREA_STYLE('', (#113));
#113 = FILL_AREA_STYLE_COLOUR('', #114);
#114 = COLOUR_RGB('', 0.50196078431373, 0.50196078431373, 0.50196078431373);
#115 = STYLED_ITEM('', (#108), #1);
#116 = MANIFOLD_SOLID_BREP('CUT', #117);
#117 = CLOSED_SHELL('', (#118, #135, #174));
#118 = ADVANCED_FACE('', (#119), #130, .T.);
#119 = FACE_OUTER_BOUND('', #120, .T.);
#120 = EDGE_LOOP('', (#121));
#121 = ORIENTED_EDGE('', *, *, #122, .F.);
#122 = EDGE_CURVE('', #123, #123, #125, .T.);
#123 = VERTEX_POINT('', #124);
#124 = CARTESIAN_POINT('', (-4., 5.63337527607783E-15, -88.));
#125 = CIRCLE('', #126, 4.);
#126 = AXIS2_PLACEMENT_3D('', #127, #128, #129);
#127 = CARTESIAN_POINT('', (6.66133814775094E-16, 4.10782519111308E-15, -88.));
#128 = DIRECTION('', (0., 0., -1.));
#129 = DIRECTION('', (-1., 1.36458161411715E-16, 0.));
#130 = B_SPLINE_SURFACE_WITH_KNOTS('', 1, 1, ((#131, #132), (#133, #134)), .UNSPECIFIED., .F., .F., .U., (2, 2), (2, 2), (93.5979671513984, 101.597967151398), (99.677970088998, 107.677970088998), .UNSPECIFIED.);
#131 = CARTESIAN_POINT('', (-4., 4.00000000000002, -88.));
#132 = CARTESIAN_POINT('', (4., 4.00000000000002, -88.));
#133 = CARTESIAN_POINT('', (-4., -4., -88.));
#134 = CARTESIAN_POINT('', (4., -4., -88.));
#135 = ADVANCED_FACE('', (#136), #155, .T.);
#136 = FACE_OUTER_BOUND('', #137, .T.);
#137 = EDGE_LOOP('', (#138, #139, #147, #154));
#138 = ORIENTED_EDGE('', *, *, #122, .T.);
#139 = ORIENTED_EDGE('', *, *, #140, .T.);
#140 = EDGE_CURVE('', #123, #141, #143, .T.);
#141 = VERTEX_POINT('', #142);
#142 = CARTESIAN_POINT('', (-4., 6.12323399573677E-15, -96.));
#143 = LINE('', #144, #145);
#144 = CARTESIAN_POINT('', (-4., 5.63337527607783E-15, -88.));
#145 = VECTOR('', #146, 8.);
#146 = DIRECTION('', (0., 4.8985871965894E-16, -8.));
#147 = ORIENTED_EDGE('', *, *, #148, .F.);
#148 = EDGE_CURVE('', #141, #141, #149, .T.);
#149 = CIRCLE('', #150, 4.);
#150 = AXIS2_PLACEMENT_3D('', #151, #152, #153);
#151 = CARTESIAN_POINT('', (-9.71445146547012E-17, 3.5527136788005E-15, -96.));
#152 = DIRECTION('', (0., 0., -1.));
#153 = DIRECTION('', (-1., 6.42630079234067E-16, 0.));
#154 = ORIENTED_EDGE('', *, *, #140, .F.);
#155 = (
   BOUNDED_SURFACE ()
   B_SPLINE_SURFACE (1, 2, ((#156, #157, #158, #159, #160, #161, #162, #163, #164), (#165, #166, #167, #168, #169, #170, #171, #172, #173)), .UNSPECIFIED., .F., .T., .U.)
   B_SPLINE_SURFACE_WITH_KNOTS ((2, 2), (3, 2, 2, 2, 3), (-1.6120218579235, -1.39344262295082), (0., 0.25, 0.5, 0.75, 1.), .UNSPECIFIED.)
   GEOMETRIC_REPRESENTATION_ITEM ()
   RATIONAL_B_SPLINE_SURFACE (((1., 0.707106781186548, 1., 0.707106781186548, 1., 0.707106781186548, 1., 0.707106781186548, 1.), (1., 0.707106781186548, 1., 0.707106781186548, 1., 0.707106781186548, 1., 0.707106781186548, 1.)))
   REPRESENTATION_ITEM ('')
   SURFACE ()
);
#156 = CARTESIAN_POINT('', (-4., 7.18768751055305E-15, -96.));
#157 = CARTESIAN_POINT('', (-4., 4.00000000000001, -96.));
#158 = CARTESIAN_POINT('', (3.94515598423566E-15, 4., -96.));
#159 = CARTESIAN_POINT('', (4., 4., -96.));
#160 = CARTESIAN_POINT('', (4., 2.85008922088224E-15, -96.));
#161 = CARTESIAN_POINT('', (4., -4., -96.));
#162 = CARTESIAN_POINT('', (9.74164142237867E-17, -4., -96.));
#163 = CARTESIAN_POINT('', (-4., -3.99999999999999, -96.));
#164 = CARTESIAN_POINT('', (-4., 7.18768751055305E-15, -96.));
#165 = CARTESIAN_POINT('', (-4., 5.63337527607783E-15, -88.));
#166 = CARTESIAN_POINT('', (-4., 4.00000000000001, -88.));
#167 = CARTESIAN_POINT('', (3.94515598423566E-15, 4., -88.));
#168 = CARTESIAN_POINT('', (4., 4., -88.));
#169 = CARTESIAN_POINT('', (4., 1.29577698640702E-15, -88.));
#170 = CARTESIAN_POINT('', (4., -4., -88.));
#171 = CARTESIAN_POINT('', (9.74164142237867E-17, -4., -88.));
#172 = CARTESIAN_POINT('', (-4., -4., -88.));
#173 = CARTESIAN_POINT('', (-4., 5.63337527607783E-15, -88.));
#174 = ADVANCED_FACE('', (#175), #188, .T.);
#175 = FACE_OUTER_BOUND('', #176, .T.);
#176 = EDGE_LOOP('', (#177, #186, #187));
#177 = ORIENTED_EDGE('', *, *, #178, .F.);
#178 = EDGE_CURVE('', #141, #179, #181, .T.);
#179 = VERTEX_POINT('', #180);
#180 = CARTESIAN_POINT('', (1.17887728933848E-15, 6.12323399573677E-15, -100.));
#181 = CIRCLE('', #182, 3.99999999999999);
#182 = AXIS2_PLACEMENT_3D('', #183, #184, #185);
#183 = CARTESIAN_POINT('', (-1.55431223447522E-14, 5.87830463590729E-15, -96.));
#184 = DIRECTION('', (-6.12323399573692E-17, -1., -6.12323399573671E-17));
#185 = DIRECTION('', (-1., 6.12323399573692E-17, 0.));
#186 = ORIENTED_EDGE('', *, *, #148, .T.);
#187 = ORIENTED_EDGE('', *, *, #178, .T.);
#188 = (
   BOUNDED_SURFACE ()
   B_SPLINE_SURFACE (2, 2, ((#189, #190, #191), (#192, #193, #194), (#195, #196, #197), (#198, #199, #200), (#201, #202, #203), (#204, #205, #206), (#207, #208, #209), (#210, #211, #212), (#213, #214, #215)), .UNSPECIFIED., .T., .F., .U.)
   B_SPLINE_SURFACE_WITH_KNOTS ((3, 2, 2, 2, 3), (3, 3), (0., 0.25, 0.5, 0.75, 1.), (0., 1.), .UNSPECIFIED.)
   GEOMETRIC_REPRESENTATION_ITEM ()
   RATIONAL_B_SPLINE_SURFACE (((1., 0.707106781186548, 1.), (0.707106781186548, 0.5, 0.707106781186548), (1., 0.707106781186548, 1.), (0.707106781186548, 0.5, 0.707106781186548), (1., 0.707106781186548, 1.), (0.707106781186548, 0.5, 0.707106781186548), (1., 0.707106781186548, 1.), (0.707106781186548, 0.5, 0.707106781186548), (1., 0.707106781186548, 1.)))
   REPRESENTATION_ITEM ('')
   SURFACE ()
);
#189 = CARTESIAN_POINT('', (-4., 6.12323399573677E-15, -96.));
#190 = CARTESIAN_POINT('', (-4., 6.36816335556624E-15, -100.));
#191 = CARTESIAN_POINT('', (1.17887728933848E-15, 6.12323399573677E-15, -100.));
#192 = CARTESIAN_POINT('', (-4., 3.99999999999994, -96.));
#193 = CARTESIAN_POINT('', (-4., 3.99999999999994, -100.));
#194 = CARTESIAN_POINT('', (1.17887728933848E-15, 6.12323399573677E-15, -100.));
#195 = CARTESIAN_POINT('', (-6.21724893790088E-14, 3.99999999999994, -96.));
#196 = CARTESIAN_POINT('', (-6.19275600191793E-14, 3.99999999999994, -100.));
#197 = CARTESIAN_POINT('', (1.17887728933848E-15, 6.12323399573677E-15, -100.));
#198 = CARTESIAN_POINT('', (3.99999999999988, 3.99999999999994, -96.));
#199 = CARTESIAN_POINT('', (3.99999999999988, 3.99999999999994, -100.));
#200 = CARTESIAN_POINT('', (1.17887728933848E-15, 6.12323399573677E-15, -100.));
#201 = CARTESIAN_POINT('', (3.99999999999988, 6.12323399573679E-15, -96.));
#202 = CARTESIAN_POINT('', (3.99999999999988, 5.87830463590732E-15, -100.));
#203 = CARTESIAN_POINT('', (1.17887728933848E-15, 6.12323399573677E-15, -100.));
#204 = CARTESIAN_POINT('', (3.99999999999988, -3.99999999999993, -96.));
#205 = CARTESIAN_POINT('', (3.99999999999988, -3.99999999999993, -100.));
#206 = CARTESIAN_POINT('', (1.17887728933848E-15, 6.12323399573677E-15, -100.));
#207 = CARTESIAN_POINT('', (-6.16826306593498E-14, -3.99999999999993, -96.));
#208 = CARTESIAN_POINT('', (-6.19275600191793E-14, -3.99999999999993, -100.));
#209 = CARTESIAN_POINT('', (1.17887728933848E-15, 6.12323399573677E-15, -100.));
#210 = CARTESIAN_POINT('', (-4., -3.99999999999993, -96.));
#211 = CARTESIAN_POINT('', (-4., -3.99999999999993, -100.));
#212 = CARTESIAN_POINT('', (1.17887728933848E-15, 6.12323399573677E-15, -100.));
#213 = CARTESIAN_POINT('', (-4., 6.12323399573677E-15, -96.));
#214 = CARTESIAN_POINT('', (-4., 6.36816335556624E-15, -100.));
#215 = CARTESIAN_POINT('', (1.17887728933848E-15, 6.12323399573677E-15, -100.));
#216 = PRESENTATION_STYLE_ASSIGNMENT((#217));
#217 = SURFACE_STYLE_USAGE(.POSITIVE., #218);
#218 = SURFACE_SIDE_STYLE('', (#219));
#219 = SURFACE_STYLE_FILL_AREA(#220);
#220 = FILL_AREA_STYLE('', (#221));
#221 = FILL_AREA_STYLE_COLOUR('', #222);
#222 = COLOUR_RGB('', 0.8, 0.8, 0.8);
#223 = STYLED_ITEM('', (#216), #116);
#224 = TRIMMED_CURVE('cutting part line', #225, (#229), (#230), .T., .CARTESIAN.);
#225 = LINE('', #226, #227);
#226 = CARTESIAN_POINT('', (-9.89841456556826E-31, -5.38844591624835E-15, -88.));
#227 = VECTOR('', #228, 4.);
#228 = DIRECTION('', (4., -7.34788079488412E-16, 0.));
#229 = CARTESIAN_POINT('', (-9.89841456556826E-31, -5.38844591624835E-15, -88.));
#230 = CARTESIAN_POINT('', (4., -6.12323399573676E-15, -88.));
#231 = TRIMMED_CURVE('cutting part line', #232, (#236), (#237), .T., .CARTESIAN.);
#232 = LINE('', #233, #234);
#233 = CARTESIAN_POINT('', (4., -6.12323399573676E-15, -88.));
#234 = VECTOR('', #235, 8.);
#235 = DIRECTION('', (0., -4.8985871965895E-16, -8.));
#236 = CARTESIAN_POINT('', (4., -6.12323399573676E-15, -88.));
#237 = CARTESIAN_POINT('', (4., -6.61309271539571E-15, -96.));
#238 = TRIMMED_CURVE('cutting part line', #239, (#244), (#245), .T., .CARTESIAN.);
#239 = CIRCLE('', #240, 4.00000000000005);
#240 = AXIS2_PLACEMENT_3D('', #241, #242, #243);
#241 = CARTESIAN_POINT('', (-5.50670620214078E-14, -5.87830463590728E-15, -96.));
#242 = DIRECTION('', (1.83697019872104E-16, 1., -6.12323399573685E-17));
#243 = DIRECTION('', (1., -1.83697019872105E-16, -7.1054273576009E-15));
#244 = CARTESIAN_POINT('', (4., -6.61309271539571E-15, -96.));
#245 = CARTESIAN_POINT('', (-1.53142747956971E-15, -6.12323399573677E-15, -100.));
#246 = TRIMMED_CURVE('cutting part line', #247, (#251), (#252), .T., .CARTESIAN.);
#247 = LINE('', #248, #249);
#248 = CARTESIAN_POINT('', (-1.12481983699639E-30, -6.12323399573677E-15, -100.));
#249 = VECTOR('', #250, 12.);
#250 = DIRECTION('', (1.34978380439568E-31, 7.3478807948842E-16, 12.));
#251 = CARTESIAN_POINT('', (-1.12481983699639E-30, -6.12323399573677E-15, -100.));
#252 = CARTESIAN_POINT('', (-9.89841456556826E-31, -5.38844591624835E-15, -88.));
#253 = COMPOSITE_CURVE('cutting part line', (#254, #255, #256, #257), .U.);
#254 = COMPOSITE_CURVE_SEGMENT(.CONTINUOUS., .T., #224);
#255 = COMPOSITE_CURVE_SEGMENT(.CONTINUOUS., .T., #231);
#256 = COMPOSITE_CURVE_SEGMENT(.CONTINUOUS., .T., #238);
#257 = COMPOSITE_CURVE_SEGMENT(.CONTINUOUS., .T., #246);
#258 = GEOMETRIC_SET('', (#253, #296));
#259 = PRESENTATION_STYLE_ASSIGNMENT((#260));
#260 = CURVE_STYLE('', #262, POSITIVE_LENGTH_MEASURE(1.E-6), #261);
#261 = COLOUR_RGB('', 0., 0., 1.);
#262 = DRAUGHTING_PRE_DEFINED_CURVE_FONT('continuous');
#263 = STYLED_ITEM('', (#259), #253);
#264 = PRESENTATION_STYLE_ASSIGNMENT((#265));
#265 = CURVE_STYLE('', #267, POSITIVE_LENGTH_MEASURE(1.E-6), #266);
#266 = COLOUR_RGB('', 0., 0., 1.);
#267 = DRAUGHTING_PRE_DEFINED_CURVE_FONT('continuous');
#268 = OVER_RIDING_STYLED_ITEM('', (#264), #224, #263);
#269 = PRESENTATION_STYLE_ASSIGNMENT((#270));
#270 = CURVE_STYLE('', #272, POSITIVE_LENGTH_MEASURE(1.E-6), #271);
#271 = COLOUR_RGB('', 0., 0., 1.);
#272 = DRAUGHTING_PRE_DEFINED_CURVE_FONT('continuous');
#273 = OVER_RIDING_STYLED_ITEM('', (#269), #231, #263);
#274 = PRESENTATION_STYLE_ASSIGNMENT((#275));
#275 = CURVE_STYLE('', #277, POSITIVE_LENGTH_MEASURE(1.E-6), #276);
#276 = COLOUR_RGB('', 0., 0., 1.);
#277 = DRAUGHTING_PRE_DEFINED_CURVE_FONT('continuous');
#278 = OVER_RIDING_STYLED_ITEM('', (#274), #238, #263);
#279 = PRESENTATION_STYLE_ASSIGNMENT((#280));
#280 = CURVE_STYLE('', #282, POSITIVE_LENGTH_MEASURE(1.E-6), #281);
#281 = COLOUR_RGB('', 0., 0., 1.);
#282 = DRAUGHTING_PRE_DEFINED_CURVE_FONT('continuous');
#283 = OVER_RIDING_STYLED_ITEM('', (#279), #246, #263);
#284 = AXIS2_PLACEMENT_3D('CIP', #285, #286, #287);
#285 = CARTESIAN_POINT('', (3.74939945665464E-31, 6.12323399573677E-15, -100.));
#286 = DIRECTION('', (-3.74939945665465E-33, -6.12323399573677E-17, 1.));
#287 = DIRECTION('', (1., -6.12323399573677E-17, 0.));
#288 = AXIS2_PLACEMENT_3D('MCS', #289, #290, #291);
#289 = CARTESIAN_POINT('', (1.38727779896222E-31, 2.2655965784226E-15, -37.));
#290 = DIRECTION('', (-3.74939945665465E-33, -6.12323399573677E-17, 1.));
#291 = DIRECTION('', (1., -6.12323399573677E-17, 0.));
#292 = AXIS2_PLACEMENT_3D('PCS', #293, #294, #295);
#293 = CARTESIAN_POINT('', (0., 0., 0.));
#294 = DIRECTION('', (0., 0., 1.));
#295 = DIRECTION('', (1., 0., 0.));
#296 = CARTESIAN_POINT('CRP', (4., 0., -100.));
#297 = (
   GEOMETRIC_REPRESENTATION_CONTEXT (3)
   GLOBAL_UNCERTAINTY_ASSIGNED_CONTEXT ((#299))
   GLOBAL_UNIT_ASSIGNED_CONTEXT ((#298, #300, #301))
   REPRESENTATION_CONTEXT ('', '3D')
);
#298 = (
   LENGTH_UNIT ()
   NAMED_UNIT (*)
   SI_UNIT (.MILLI., .METRE.)
);
#299 = UNCERTAINTY_MEASURE_WITH_UNIT(LENGTH_MEASURE(1.E-6), #298, 'DISTANCE_ACCURACY_VALUE', '');
#300 = (
   NAMED_UNIT (*)
   SI_UNIT ($, .STERADIAN.)
   SOLID_ANGLE_UNIT ()
);
#301 = (
   NAMED_UNIT (*)
   PLANE_ANGLE_UNIT ()
   SI_UNIT ($, .RADIAN.)
);
#302 = SHAPE_REPRESENTATION('', (), #297);
#303 = PRODUCT_DEFINITION_SHAPE('', '', #304);
#304 = PRODUCT_DEFINITION('', '', #307, #311);
#305 = APPLICATION_CONTEXT('configuration controlled 3D designs of mechanical parts and assemblies');
#306 = APPLICATION_PROTOCOL_DEFINITION('International Standard', 'automotive_design', 2002, #305);
#307 = PRODUCT_DEFINITION_FORMATION_WITH_SPECIFIED_SOURCE('', '', #308, .NOT_KNOWN.);
#308 = PRODUCT('NONE', 'R216.42-08030-AC12G 1700', '', (#309));
#309 = PRODUCT_CONTEXT('', #305, 'mechanical');
#310 = PRODUCT_RELATED_PRODUCT_CATEGORY('detail', '', (#308));
#311 = PRODUCT_DEFINITION_CONTEXT('part definition', #305, 'design');
#312 = SHAPE_DEFINITION_REPRESENTATION(#303, #302);
#313 = CONSTRUCTIVE_GEOMETRY_REPRESENTATION('supplemental geometry', (#284, #288, #292), #297);
#314 = CONSTRUCTIVE_GEOMETRY_REPRESENTATION_RELATIONSHIP('', '', #302, #313);
#315 = SHAPE_REPRESENTATION_RELATIONSHIP('', '', #302, #316);
#316 = SHAPE_REPRESENTATION('', (#258), #297);
#317 = SHAPE_REPRESENTATION_RELATIONSHIP('', '', #302, #318);
#318 = ADVANCED_BREP_SHAPE_REPRESENTATION('', (#1, #116), #297);
ENDSEC;
END-ISO-10303-21;
