ISO-10303-21;
HEADER;
FILE_DESCRIPTION(('STEP'), '1');
FILE_NAME('C:\\Users\\ds2002\\OneDrive - Sandvik\\HomeShare\\Documents\\Batchrepair\\CorSRT2\\NEW_MILBN_SLD\\Output2\\MOD000000000000000020084647100000.stp', '2018-11-23T12:39:39', (''), (''), 'Express v3.0.0.0', 'Express Tool', 'Unknown');
FILE_SCHEMA(('AUTOMOTIVE_DESIGN'));
ENDSEC;

DATA;
#1 = MANIFOLD_SOLID_BREP('NOCUT', #2);
#2 = CLOSED_SHELL('', (#3, #50, #59, #98));
#3 = ADVANCED_FACE('', (#4), #31, .T.);
#4 = FACE_OUTER_BOUND('', #5, .T.);
#5 = EDGE_LOOP('', (#6, #16, #23, #24));
#6 = ORIENTED_EDGE('', *, *, #7, .T.);
#7 = EDGE_CURVE('', #8, #10, #12, .T.);
#8 = VERTEX_POINT('', #9);
#9 = CARTESIAN_POINT('', (-3., 2.02066721859313E-16, -0.299999999999997));
#10 = VERTEX_POINT('', #11);
#11 = CARTESIAN_POINT('', (-2.7, 1.65327317884893E-16, 0.));
#12 = LINE('', #13, #14);
#13 = CARTESIAN_POINT('', (-3., 2.02066721859313E-16, -0.299999999999997));
#14 = VECTOR('', #15, 0.424264068711926);
#15 = DIRECTION('', (0.3, -3.673940397442E-17, 0.299999999999997));
#16 = ORIENTED_EDGE('', *, *, #17, .T.);
#17 = EDGE_CURVE('', #10, #10, #18, .T.);
#18 = CIRCLE('', #19, 2.7);
#19 = AXIS2_PLACEMENT_3D('', #20, #21, #22);
#20 = CARTESIAN_POINT('', (6.24500451351651E-17, -1.88737914186277E-15, -1.07852076885685E-31));
#21 = DIRECTION('', (6.60738625565492E-33, 6.12323399573678E-17, -1.));
#22 = DIRECTION('', (-1., 7.60261651758392E-16, 3.99452136613649E-32));
#23 = ORIENTED_EDGE('', *, *, #7, .F.);
#24 = ORIENTED_EDGE('', *, *, #25, .F.);
#25 = EDGE_CURVE('', #8, #8, #26, .T.);
#26 = CIRCLE('', #27, 3.);
#27 = AXIS2_PLACEMENT_3D('', #28, #29, #30);
#28 = CARTESIAN_POINT('', (-8.32667268468867E-16, 1.66533453693773E-16, -0.299999999999997));
#29 = DIRECTION('', (7.45939217764516E-34, 6.29780982393227E-17, -1.));
#30 = DIRECTION('', (-1., 1.18444227218465E-17, 0.));
#31 = (
   BOUNDED_SURFACE ()
   B_SPLINE_SURFACE (1, 2, ((#32, #33, #34, #35, #36, #37, #38, #39, #40), (#41, #42, #43, #44, #45, #46, #47, #48, #49)), .UNSPECIFIED., .F., .T., .U.)
   B_SPLINE_SURFACE_WITH_KNOTS ((2, 2), (3, 2, 2, 2, 3), (0., 1.), (0., 0.25, 0.5, 0.75, 1.), .UNSPECIFIED.)
   GEOMETRIC_REPRESENTATION_ITEM ()
   RATIONAL_B_SPLINE_SURFACE (((1., 0.707106781186548, 1., 0.707106781186548, 1., 0.707106781186548, 1., 0.707106781186548, 1.), (1., 0.707106781186548, 1., 0.707106781186548, 1., 0.707106781186548, 1., 0.707106781186548, 1.)))
   REPRESENTATION_ITEM ('')
   SURFACE ()
);
#32 = CARTESIAN_POINT('', (-3., 1.49129302665284E-15, -0.299999999999999));
#33 = CARTESIAN_POINT('', (-3., 3., -0.299999999999987));
#34 = CARTESIAN_POINT('', (2.51454698186695E-15, 3., -0.299999999999985));
#35 = CARTESIAN_POINT('', (3., 3., -0.299999999999984));
#36 = CARTESIAN_POINT('', (3., -1.34594359183367E-15, -0.299999999999995));
#37 = CARTESIAN_POINT('', (3., -3., -0.300000000000007));
#38 = CARTESIAN_POINT('', (4.4704403124661E-17, -3., -0.300000000000009));
#39 = CARTESIAN_POINT('', (-3., -3., -0.30000000000001));
#40 = CARTESIAN_POINT('', (-3., 1.49129302665284E-15, -0.299999999999999));
#41 = CARTESIAN_POINT('', (-2.7, 1.65327317884893E-16, 7.88860905221012E-31));
#42 = CARTESIAN_POINT('', (-2.7, 2.7, 1.04916075827078E-14));
#43 = CARTESIAN_POINT('', (2.19962936753859E-15, 2.7, 1.20491096333442E-14));
#44 = CARTESIAN_POINT('', (2.7, 2.7, 1.36066116839805E-14));
#45 = CARTESIAN_POINT('', (2.7, -2.38818563875297E-15, 3.11500410127276E-15));
#46 = CARTESIAN_POINT('', (2.7, -2.7, -7.37660348143502E-15));
#47 = CARTESIAN_POINT('', (-2.32289533294772E-17, -2.7, -8.9341055320714E-15));
#48 = CARTESIAN_POINT('', (-2.7, -2.7, -1.04916075827078E-14));
#49 = CARTESIAN_POINT('', (-2.7, 1.65327317884893E-16, 7.88860905221012E-31));
#50 = ADVANCED_FACE('', (#51), #54, .T.);
#51 = FACE_OUTER_BOUND('', #52, .T.);
#52 = EDGE_LOOP('', (#53));
#53 = ORIENTED_EDGE('', *, *, #17, .F.);
#54 = B_SPLINE_SURFACE_WITH_KNOTS('', 1, 1, ((#55, #56), (#57, #58)), .UNSPECIFIED., .F., .F., .U., (2, 2), (2, 2), (1.5002142802481, 6.9002142802481), (1.50021428024809, 6.90021428024809), .UNSPECIFIED.);
#55 = CARTESIAN_POINT('', (2.7, -2.7, -1.65327317884918E-16));
#56 = CARTESIAN_POINT('', (-2.7, -2.7, 1.40455273973171E-14));
#57 = CARTESIAN_POINT('', (2.7, 2.7, -1.40455273973172E-14));
#58 = CARTESIAN_POINT('', (-2.7, 2.7, 1.65327317884877E-16));
#59 = ADVANCED_FACE('', (#60), #79, .T.);
#60 = FACE_OUTER_BOUND('', #61, .T.);
#61 = EDGE_LOOP('', (#62, #71, #77, #78));
#62 = ORIENTED_EDGE('', *, *, #63, .F.);
#63 = EDGE_CURVE('', #64, #64, #66, .T.);
#64 = VERTEX_POINT('', #65);
#65 = CARTESIAN_POINT('', (-3., 7.28664845492675E-15, -116.));
#66 = CIRCLE('', #67, 3.);
#67 = AXIS2_PLACEMENT_3D('', #68, #69, #70);
#68 = CARTESIAN_POINT('', (-4.71844785465692E-16, 8.82627304576999E-15, -116.));
#69 = DIRECTION('', (-1.22229917515872E-29, 1.61223931492672E-14, -1.));
#70 = DIRECTION('', (-1., -7.58137556777218E-16, 0.));
#71 = ORIENTED_EDGE('', *, *, #72, .F.);
#72 = EDGE_CURVE('', #8, #64, #73, .T.);
#73 = LINE('', #74, #75);
#74 = CARTESIAN_POINT('', (-3., 2.02066721859313E-16, -0.299999999999997));
#75 = VECTOR('', #76, 115.7);
#76 = DIRECTION('', (0., 7.08458173306744E-15, -115.7));
#77 = ORIENTED_EDGE('', *, *, #25, .T.);
#78 = ORIENTED_EDGE('', *, *, #72, .T.);
#79 = (
   BOUNDED_SURFACE ()
   B_SPLINE_SURFACE (1, 2, ((#80, #81, #82, #83, #84, #85, #86, #87, #88), (#89, #90, #91, #92, #93, #94, #95, #96, #97)), .UNSPECIFIED., .F., .T., .U.)
   B_SPLINE_SURFACE_WITH_KNOTS ((2, 2), (3, 2, 2, 2, 3), (-1.47751605995717, 1.), (0., 0.25, 0.5, 0.75, 1.), .UNSPECIFIED.)
   GEOMETRIC_REPRESENTATION_ITEM ()
   RATIONAL_B_SPLINE_SURFACE (((1., 0.707106781186548, 1., 0.707106781186548, 1., 0.707106781186548, 1., 0.707106781186548, 1.), (1., 0.707106781186548, 1., 0.707106781186548, 1., 0.707106781186548, 1., 0.707106781186548, 1.)))
   REPRESENTATION_ITEM ('')
   SURFACE ()
);
#80 = CARTESIAN_POINT('', (-3., 9.80549588486692E-15, -116.));
#81 = CARTESIAN_POINT('', (-3., 3.00000000000001, -116.));
#82 = CARTESIAN_POINT('', (4.48581124029459E-16, 3.00000000000001, -116.));
#83 = CARTESIAN_POINT('', (3., 3.00000000000001, -116.));
#84 = CARTESIAN_POINT('', (3., 9.43568957350495E-15, -116.));
#85 = CARTESIAN_POINT('', (3., -2.99999999999999, -116.));
#86 = CARTESIAN_POINT('', (4.46168852411699E-16, -2.99999999999999, -116.));
#87 = CARTESIAN_POINT('', (-3., -2.99999999999999, -116.));
#88 = CARTESIAN_POINT('', (-3., 9.80549588486692E-15, -116.));
#89 = CARTESIAN_POINT('', (-3., 2.02066721859313E-16, -0.299999999999997));
#90 = CARTESIAN_POINT('', (-3., 3., -0.299999999999997));
#91 = CARTESIAN_POINT('', (4.48581124029458E-16, 3., -0.299999999999997));
#92 = CARTESIAN_POINT('', (3., 3., -0.299999999999997));
#93 = CARTESIAN_POINT('', (3., -1.67739589502654E-16, -0.299999999999997));
#94 = CARTESIAN_POINT('', (3., -3., -0.299999999999997));
#95 = CARTESIAN_POINT('', (4.46168852411697E-16, -3., -0.299999999999997));
#96 = CARTESIAN_POINT('', (-3., -3., -0.299999999999997));
#97 = CARTESIAN_POINT('', (-3., 2.02066721859313E-16, -0.299999999999997));
#98 = ADVANCED_FACE('', (#99), #102, .T.);
#99 = FACE_OUTER_BOUND('', #100, .T.);
#100 = EDGE_LOOP('', (#101));
#101 = ORIENTED_EDGE('', *, *, #63, .T.);
#102 = B_SPLINE_SURFACE_WITH_KNOTS('', 1, 1, ((#103, #104), (#105, #106)), .UNSPECIFIED., .F., .F., .U., (2, 2), (2, 2), (124.855674036816, 130.855674036816), (119.71967068808, 125.71967068808), .UNSPECIFIED.);
#103 = CARTESIAN_POINT('', (-3., 3.00000000000001, -116.));
#104 = CARTESIAN_POINT('', (-3., -2.99999999999999, -116.));
#105 = CARTESIAN_POINT('', (3., 3.00000000000001, -116.));
#106 = CARTESIAN_POINT('', (3., -2.99999999999999, -116.));
#107 = DRAUGHTING_MODEL('', (#115, #223, #263, #268, #273, #278, #283), #297);
#108 = PRESENTATION_STYLE_ASSIGNMENT((#109));
#109 = SURFACE_STYLE_USAGE(.POSITIVE., #110);
#110 = SURFACE_SIDE_STYLE('', (#111));
#111 = SURFACE_STYLE_FILL_AREA(#112);
#112 = FILL_AREA_STYLE('', (#113));
#113 = FILL_AREA_STYLE_COLOUR('', #114);
#114 = COLOUR_RGB('', 0.50196078431373, 0.50196078431373, 0.50196078431373);
#115 = STYLED_ITEM('', (#108), #1);
#116 = MANIFOLD_SOLID_BREP('CUT', #117);
#117 = CLOSED_SHELL('', (#118, #135, #174));
#118 = ADVANCED_FACE('', (#119), #130, .T.);
#119 = FACE_OUTER_BOUND('', #120, .T.);
#120 = EDGE_LOOP('', (#121));
#121 = ORIENTED_EDGE('', *, *, #122, .F.);
#122 = EDGE_CURVE('', #123, #123, #125, .T.);
#123 = VERTEX_POINT('', #124);
#124 = CARTESIAN_POINT('', (-3., 7.28664845492675E-15, -116.));
#125 = CIRCLE('', #126, 3.);
#126 = AXIS2_PLACEMENT_3D('', #127, #128, #129);
#127 = CARTESIAN_POINT('', (-4.71844785465692E-16, 8.82627304576999E-15, -116.));
#128 = DIRECTION('', (-1.22229917515872E-29, 1.61223931492672E-14, -1.));
#129 = DIRECTION('', (-1., -7.58137556777218E-16, 0.));
#130 = B_SPLINE_SURFACE_WITH_KNOTS('', 1, 1, ((#131, #132), (#133, #134)), .UNSPECIFIED., .F., .F., .U., (2, 2), (2, 2), (119.71967068808, 125.71967068808), (124.855674036816, 130.855674036816), .UNSPECIFIED.);
#131 = CARTESIAN_POINT('', (-3., 3.00000000000001, -116.));
#132 = CARTESIAN_POINT('', (3., 3.00000000000001, -116.));
#133 = CARTESIAN_POINT('', (-3., -2.99999999999999, -116.));
#134 = CARTESIAN_POINT('', (3., -2.99999999999999, -116.));
#135 = ADVANCED_FACE('', (#136), #155, .T.);
#136 = FACE_OUTER_BOUND('', #137, .T.);
#137 = EDGE_LOOP('', (#138, #139, #147, #154));
#138 = ORIENTED_EDGE('', *, *, #122, .T.);
#139 = ORIENTED_EDGE('', *, *, #140, .T.);
#140 = EDGE_CURVE('', #123, #141, #143, .T.);
#141 = VERTEX_POINT('', #142);
#142 = CARTESIAN_POINT('', (-3., 7.65404249467096E-15, -122.));
#143 = LINE('', #144, #145);
#144 = CARTESIAN_POINT('', (-3., 7.28664845492675E-15, -116.));
#145 = VECTOR('', #146, 6.);
#146 = DIRECTION('', (0., 3.67394039744209E-16, -6.));
#147 = ORIENTED_EDGE('', *, *, #148, .F.);
#148 = EDGE_CURVE('', #141, #141, #149, .T.);
#149 = CIRCLE('', #150, 3.);
#150 = AXIS2_PLACEMENT_3D('', #151, #152, #153);
#151 = CARTESIAN_POINT('', (-8.88178419700125E-16, 8.88178419700125E-15, -122.));
#152 = DIRECTION('', (0., 0., -1.));
#153 = DIRECTION('', (-1., -4.09247234110098E-16, 0.));
#154 = ORIENTED_EDGE('', *, *, #140, .F.);
#155 = (
   BOUNDED_SURFACE ()
   B_SPLINE_SURFACE (1, 2, ((#156, #157, #158, #159, #160, #161, #162, #163, #164), (#165, #166, #167, #168, #169, #170, #171, #172, #173)), .UNSPECIFIED., .F., .T., .U.)
   B_SPLINE_SURFACE_WITH_KNOTS ((2, 2), (3, 2, 2, 2, 3), (-1.60599571734475, -1.47751605995717), (0., 0.25, 0.5, 0.75, 1.), .UNSPECIFIED.)
   GEOMETRIC_REPRESENTATION_ITEM ()
   RATIONAL_B_SPLINE_SURFACE (((1., 0.707106781186548, 1., 0.707106781186548, 1., 0.707106781186548, 1., 0.707106781186548, 1.), (1., 0.707106781186548, 1., 0.707106781186548, 1., 0.707106781186548, 1., 0.707106781186548, 1.)))
   REPRESENTATION_ITEM ('')
   SURFACE ()
);
#156 = CARTESIAN_POINT('', (-3., 7.67522651354556E-15, -122.));
#157 = CARTESIAN_POINT('', (-3., 3.00000000000001, -122.));
#158 = CARTESIAN_POINT('', (-1.88985506440912E-15, 3.00000000000001, -122.));
#159 = CARTESIAN_POINT('', (3., 3.00000000000001, -122.));
#160 = CARTESIAN_POINT('', (3., 1.23431150620639E-14, -122.));
#161 = CARTESIAN_POINT('', (3., -2.99999999999999, -122.));
#162 = CARTESIAN_POINT('', (3.14542752385345E-15, -2.99999999999999, -122.));
#163 = CARTESIAN_POINT('', (-3., -2.99999999999999, -122.));
#164 = CARTESIAN_POINT('', (-3., 7.67522651354556E-15, -122.));
#165 = CARTESIAN_POINT('', (-3., 7.28664845492675E-15, -116.));
#166 = CARTESIAN_POINT('', (-3., 3.00000000000001, -116.));
#167 = CARTESIAN_POINT('', (-1.88985506440912E-15, 3.00000000000001, -116.));
#168 = CARTESIAN_POINT('', (3., 3.00000000000001, -116.));
#169 = CARTESIAN_POINT('', (3., 1.19545370034451E-14, -116.));
#170 = CARTESIAN_POINT('', (3., -2.99999999999999, -116.));
#171 = CARTESIAN_POINT('', (3.14542752385345E-15, -2.99999999999999, -116.));
#172 = CARTESIAN_POINT('', (-3., -2.99999999999999, -116.));
#173 = CARTESIAN_POINT('', (-3., 7.28664845492675E-15, -116.));
#174 = ADVANCED_FACE('', (#175), #188, .T.);
#175 = FACE_OUTER_BOUND('', #176, .T.);
#176 = EDGE_LOOP('', (#177, #186, #187));
#177 = ORIENTED_EDGE('', *, *, #178, .F.);
#178 = EDGE_CURVE('', #141, #179, #181, .T.);
#179 = VERTEX_POINT('', #180);
#180 = CARTESIAN_POINT('', (5.51091059616309E-16, 7.65404249467096E-15, -125.));
#181 = CIRCLE('', #182, 3.);
#182 = AXIS2_PLACEMENT_3D('', #183, #184, #185);
#183 = CARTESIAN_POINT('', (-1.06581410364015E-14, 7.47034547479886E-15, -122.));
#184 = DIRECTION('', (-6.12323399573683E-17, -1., -6.1232339957368E-17));
#185 = DIRECTION('', (-1., 6.12323399573683E-17, 0.));
#186 = ORIENTED_EDGE('', *, *, #148, .T.);
#187 = ORIENTED_EDGE('', *, *, #178, .T.);
#188 = (
   BOUNDED_SURFACE ()
   B_SPLINE_SURFACE (2, 2, ((#189, #190, #191), (#192, #193, #194), (#195, #196, #197), (#198, #199, #200), (#201, #202, #203), (#204, #205, #206), (#207, #208, #209), (#210, #211, #212), (#213, #214, #215)), .UNSPECIFIED., .T., .F., .U.)
   B_SPLINE_SURFACE_WITH_KNOTS ((3, 2, 2, 2, 3), (3, 3), (0., 0.25, 0.5, 0.75, 1.), (0., 1.), .UNSPECIFIED.)
   GEOMETRIC_REPRESENTATION_ITEM ()
   RATIONAL_B_SPLINE_SURFACE (((1., 0.707106781186548, 1.), (0.707106781186548, 0.5, 0.707106781186548), (1., 0.707106781186548, 1.), (0.707106781186548, 0.5, 0.707106781186548), (1., 0.707106781186548, 1.), (0.707106781186548, 0.5, 0.707106781186548), (1., 0.707106781186548, 1.), (0.707106781186548, 0.5, 0.707106781186548), (1., 0.707106781186548, 1.)))
   REPRESENTATION_ITEM ('')
   SURFACE ()
);
#189 = CARTESIAN_POINT('', (-3., 7.65404249467096E-15, -122.));
#190 = CARTESIAN_POINT('', (-3., 7.83773951454306E-15, -125.));
#191 = CARTESIAN_POINT('', (5.51091059616309E-16, 7.65404249467096E-15, -125.));
#192 = CARTESIAN_POINT('', (-3., 2.99999999999996, -122.));
#193 = CARTESIAN_POINT('', (-3., 2.99999999999996, -125.));
#194 = CARTESIAN_POINT('', (5.51091059616309E-16, 7.65404249467096E-15, -125.));
#195 = CARTESIAN_POINT('', (-4.84057238736568E-14, 2.99999999999996, -122.));
#196 = CARTESIAN_POINT('', (-4.82220268537847E-14, 2.99999999999996, -125.));
#197 = CARTESIAN_POINT('', (5.51091059616309E-16, 7.65404249467096E-15, -125.));
#198 = CARTESIAN_POINT('', (2.9999999999999, 2.99999999999996, -122.));
#199 = CARTESIAN_POINT('', (2.9999999999999, 2.99999999999996, -125.));
#200 = CARTESIAN_POINT('', (5.51091059616309E-16, 7.65404249467096E-15, -125.));
#201 = CARTESIAN_POINT('', (2.9999999999999, 7.65404249467097E-15, -122.));
#202 = CARTESIAN_POINT('', (2.9999999999999, 7.47034547479887E-15, -125.));
#203 = CARTESIAN_POINT('', (5.51091059616309E-16, 7.65404249467096E-15, -125.));
#204 = CARTESIAN_POINT('', (2.9999999999999, -2.99999999999994, -122.));
#205 = CARTESIAN_POINT('', (2.9999999999999, -2.99999999999994, -125.));
#206 = CARTESIAN_POINT('', (5.51091059616309E-16, 7.65404249467096E-15, -125.));
#207 = CARTESIAN_POINT('', (-4.80383298339126E-14, -2.99999999999994, -122.));
#208 = CARTESIAN_POINT('', (-4.82220268537847E-14, -2.99999999999994, -125.));
#209 = CARTESIAN_POINT('', (5.51091059616309E-16, 7.65404249467096E-15, -125.));
#210 = CARTESIAN_POINT('', (-3., -2.99999999999994, -122.));
#211 = CARTESIAN_POINT('', (-3., -2.99999999999994, -125.));
#212 = CARTESIAN_POINT('', (5.51091059616309E-16, 7.65404249467096E-15, -125.));
#213 = CARTESIAN_POINT('', (-3., 7.65404249467096E-15, -122.));
#214 = CARTESIAN_POINT('', (-3., 7.83773951454306E-15, -125.));
#215 = CARTESIAN_POINT('', (5.51091059616309E-16, 7.65404249467096E-15, -125.));
#216 = PRESENTATION_STYLE_ASSIGNMENT((#217));
#217 = SURFACE_STYLE_USAGE(.POSITIVE., #218);
#218 = SURFACE_SIDE_STYLE('', (#219));
#219 = SURFACE_STYLE_FILL_AREA(#220);
#220 = FILL_AREA_STYLE('', (#221));
#221 = FILL_AREA_STYLE_COLOUR('', #222);
#222 = COLOUR_RGB('', 0.8, 0.8, 0.8);
#223 = STYLED_ITEM('', (#216), #116);
#224 = TRIMMED_CURVE('cutting part line', #225, (#229), (#230), .T., .CARTESIAN.);
#225 = LINE('', #226, #227);
#226 = CARTESIAN_POINT('', (-1.30479101091582E-30, -7.10295143505465E-15, -116.));
#227 = VECTOR('', #228, 3.);
#228 = DIRECTION('', (3., -5.51091059616307E-16, 0.));
#229 = CARTESIAN_POINT('', (-1.30479101091582E-30, -7.10295143505465E-15, -116.));
#230 = CARTESIAN_POINT('', (3., -7.65404249467096E-15, -116.));
#231 = TRIMMED_CURVE('cutting part line', #232, (#236), (#237), .T., .CARTESIAN.);
#232 = LINE('', #233, #234);
#233 = CARTESIAN_POINT('', (3., -7.65404249467096E-15, -116.));
#234 = VECTOR('', #235, 6.);
#235 = DIRECTION('', (0., -3.67394039744209E-16, -6.));
#236 = CARTESIAN_POINT('', (3., -7.65404249467096E-15, -116.));
#237 = CARTESIAN_POINT('', (3., -8.02143653441516E-15, -122.));
#238 = TRIMMED_CURVE('cutting part line', #239, (#244), (#245), .T., .CARTESIAN.);
#239 = CIRCLE('', #240, 2.99999999999995);
#240 = AXIS2_PLACEMENT_3D('', #241, #242, #243);
#241 = CARTESIAN_POINT('', (4.48530101948563E-14, -7.47034547479888E-15, -122.));
#242 = DIRECTION('', (1.836970198721E-16, 1., -6.12323399573657E-17));
#243 = DIRECTION('', (1., -1.83697019872099E-16, 9.47390314346814E-15));
#244 = CARTESIAN_POINT('', (3., -8.02143653441516E-15, -122.));
#245 = CARTESIAN_POINT('', (-1.14857060967695E-15, -7.65404249467096E-15, -125.));
#246 = TRIMMED_CURVE('cutting part line', #247, (#251), (#252), .T., .CARTESIAN.);
#247 = LINE('', #248, #249);
#248 = CARTESIAN_POINT('', (-1.40602479624549E-30, -7.65404249467096E-15, -125.));
#249 = VECTOR('', #250, 9.);
#250 = DIRECTION('', (1.01233785329676E-31, 5.5109105961631E-16, 9.));
#251 = CARTESIAN_POINT('', (-1.40602479624549E-30, -7.65404249467096E-15, -125.));
#252 = CARTESIAN_POINT('', (-1.30479101091582E-30, -7.10295143505465E-15, -116.));
#253 = COMPOSITE_CURVE('cutting part line', (#254, #255, #256, #257), .U.);
#254 = COMPOSITE_CURVE_SEGMENT(.CONTINUOUS., .T., #224);
#255 = COMPOSITE_CURVE_SEGMENT(.CONTINUOUS., .T., #231);
#256 = COMPOSITE_CURVE_SEGMENT(.CONTINUOUS., .T., #238);
#257 = COMPOSITE_CURVE_SEGMENT(.CONTINUOUS., .T., #246);
#258 = GEOMETRIC_SET('', (#253, #296));
#259 = PRESENTATION_STYLE_ASSIGNMENT((#260));
#260 = CURVE_STYLE('', #262, POSITIVE_LENGTH_MEASURE(1.E-6), #261);
#261 = COLOUR_RGB('', 0., 0., 1.);
#262 = DRAUGHTING_PRE_DEFINED_CURVE_FONT('continuous');
#263 = STYLED_ITEM('', (#259), #253);
#264 = PRESENTATION_STYLE_ASSIGNMENT((#265));
#265 = CURVE_STYLE('', #267, POSITIVE_LENGTH_MEASURE(1.E-6), #266);
#266 = COLOUR_RGB('', 0., 0., 1.);
#267 = DRAUGHTING_PRE_DEFINED_CURVE_FONT('continuous');
#268 = OVER_RIDING_STYLED_ITEM('', (#264), #224, #263);
#269 = PRESENTATION_STYLE_ASSIGNMENT((#270));
#270 = CURVE_STYLE('', #272, POSITIVE_LENGTH_MEASURE(1.E-6), #271);
#271 = COLOUR_RGB('', 0., 0., 1.);
#272 = DRAUGHTING_PRE_DEFINED_CURVE_FONT('continuous');
#273 = OVER_RIDING_STYLED_ITEM('', (#269), #231, #263);
#274 = PRESENTATION_STYLE_ASSIGNMENT((#275));
#275 = CURVE_STYLE('', #277, POSITIVE_LENGTH_MEASURE(1.E-6), #276);
#276 = COLOUR_RGB('', 0., 0., 1.);
#277 = DRAUGHTING_PRE_DEFINED_CURVE_FONT('continuous');
#278 = OVER_RIDING_STYLED_ITEM('', (#274), #238, #263);
#279 = PRESENTATION_STYLE_ASSIGNMENT((#280));
#280 = CURVE_STYLE('', #282, POSITIVE_LENGTH_MEASURE(1.E-6), #281);
#281 = COLOUR_RGB('', 0., 0., 1.);
#282 = DRAUGHTING_PRE_DEFINED_CURVE_FONT('continuous');
#283 = OVER_RIDING_STYLED_ITEM('', (#279), #246, #263);
#284 = AXIS2_PLACEMENT_3D('CIP', #285, #286, #287);
#285 = CARTESIAN_POINT('', (4.6867493208183E-31, 7.65404249467096E-15, -125.));
#286 = DIRECTION('', (-3.74939945665465E-33, -6.12323399573677E-17, 1.));
#287 = DIRECTION('', (1., -6.12323399573677E-17, 0.));
#288 = AXIS2_PLACEMENT_3D('MCS', #289, #290, #291);
#289 = CARTESIAN_POINT('', (1.76221774462768E-31, 2.87791997799628E-15, -47.));
#290 = DIRECTION('', (-3.74939945665465E-33, -6.12323399573677E-17, 1.));
#291 = DIRECTION('', (1., -6.12323399573677E-17, 0.));
#292 = AXIS2_PLACEMENT_3D('PCS', #293, #294, #295);
#293 = CARTESIAN_POINT('', (0., 0., 0.));
#294 = DIRECTION('', (0., 0., 1.));
#295 = DIRECTION('', (1., 0., 0.));
#296 = CARTESIAN_POINT('CRP', (3., 0., -125.));
#297 = (
   GEOMETRIC_REPRESENTATION_CONTEXT (3)
   GLOBAL_UNCERTAINTY_ASSIGNED_CONTEXT ((#299))
   GLOBAL_UNIT_ASSIGNED_CONTEXT ((#298, #300, #301))
   REPRESENTATION_CONTEXT ('', '3D')
);
#298 = (
   LENGTH_UNIT ()
   NAMED_UNIT (*)
   SI_UNIT (.MILLI., .METRE.)
);
#299 = UNCERTAINTY_MEASURE_WITH_UNIT(LENGTH_MEASURE(1.E-6), #298, 'DISTANCE_ACCURACY_VALUE', '');
#300 = (
   NAMED_UNIT (*)
   SI_UNIT ($, .STERADIAN.)
   SOLID_ANGLE_UNIT ()
);
#301 = (
   NAMED_UNIT (*)
   PLANE_ANGLE_UNIT ()
   SI_UNIT ($, .RADIAN.)
);
#302 = SHAPE_REPRESENTATION('', (), #297);
#303 = PRODUCT_DEFINITION_SHAPE('', '', #304);
#304 = PRODUCT_DEFINITION('', '', #307, #311);
#305 = APPLICATION_CONTEXT('configuration controlled 3D designs of mechanical parts and assemblies');
#306 = APPLICATION_PROTOCOL_DEFINITION('International Standard', 'automotive_design', 2002, #305);
#307 = PRODUCT_DEFINITION_FORMATION_WITH_SPECIFIED_SOURCE('', '', #308, .NOT_KNOWN.);
#308 = PRODUCT('NONE', 'R216.42-06030-AQ09G P10', '', (#309));
#309 = PRODUCT_CONTEXT('', #305, 'mechanical');
#310 = PRODUCT_RELATED_PRODUCT_CATEGORY('detail', '', (#308));
#311 = PRODUCT_DEFINITION_CONTEXT('part definition', #305, 'design');
#312 = SHAPE_DEFINITION_REPRESENTATION(#303, #302);
#313 = CONSTRUCTIVE_GEOMETRY_REPRESENTATION('supplemental geometry', (#284, #288, #292), #297);
#314 = CONSTRUCTIVE_GEOMETRY_REPRESENTATION_RELATIONSHIP('', '', #302, #313);
#315 = SHAPE_REPRESENTATION_RELATIONSHIP('', '', #302, #316);
#316 = SHAPE_REPRESENTATION('', (#258), #297);
#317 = SHAPE_REPRESENTATION_RELATIONSHIP('', '', #302, #318);
#318 = ADVANCED_BREP_SHAPE_REPRESENTATION('', (#1, #116), #297);
ENDSEC;
END-ISO-10303-21;
