ISO-10303-21;
HEADER;
FILE_DESCRIPTION(('STEP'), '1');
FILE_NAME('C:\\Users\\ds2002\\OneDrive - Sandvik\\HomeShare\\Documents\\Batchrepair\\CorSRT2\\NEW_MILBN_SLD\\Output2\\MOD000000000000000020084646100000.stp', '2018-11-23T12:39:39', (''), (''), 'Express v3.0.0.0', 'Express Tool', 'Unknown');
FILE_SCHEMA(('AUTOMOTIVE_DESIGN'));
ENDSEC;

DATA;
#1 = MANIFOLD_SOLID_BREP('NOCUT', #2);
#2 = CLOSED_SHELL('', (#3, #50, #97, #106, #137, #176));
#3 = ADVANCED_FACE('', (#4), #31, .T.);
#4 = FACE_OUTER_BOUND('', #5, .T.);
#5 = EDGE_LOOP('', (#6, #16, #23, #24));
#6 = ORIENTED_EDGE('', *, *, #7, .F.);
#7 = EDGE_CURVE('', #8, #10, #12, .T.);
#8 = VERTEX_POINT('', #9);
#9 = CARTESIAN_POINT('', (-4., 3.89437682128858E-15, -59.6));
#10 = VERTEX_POINT('', #11);
#11 = CARTESIAN_POINT('', (-2.5, 5.90892080588598E-15, -94.));
#12 = LINE('', #13, #14);
#13 = CARTESIAN_POINT('', (-4., 3.89437682128858E-15, -59.6));
#14 = VECTOR('', #15, 34.4326879578113);
#15 = DIRECTION('', (1.5, 2.0145439845974E-15, -34.4));
#16 = ORIENTED_EDGE('', *, *, #17, .T.);
#17 = EDGE_CURVE('', #8, #8, #18, .T.);
#18 = CIRCLE('', #19, 4.);
#19 = AXIS2_PLACEMENT_3D('', #20, #21, #22);
#20 = CARTESIAN_POINT('', (8.46545056276682E-16, 1.77635683940025E-15, -59.6));
#21 = DIRECTION('', (0., 0., -1.));
#22 = DIRECTION('', (-1., 5.29504995472082E-16, 0.));
#23 = ORIENTED_EDGE('', *, *, #7, .T.);
#24 = ORIENTED_EDGE('', *, *, #25, .F.);
#25 = EDGE_CURVE('', #10, #10, #26, .T.);
#26 = CIRCLE('', #27, 2.5);
#27 = AXIS2_PLACEMENT_3D('', #28, #29, #30);
#28 = CARTESIAN_POINT('', (-7.0082828429463E-16, 8.71525074330748E-15, -94.));
#29 = DIRECTION('', (0., 0., -1.));
#30 = DIRECTION('', (-1., -1.1225319749686E-15, 0.));
#31 = (
   BOUNDED_SURFACE ()
   B_SPLINE_SURFACE (2, 1, ((#32, #33), (#34, #35), (#36, #37), (#38, #39), (#40, #41), (#42, #43), (#44, #45), (#46, #47), (#48, #49)), .UNSPECIFIED., .T., .F., .U.)
   B_SPLINE_SURFACE_WITH_KNOTS ((3, 2, 2, 2, 3), (2, 2), (0., 0.25, 0.5, 0.75, 1.), (0., 1.), .UNSPECIFIED.)
   GEOMETRIC_REPRESENTATION_ITEM ()
   RATIONAL_B_SPLINE_SURFACE (((1., 1.), (0.707106781186548, 0.707106781186548), (1., 1.), (0.707106781186548, 0.707106781186548), (1., 1.), (0.707106781186548, 0.707106781186548), (1., 1.), (0.707106781186548, 0.707106781186548), (1., 1.)))
   REPRESENTATION_ITEM ('')
   SURFACE ()
);
#32 = CARTESIAN_POINT('', (-4., 3.89437682128858E-15, -59.6));
#33 = CARTESIAN_POINT('', (-2.49999999999994, 7.33284460946384E-15, -94.));
#34 = CARTESIAN_POINT('', (-4., 4., -59.6));
#35 = CARTESIAN_POINT('', (-2.49999999999994, 2.50000000000001, -94.));
#36 = CARTESIAN_POINT('', (1.67880159274946E-15, 4., -59.6));
#37 = CARTESIAN_POINT('', (6.22079679751163E-14, 2.50000000000001, -94.));
#38 = CARTESIAN_POINT('', (4., 4., -59.6));
#39 = CARTESIAN_POINT('', (2.50000000000006, 2.50000000000001, -94.));
#40 = CARTESIAN_POINT('', (4., 8.14329391945956E-16, -59.6));
#41 = CARTESIAN_POINT('', (2.50000000000006, 5.4078149661247E-15, -94.));
#42 = CARTESIAN_POINT('', (4., -4., -59.6));
#43 = CARTESIAN_POINT('', (2.50000000000006, -2.49999999999999, -94.));
#44 = CARTESIAN_POINT('', (-9.11387116934226E-16, -4., -59.6));
#45 = CARTESIAN_POINT('', (6.0589100031564E-14, -2.49999999999999, -94.));
#46 = CARTESIAN_POINT('', (-4., -4., -59.6));
#47 = CARTESIAN_POINT('', (-2.49999999999994, -2.49999999999999, -94.));
#48 = CARTESIAN_POINT('', (-4., 3.89437682128858E-15, -59.6));
#49 = CARTESIAN_POINT('', (-2.49999999999994, 7.33284460946384E-15, -94.));
#50 = ADVANCED_FACE('', (#51), #78, .T.);
#51 = FACE_OUTER_BOUND('', #52, .T.);
#52 = EDGE_LOOP('', (#53, #63, #70, #71));
#53 = ORIENTED_EDGE('', *, *, #54, .T.);
#54 = EDGE_CURVE('', #55, #57, #59, .T.);
#55 = VERTEX_POINT('', #56);
#56 = CARTESIAN_POINT('', (-4., 2.69422295812418E-16, -0.399999999999999));
#57 = VERTEX_POINT('', #58);
#58 = CARTESIAN_POINT('', (-3.6, 2.20436423846524E-16, 0.));
#59 = LINE('', #60, #61);
#60 = CARTESIAN_POINT('', (-4., 2.69422295812418E-16, -0.399999999999999));
#61 = VECTOR('', #62, 0.565685424949237);
#62 = DIRECTION('', (0.4, -4.8985871965894E-17, 0.399999999999999));
#63 = ORIENTED_EDGE('', *, *, #64, .T.);
#64 = EDGE_CURVE('', #57, #57, #65, .T.);
#65 = CIRCLE('', #66, 3.6);
#66 = AXIS2_PLACEMENT_3D('', #67, #68, #69);
#67 = CARTESIAN_POINT('', (-7.21644966006352E-16, -2.22044604925031E-15, -1.4791141972894E-31));
#68 = DIRECTION('', (4.30423794362901E-34, 6.12323399573678E-17, -1.));
#69 = DIRECTION('', (-1., 6.78022909193566E-16, 4.1086505480261E-32));
#70 = ORIENTED_EDGE('', *, *, #54, .F.);
#71 = ORIENTED_EDGE('', *, *, #72, .F.);
#72 = EDGE_CURVE('', #55, #55, #73, .T.);
#73 = CIRCLE('', #74, 4.);
#74 = AXIS2_PLACEMENT_3D('', #75, #76, #77);
#75 = CARTESIAN_POINT('', (-3.33066907387547E-16, -1.77635683940025E-15, -0.399999999999999));
#76 = DIRECTION('', (2.77555756156289E-17, 5.14030469134514E-17, -1.));
#77 = DIRECTION('', (-1., 5.11444783803167E-16, -2.77555756156289E-17));
#78 = (
   BOUNDED_SURFACE ()
   B_SPLINE_SURFACE (1, 2, ((#79, #80, #81, #82, #83, #84, #85, #86, #87), (#88, #89, #90, #91, #92, #93, #94, #95, #96)), .UNSPECIFIED., .F., .T., .U.)
   B_SPLINE_SURFACE_WITH_KNOTS ((2, 2), (3, 2, 2, 2, 3), (0., 1.), (0., 0.25, 0.5, 0.75, 1.), .UNSPECIFIED.)
   GEOMETRIC_REPRESENTATION_ITEM ()
   RATIONAL_B_SPLINE_SURFACE (((1., 0.707106781186548, 1., 0.707106781186548, 1., 0.707106781186548, 1., 0.707106781186548, 1.), (1., 0.707106781186548, 1., 0.707106781186548, 1., 0.707106781186548, 1., 0.707106781186548, 1.)))
   REPRESENTATION_ITEM ('')
   SURFACE ()
);
#79 = CARTESIAN_POINT('', (-4., -2.04953155772919E-15, -0.399999999999999));
#80 = CARTESIAN_POINT('', (-4., 4., -0.400000000000022));
#81 = CARTESIAN_POINT('', (3.28440978118275E-16, 4., -0.400000000000022));
#82 = CARTESIAN_POINT('', (4., 4., -0.400000000000022));
#83 = CARTESIAN_POINT('', (4., -2.78968024081262E-15, -0.399999999999999));
#84 = CARTESIAN_POINT('', (4., -4., -0.399999999999976));
#85 = CARTESIAN_POINT('', (7.81510146937783E-17, -4., -0.399999999999976));
#86 = CARTESIAN_POINT('', (-4., -4., -0.399999999999976));
#87 = CARTESIAN_POINT('', (-4., -2.04953155772919E-15, -0.399999999999999));
#88 = CARTESIAN_POINT('', (-3.6, 2.20436423846524E-16, 0.));
#89 = CARTESIAN_POINT('', (-3.6, 3.6, -2.09832151654155E-14));
#90 = CARTESIAN_POINT('', (2.91433543964104E-16, 3.6, -2.09832151654155E-14));
#91 = CARTESIAN_POINT('', (3.6, 3.6, -2.09832151654155E-14));
#92 = CARTESIAN_POINT('', (3.6, -4.45697390928571E-16, -2.60668058374687E-30));
#93 = CARTESIAN_POINT('', (3.6, -3.6, 2.09832151654155E-14));
#94 = CARTESIAN_POINT('', (6.61725768820564E-17, -3.6, 2.09832151654155E-14));
#95 = CARTESIAN_POINT('', (-3.6, -3.6, 2.09832151654155E-14));
#96 = CARTESIAN_POINT('', (-3.6, 2.20436423846524E-16, 0.));
#97 = ADVANCED_FACE('', (#98), #101, .T.);
#98 = FACE_OUTER_BOUND('', #99, .T.);
#99 = EDGE_LOOP('', (#100));
#100 = ORIENTED_EDGE('', *, *, #64, .F.);
#101 = B_SPLINE_SURFACE_WITH_KNOTS('', 1, 1, ((#102, #103), (#104, #105)), .UNSPECIFIED., .F., .F., .U., (2, 2), (2, 2), (2.00028570699746, 9.20028570699746), (2.00028570699746, 9.20028570699746), .UNSPECIFIED.);
#102 = CARTESIAN_POINT('', (3.6, -3.6, -2.20436423846523E-16));
#103 = CARTESIAN_POINT('', (-3.6, -3.6, -2.20436423846523E-16));
#104 = CARTESIAN_POINT('', (3.6, 3.6, 2.20436423846525E-16));
#105 = CARTESIAN_POINT('', (-3.6, 3.6, 2.20436423846525E-16));
#106 = ADVANCED_FACE('', (#107), #118, .T.);
#107 = FACE_OUTER_BOUND('', #108, .T.);
#108 = EDGE_LOOP('', (#109, #115, #116, #117));
#109 = ORIENTED_EDGE('', *, *, #110, .T.);
#110 = EDGE_CURVE('', #8, #55, #111, .T.);
#111 = LINE('', #112, #113);
#112 = CARTESIAN_POINT('', (-4., 3.89437682128858E-15, -59.6));
#113 = VECTOR('', #114, 59.2);
#114 = DIRECTION('', (0., -3.62495452547616E-15, 59.2));
#115 = ORIENTED_EDGE('', *, *, #72, .T.);
#116 = ORIENTED_EDGE('', *, *, #110, .F.);
#117 = ORIENTED_EDGE('', *, *, #17, .F.);
#118 = (
   BOUNDED_SURFACE ()
   B_SPLINE_SURFACE (1, 2, ((#119, #120, #121, #122, #123, #124, #125, #126, #127), (#128, #129, #130, #131, #132, #133, #134, #135, #136)), .UNSPECIFIED., .F., .T., .U.)
   B_SPLINE_SURFACE_WITH_KNOTS ((2, 2), (3, 2, 2, 2, 3), (0., 1.), (0., 6.28318530717958, 12.5663706143591, 18.8495559215387, 25.1327412287183), .UNSPECIFIED.)
   GEOMETRIC_REPRESENTATION_ITEM ()
   RATIONAL_B_SPLINE_SURFACE (((1., 0.707106781186548, 1., 0.707106781186548, 1., 0.707106781186548, 1., 0.707106781186548, 1.), (1., 0.707106781186548, 1., 0.707106781186548, 1., 0.707106781186548, 1., 0.707106781186548, 1.)))
   REPRESENTATION_ITEM ('')
   SURFACE ()
);
#119 = CARTESIAN_POINT('', (-4., 1.93475683275015E-15, -59.6));
#120 = CARTESIAN_POINT('', (-4., 4., -59.6));
#121 = CARTESIAN_POINT('', (4.79290082674799E-15, 4., -59.6));
#122 = CARTESIAN_POINT('', (4., 4., -59.6));
#123 = CARTESIAN_POINT('', (4., -5.56719693391088E-16, -59.6));
#124 = CARTESIAN_POINT('', (4., -4., -59.6));
#125 = CARTESIAN_POINT('', (2.7912830202657E-15, -4., -59.6));
#126 = CARTESIAN_POINT('', (-4., -4., -59.6));
#127 = CARTESIAN_POINT('', (-4., 1.93475683275015E-15, -59.6));
#128 = CARTESIAN_POINT('', (-4., 2.69422295812418E-16, -0.399999999999999));
#129 = CARTESIAN_POINT('', (-4., 4., -0.399999999999999));
#130 = CARTESIAN_POINT('', (2.32820571208015E-15, 4., -0.399999999999999));
#131 = CARTESIAN_POINT('', (4., 4., -0.399999999999999));
#132 = CARTESIAN_POINT('', (4., -2.22205423032882E-15, -0.399999999999999));
#133 = CARTESIAN_POINT('', (4., -4., -0.399999999999999));
#134 = CARTESIAN_POINT('', (3.2658790559785E-16, -4., -0.399999999999999));
#135 = CARTESIAN_POINT('', (-4., -4., -0.399999999999999));
#136 = CARTESIAN_POINT('', (-4., 2.69422295812418E-16, -0.399999999999999));
#137 = ADVANCED_FACE('', (#138), #157, .T.);
#138 = FACE_OUTER_BOUND('', #139, .T.);
#139 = EDGE_LOOP('', (#140, #149, #155, #156));
#140 = ORIENTED_EDGE('', *, *, #141, .F.);
#141 = EDGE_CURVE('', #142, #142, #144, .T.);
#142 = VERTEX_POINT('', #143);
#143 = CARTESIAN_POINT('', (-2.5, 5.97015314584335E-15, -95.));
#144 = CIRCLE('', #145, 2.5);
#145 = AXIS2_PLACEMENT_3D('', #146, #147, #148);
#146 = CARTESIAN_POINT('', (-7.07767178198537E-16, 8.71525074330748E-15, -95.));
#147 = DIRECTION('', (0., 0., -1.));
#148 = DIRECTION('', (-1., -1.09803903898565E-15, 0.));
#149 = ORIENTED_EDGE('', *, *, #150, .F.);
#150 = EDGE_CURVE('', #10, #142, #151, .T.);
#151 = LINE('', #152, #153);
#152 = CARTESIAN_POINT('', (-2.5, 5.90892080588598E-15, -94.));
#153 = VECTOR('', #154, 1.);
#154 = DIRECTION('', (0., 6.12323399573699E-17, -1.));
#155 = ORIENTED_EDGE('', *, *, #25, .T.);
#156 = ORIENTED_EDGE('', *, *, #150, .T.);
#157 = (
   BOUNDED_SURFACE ()
   B_SPLINE_SURFACE (2, 1, ((#158, #159), (#160, #161), (#162, #163), (#164, #165), (#166, #167), (#168, #169), (#170, #171), (#172, #173), (#174, #175)), .UNSPECIFIED., .T., .F., .U.)
   B_SPLINE_SURFACE_WITH_KNOTS ((3, 2, 2, 2, 3), (2, 2), (0., 3.92699081698725, 7.8539816339745, 11.7809724509617, 15.707963267949), (0., 0.285714285714286), .UNSPECIFIED.)
   GEOMETRIC_REPRESENTATION_ITEM ()
   RATIONAL_B_SPLINE_SURFACE (((1., 1.), (0.707106781186548, 0.707106781186548), (1., 1.), (0.707106781186548, 0.707106781186548), (1., 1.), (0.707106781186548, 0.707106781186548), (1., 1.), (0.707106781186548, 0.707106781186548), (1., 1.)))
   REPRESENTATION_ITEM ('')
   SURFACE ()
);
#158 = CARTESIAN_POINT('', (-2.5, 5.90892080588598E-15, -94.));
#159 = CARTESIAN_POINT('', (-2.5, 5.96443195711724E-15, -95.));
#160 = CARTESIAN_POINT('', (-2.5, 2.50000000000001, -94.));
#161 = CARTESIAN_POINT('', (-2.5, 2.50000000000001, -95.));
#162 = CARTESIAN_POINT('', (-1.5022430674944E-15, 2.50000000000001, -94.));
#163 = CARTESIAN_POINT('', (-1.5022430674944E-15, 2.50000000000001, -95.));
#164 = CARTESIAN_POINT('', (2.5, 2.50000000000001, -94.));
#165 = CARTESIAN_POINT('', (2.5, 2.50000000000001, -95.));
#166 = CARTESIAN_POINT('', (2.5, 9.82934093619053E-15, -94.));
#167 = CARTESIAN_POINT('', (2.5, 9.88485208742179E-15, -95.));
#168 = CARTESIAN_POINT('', (2.5, -2.49999999999999, -94.));
#169 = CARTESIAN_POINT('', (2.5, -2.49999999999999, -95.));
#170 = CARTESIAN_POINT('', (2.72433876259699E-15, -2.49999999999999, -94.));
#171 = CARTESIAN_POINT('', (2.72433876259699E-15, -2.49999999999999, -95.));
#172 = CARTESIAN_POINT('', (-2.5, -2.5, -94.));
#173 = CARTESIAN_POINT('', (-2.5, -2.5, -95.));
#174 = CARTESIAN_POINT('', (-2.5, 5.90892080588598E-15, -94.));
#175 = CARTESIAN_POINT('', (-2.5, 5.96443195711724E-15, -95.));
#176 = ADVANCED_FACE('', (#177), #180, .T.);
#177 = FACE_OUTER_BOUND('', #178, .T.);
#178 = EDGE_LOOP('', (#179));
#179 = ORIENTED_EDGE('', *, *, #141, .T.);
#180 = B_SPLINE_SURFACE_WITH_KNOTS('', 1, 1, ((#181, #182), (#183, #184)), .UNSPECIFIED., .F., .F., .U., (2, 2), (2, 2), (101.737970352198, 106.737970352198), (94.5379668881984, 99.5379668881984), .UNSPECIFIED.);
#181 = CARTESIAN_POINT('', (-2.5, 2.50000000000001, -95.));
#182 = CARTESIAN_POINT('', (-2.5, -2.49999999999999, -95.));
#183 = CARTESIAN_POINT('', (2.5, 2.50000000000001, -95.));
#184 = CARTESIAN_POINT('', (2.5, -2.49999999999999, -95.));
#185 = DRAUGHTING_MODEL('', (#193, #301, #341, #346, #351, #356, #361), #375);
#186 = PRESENTATION_STYLE_ASSIGNMENT((#187));
#187 = SURFACE_STYLE_USAGE(.POSITIVE., #188);
#188 = SURFACE_SIDE_STYLE('', (#189));
#189 = SURFACE_STYLE_FILL_AREA(#190);
#190 = FILL_AREA_STYLE('', (#191));
#191 = FILL_AREA_STYLE_COLOUR('', #192);
#192 = COLOUR_RGB('', 0.50196078431373, 0.50196078431373, 0.50196078431373);
#193 = STYLED_ITEM('', (#186), #1);
#194 = MANIFOLD_SOLID_BREP('CUT', #195);
#195 = CLOSED_SHELL('', (#196, #213, #252));
#196 = ADVANCED_FACE('', (#197), #208, .T.);
#197 = FACE_OUTER_BOUND('', #198, .T.);
#198 = EDGE_LOOP('', (#199));
#199 = ORIENTED_EDGE('', *, *, #200, .F.);
#200 = EDGE_CURVE('', #201, #201, #203, .T.);
#201 = VERTEX_POINT('', #202);
#202 = CARTESIAN_POINT('', (-2.5, 5.97015314584335E-15, -95.));
#203 = CIRCLE('', #204, 2.5);
#204 = AXIS2_PLACEMENT_3D('', #205, #206, #207);
#205 = CARTESIAN_POINT('', (-7.07767178198537E-16, 8.71525074330748E-15, -95.));
#206 = DIRECTION('', (0., 0., -1.));
#207 = DIRECTION('', (-1., -1.09803903898565E-15, 0.));
#208 = B_SPLINE_SURFACE_WITH_KNOTS('', 1, 1, ((#209, #210), (#211, #212)), .UNSPECIFIED., .F., .F., .U., (2, 2), (2, 2), (94.5379668881984, 99.5379668881984), (101.737970352198, 106.737970352198), .UNSPECIFIED.);
#209 = CARTESIAN_POINT('', (-2.5, 2.50000000000001, -95.));
#210 = CARTESIAN_POINT('', (2.5, 2.50000000000001, -95.));
#211 = CARTESIAN_POINT('', (-2.5, -2.49999999999999, -95.));
#212 = CARTESIAN_POINT('', (2.5, -2.49999999999999, -95.));
#213 = ADVANCED_FACE('', (#214), #233, .T.);
#214 = FACE_OUTER_BOUND('', #215, .T.);
#215 = EDGE_LOOP('', (#216, #217, #225, #232));
#216 = ORIENTED_EDGE('', *, *, #200, .T.);
#217 = ORIENTED_EDGE('', *, *, #218, .T.);
#218 = EDGE_CURVE('', #201, #219, #221, .T.);
#219 = VERTEX_POINT('', #220);
#220 = CARTESIAN_POINT('', (-2.5, 6.12323399573677E-15, -97.5));
#221 = LINE('', #222, #223);
#222 = CARTESIAN_POINT('', (-2.5, 5.97015314584335E-15, -95.));
#223 = VECTOR('', #224, 2.5);
#224 = DIRECTION('', (0., 1.5308084989342E-16, -2.5));
#225 = ORIENTED_EDGE('', *, *, #226, .F.);
#226 = EDGE_CURVE('', #219, #219, #227, .T.);
#227 = CIRCLE('', #228, 2.5);
#228 = AXIS2_PLACEMENT_3D('', #229, #230, #231);
#229 = CARTESIAN_POINT('', (-7.14706072102445E-16, 8.88178419700125E-15, -97.5));
#230 = DIRECTION('', (2.13477268160519E-29, -1.93468717791201E-14, -1.));
#231 = DIRECTION('', (-1., -1.10342008050579E-15, 0.));
#232 = ORIENTED_EDGE('', *, *, #218, .F.);
#233 = (
   BOUNDED_SURFACE ()
   B_SPLINE_SURFACE (2, 1, ((#234, #235), (#236, #237), (#238, #239), (#240, #241), (#242, #243), (#244, #245), (#246, #247), (#248, #249), (#250, #251)), .UNSPECIFIED., .T., .F., .U.)
   B_SPLINE_SURFACE_WITH_KNOTS ((3, 2, 2, 2, 3), (2, 2), (0., 3.92699081698725, 7.8539816339745, 11.7809724509618, 15.707963267949), (0.285714285714286, 1.), .UNSPECIFIED.)
   GEOMETRIC_REPRESENTATION_ITEM ()
   RATIONAL_B_SPLINE_SURFACE (((1., 1.), (0.707106781186548, 0.707106781186548), (1., 1.), (0.707106781186548, 0.707106781186548), (1., 1.), (0.707106781186548, 0.707106781186548), (1., 1.), (0.707106781186548, 0.707106781186548), (1., 1.)))
   REPRESENTATION_ITEM ('')
   SURFACE ()
);
#234 = CARTESIAN_POINT('', (-2.5, 5.97015314584335E-15, -95.));
#235 = CARTESIAN_POINT('', (-2.50000000000001, 6.08117544830586E-15, -97.5));
#236 = CARTESIAN_POINT('', (-2.5, 2.50000000000001, -95.));
#237 = CARTESIAN_POINT('', (-2.50000000000002, 2.50000000000001, -97.5));
#238 = CARTESIAN_POINT('', (-1.5103996665761E-15, 2.50000000000001, -95.));
#239 = CARTESIAN_POINT('', (-1.5721254381778E-14, 2.50000000000001, -97.5));
#240 = CARTESIAN_POINT('', (2.5, 2.50000000000001, -95.));
#241 = CARTESIAN_POINT('', (2.49999999999998, 2.50000000000001, -97.5));
#242 = CARTESIAN_POINT('', (2.5, 9.87913089869568E-15, -95.));
#243 = CARTESIAN_POINT('', (2.49999999999999, 9.99015320115819E-15, -97.5));
#244 = CARTESIAN_POINT('', (2.5, -2.49999999999999, -95.));
#245 = CARTESIAN_POINT('', (2.49999999999999, -2.49999999999999, -97.5));
#246 = CARTESIAN_POINT('', (2.70473978606306E-15, -2.49999999999999, -95.));
#247 = CARTESIAN_POINT('', (-1.15061149291389E-14, -2.49999999999999, -97.5));
#248 = CARTESIAN_POINT('', (-2.5, -2.5, -95.));
#249 = CARTESIAN_POINT('', (-2.50000000000001, -2.49999999999999, -97.5));
#250 = CARTESIAN_POINT('', (-2.5, 5.97015314584335E-15, -95.));
#251 = CARTESIAN_POINT('', (-2.50000000000001, 6.08117544830586E-15, -97.5));
#252 = ADVANCED_FACE('', (#253), #266, .T.);
#253 = FACE_OUTER_BOUND('', #254, .T.);
#254 = EDGE_LOOP('', (#255, #264, #265));
#255 = ORIENTED_EDGE('', *, *, #256, .F.);
#256 = EDGE_CURVE('', #219, #257, #259, .T.);
#257 = VERTEX_POINT('', #258);
#258 = CARTESIAN_POINT('', (9.03331759530321E-16, 6.12323399573677E-15, -100.));
#259 = CIRCLE('', #260, 2.49999999999998);
#260 = AXIS2_PLACEMENT_3D('', #261, #262, #263);
#261 = CARTESIAN_POINT('', (-1.06581410364015E-14, 5.97015314584335E-15, -97.5));
#262 = DIRECTION('', (-6.12323399573672E-17, -1., -6.12323399573675E-17));
#263 = DIRECTION('', (-1., 6.12323399573669E-17, 5.68434188608083E-15));
#264 = ORIENTED_EDGE('', *, *, #226, .T.);
#265 = ORIENTED_EDGE('', *, *, #256, .T.);
#266 = (
   BOUNDED_SURFACE ()
   B_SPLINE_SURFACE (2, 2, ((#267, #268, #269), (#270, #271, #272), (#273, #274, #275), (#276, #277, #278), (#279, #280, #281), (#282, #283, #284), (#285, #286, #287), (#288, #289, #290), (#291, #292, #293)), .UNSPECIFIED., .T., .F., .U.)
   B_SPLINE_SURFACE_WITH_KNOTS ((3, 2, 2, 2, 3), (3, 3), (0., 0.25, 0.5, 0.75, 1.), (0., 1.), .UNSPECIFIED.)
   GEOMETRIC_REPRESENTATION_ITEM ()
   RATIONAL_B_SPLINE_SURFACE (((1., 0.707106781186548, 1.), (0.707106781186548, 0.5, 0.707106781186548), (1., 0.707106781186548, 1.), (0.707106781186548, 0.5, 0.707106781186548), (1., 0.707106781186548, 1.), (0.707106781186548, 0.5, 0.707106781186548), (1., 0.707106781186548, 1.), (0.707106781186548, 0.5, 0.707106781186548), (1., 0.707106781186548, 1.)))
   REPRESENTATION_ITEM ('')
   SURFACE ()
);
#267 = CARTESIAN_POINT('', (-2.5, 6.12323399573677E-15, -97.5));
#268 = CARTESIAN_POINT('', (-2.5, 6.27631484563019E-15, -100.));
#269 = CARTESIAN_POINT('', (9.03331759530321E-16, 6.12323399573677E-15, -100.));
#270 = CARTESIAN_POINT('', (-2.5, 2.49999999999998, -97.5));
#271 = CARTESIAN_POINT('', (-2.5, 2.49999999999998, -100.));
#272 = CARTESIAN_POINT('', (9.03331759530321E-16, 6.12323399573677E-15, -100.));
#273 = CARTESIAN_POINT('', (-2.48689957516035E-14, 2.49999999999998, -97.5));
#274 = CARTESIAN_POINT('', (-2.47159149017101E-14, 2.49999999999998, -100.));
#275 = CARTESIAN_POINT('', (9.03331759530321E-16, 6.12323399573677E-15, -100.));
#276 = CARTESIAN_POINT('', (2.49999999999995, 2.49999999999998, -97.5));
#277 = CARTESIAN_POINT('', (2.49999999999995, 2.49999999999998, -100.));
#278 = CARTESIAN_POINT('', (9.03331759530321E-16, 6.12323399573677E-15, -100.));
#279 = CARTESIAN_POINT('', (2.49999999999995, 6.12323399573678E-15, -97.5));
#280 = CARTESIAN_POINT('', (2.49999999999995, 5.97015314584336E-15, -100.));
#281 = CARTESIAN_POINT('', (9.03331759530321E-16, 6.12323399573677E-15, -100.));
#282 = CARTESIAN_POINT('', (2.49999999999995, -2.49999999999997, -97.5));
#283 = CARTESIAN_POINT('', (2.49999999999995, -2.49999999999997, -100.));
#284 = CARTESIAN_POINT('', (9.03331759530321E-16, 6.12323399573677E-15, -100.));
#285 = CARTESIAN_POINT('', (-2.45628340518167E-14, -2.49999999999997, -97.5));
#286 = CARTESIAN_POINT('', (-2.47159149017101E-14, -2.49999999999997, -100.));
#287 = CARTESIAN_POINT('', (9.03331759530321E-16, 6.12323399573677E-15, -100.));
#288 = CARTESIAN_POINT('', (-2.5, -2.49999999999997, -97.5));
#289 = CARTESIAN_POINT('', (-2.5, -2.49999999999997, -100.));
#290 = CARTESIAN_POINT('', (9.03331759530321E-16, 6.12323399573677E-15, -100.));
#291 = CARTESIAN_POINT('', (-2.5, 6.12323399573677E-15, -97.5));
#292 = CARTESIAN_POINT('', (-2.5, 6.27631484563019E-15, -100.));
#293 = CARTESIAN_POINT('', (9.03331759530321E-16, 6.12323399573677E-15, -100.));
#294 = PRESENTATION_STYLE_ASSIGNMENT((#295));
#295 = SURFACE_STYLE_USAGE(.POSITIVE., #296);
#296 = SURFACE_SIDE_STYLE('', (#297));
#297 = SURFACE_STYLE_FILL_AREA(#298);
#298 = FILL_AREA_STYLE('', (#299));
#299 = FILL_AREA_STYLE_COLOUR('', #300);
#300 = COLOUR_RGB('', 0.8, 0.8, 0.8);
#301 = STYLED_ITEM('', (#294), #194);
#302 = TRIMMED_CURVE('cutting part line', #303, (#307), (#308), .T., .CARTESIAN.);
#303 = LINE('', #304, #305);
#304 = CARTESIAN_POINT('', (-1.06857884514657E-30, -5.81707229594993E-15, -95.));
#305 = VECTOR('', #306, 2.5);
#306 = DIRECTION('', (2.5, -4.59242549680259E-16, 0.));
#307 = CARTESIAN_POINT('', (-1.06857884514657E-30, -5.81707229594993E-15, -95.));
#308 = CARTESIAN_POINT('', (2.5, -6.27631484563019E-15, -95.));
#309 = TRIMMED_CURVE('cutting part line', #310, (#314), (#315), .T., .CARTESIAN.);
#310 = LINE('', #311, #312);
#311 = CARTESIAN_POINT('', (2.5, -6.27631484563019E-15, -95.));
#312 = VECTOR('', #313, 2.5);
#313 = DIRECTION('', (0., -1.5308084989342E-16, -2.5));
#314 = CARTESIAN_POINT('', (2.5, -6.27631484563019E-15, -95.));
#315 = CARTESIAN_POINT('', (2.5, -6.42939569552361E-15, -97.5));
#316 = TRIMMED_CURVE('cutting part line', #317, (#322), (#323), .T., .CARTESIAN.);
#317 = CIRCLE('', #318, 2.5);
#318 = AXIS2_PLACEMENT_3D('', #319, #320, #321);
#319 = CARTESIAN_POINT('', (-6.66133814775094E-15, -5.97015314584335E-15, -97.5));
#320 = DIRECTION('', (1.83697019872104E-16, 1., -6.12323399573687E-17));
#321 = DIRECTION('', (1., -1.83697019872104E-16, 0.));
#322 = CARTESIAN_POINT('', (2.5, -6.42939569552361E-15, -97.5));
#323 = CARTESIAN_POINT('', (-1.51225368704431E-15, -6.12323399573677E-15, -100.));
#324 = TRIMMED_CURVE('cutting part line', #325, (#329), (#330), .T., .CARTESIAN.);
#325 = LINE('', #326, #327);
#326 = CARTESIAN_POINT('', (-1.12481983699639E-30, -6.12323399573677E-15, -100.));
#327 = VECTOR('', #328, 5.);
#328 = DIRECTION('', (5.62409918498196E-32, 3.0616169978684E-16, 5.));
#329 = CARTESIAN_POINT('', (-1.12481983699639E-30, -6.12323399573677E-15, -100.));
#330 = CARTESIAN_POINT('', (-1.06857884514657E-30, -5.81707229594993E-15, -95.));
#331 = COMPOSITE_CURVE('cutting part line', (#332, #333, #334, #335), .U.);
#332 = COMPOSITE_CURVE_SEGMENT(.CONTINUOUS., .T., #302);
#333 = COMPOSITE_CURVE_SEGMENT(.CONTINUOUS., .T., #309);
#334 = COMPOSITE_CURVE_SEGMENT(.CONTINUOUS., .T., #316);
#335 = COMPOSITE_CURVE_SEGMENT(.CONTINUOUS., .T., #324);
#336 = GEOMETRIC_SET('', (#331, #374));
#337 = PRESENTATION_STYLE_ASSIGNMENT((#338));
#338 = CURVE_STYLE('', #340, POSITIVE_LENGTH_MEASURE(1.E-6), #339);
#339 = COLOUR_RGB('', 0., 0., 1.);
#340 = DRAUGHTING_PRE_DEFINED_CURVE_FONT('continuous');
#341 = STYLED_ITEM('', (#337), #331);
#342 = PRESENTATION_STYLE_ASSIGNMENT((#343));
#343 = CURVE_STYLE('', #345, POSITIVE_LENGTH_MEASURE(1.E-6), #344);
#344 = COLOUR_RGB('', 0., 0., 1.);
#345 = DRAUGHTING_PRE_DEFINED_CURVE_FONT('continuous');
#346 = OVER_RIDING_STYLED_ITEM('', (#342), #302, #341);
#347 = PRESENTATION_STYLE_ASSIGNMENT((#348));
#348 = CURVE_STYLE('', #350, POSITIVE_LENGTH_MEASURE(1.E-6), #349);
#349 = COLOUR_RGB('', 0., 0., 1.);
#350 = DRAUGHTING_PRE_DEFINED_CURVE_FONT('continuous');
#351 = OVER_RIDING_STYLED_ITEM('', (#347), #309, #341);
#352 = PRESENTATION_STYLE_ASSIGNMENT((#353));
#353 = CURVE_STYLE('', #355, POSITIVE_LENGTH_MEASURE(1.E-6), #354);
#354 = COLOUR_RGB('', 0., 0., 1.);
#355 = DRAUGHTING_PRE_DEFINED_CURVE_FONT('continuous');
#356 = OVER_RIDING_STYLED_ITEM('', (#352), #316, #341);
#357 = PRESENTATION_STYLE_ASSIGNMENT((#358));
#358 = CURVE_STYLE('', #360, POSITIVE_LENGTH_MEASURE(1.E-6), #359);
#359 = COLOUR_RGB('', 0., 0., 1.);
#360 = DRAUGHTING_PRE_DEFINED_CURVE_FONT('continuous');
#361 = OVER_RIDING_STYLED_ITEM('', (#357), #324, #341);
#362 = AXIS2_PLACEMENT_3D('CIP', #363, #364, #365);
#363 = CARTESIAN_POINT('', (3.74939945665464E-31, 6.12323399573677E-15, -100.));
#364 = DIRECTION('', (-3.74939945665465E-33, -6.12323399573677E-17, 1.));
#365 = DIRECTION('', (1., -6.12323399573677E-17, 0.));
#366 = AXIS2_PLACEMENT_3D('MCS', #367, #368, #369);
#367 = CARTESIAN_POINT('', (1.34978380439567E-31, 2.20436423846524E-15, -36.));
#368 = DIRECTION('', (-3.74939945665465E-33, -6.12323399573677E-17, 1.));
#369 = DIRECTION('', (1., -6.12323399573677E-17, 0.));
#370 = AXIS2_PLACEMENT_3D('PCS', #371, #372, #373);
#371 = CARTESIAN_POINT('', (0., 0., 0.));
#372 = DIRECTION('', (0., 0., 1.));
#373 = DIRECTION('', (1., 0., 0.));
#374 = CARTESIAN_POINT('CRP', (2.5, 0., -100.));
#375 = (
   GEOMETRIC_REPRESENTATION_CONTEXT (3)
   GLOBAL_UNCERTAINTY_ASSIGNED_CONTEXT ((#377))
   GLOBAL_UNIT_ASSIGNED_CONTEXT ((#376, #378, #379))
   REPRESENTATION_CONTEXT ('', '3D')
);
#376 = (
   LENGTH_UNIT ()
   NAMED_UNIT (*)
   SI_UNIT (.MILLI., .METRE.)
);
#377 = UNCERTAINTY_MEASURE_WITH_UNIT(LENGTH_MEASURE(1.E-6), #376, 'DISTANCE_ACCURACY_VALUE', '');
#378 = (
   NAMED_UNIT (*)
   SI_UNIT ($, .STERADIAN.)
   SOLID_ANGLE_UNIT ()
);
#379 = (
   NAMED_UNIT (*)
   PLANE_ANGLE_UNIT ()
   SI_UNIT ($, .RADIAN.)
);
#380 = SHAPE_REPRESENTATION('', (), #375);
#381 = PRODUCT_DEFINITION_SHAPE('', '', #382);
#382 = PRODUCT_DEFINITION('', '', #385, #389);
#383 = APPLICATION_CONTEXT('configuration controlled 3D designs of mechanical parts and assemblies');
#384 = APPLICATION_PROTOCOL_DEFINITION('International Standard', 'automotive_design', 2002, #383);
#385 = PRODUCT_DEFINITION_FORMATION_WITH_SPECIFIED_SOURCE('', '', #386, .NOT_KNOWN.);
#386 = PRODUCT('EmptyName', 'EmptyName', '', (#387));
#387 = PRODUCT_CONTEXT('', #383, 'mechanical');
#388 = PRODUCT_RELATED_PRODUCT_CATEGORY('detail', '', (#386));
#389 = PRODUCT_DEFINITION_CONTEXT('part definition', #383, 'design');
#390 = SHAPE_DEFINITION_REPRESENTATION(#381, #380);
#391 = CONSTRUCTIVE_GEOMETRY_REPRESENTATION('supplemental geometry', (#362, #366, #370), #375);
#392 = CONSTRUCTIVE_GEOMETRY_REPRESENTATION_RELATIONSHIP('', '', #380, #391);
#393 = SHAPE_REPRESENTATION_RELATIONSHIP('', '', #380, #394);
#394 = SHAPE_REPRESENTATION('', (#336), #375);
#395 = SHAPE_REPRESENTATION_RELATIONSHIP('', '', #380, #396);
#396 = ADVANCED_BREP_SHAPE_REPRESENTATION('', (#1, #194), #375);
ENDSEC;
END-ISO-10303-21;
