ISO-10303-21;
HEADER;
FILE_DESCRIPTION(('STEP'), '1');
FILE_NAME('C:\\Users\\ds2002\\OneDrive - Sandvik\\HomeShare\\Documents\\Batchrepair\\CorSRT2\\NEW_MILBN_SLD\\Output2\\MOD000000000000000020084645700000.stp', '2018-11-23T12:39:00', (''), (''), 'Express v3.0.0.0', 'Express Tool', 'Unknown');
FILE_SCHEMA(('AUTOMOTIVE_DESIGN'));
ENDSEC;

DATA;
#1 = MANIFOLD_SOLID_BREP('NOCUT', #2);
#2 = CLOSED_SHELL('', (#3, #50, #89, #128, #175, #184, #215));
#3 = ADVANCED_FACE('', (#4), #31, .T.);
#4 = FACE_OUTER_BOUND('', #5, .T.);
#5 = EDGE_LOOP('', (#6, #16, #23, #24));
#6 = ORIENTED_EDGE('', *, *, #7, .F.);
#7 = EDGE_CURVE('', #8, #10, #12, .T.);
#8 = VERTEX_POINT('', #9);
#9 = CARTESIAN_POINT('', (-2.375, 3.30379090239977E-15, -51.58));
#10 = VERTEX_POINT('', #11);
#11 = CARTESIAN_POINT('', (-2.5, 3.33716252767654E-15, -52.));
#12 = LINE('', #13, #14);
#13 = CARTESIAN_POINT('', (-2.375, 3.30379090239977E-15, -51.58));
#14 = VECTOR('', #15, 0.438206572292111);
#15 = DIRECTION('', (-0.125, 3.337162527677E-17, -0.420000000000002));
#16 = ORIENTED_EDGE('', *, *, #17, .T.);
#17 = EDGE_CURVE('', #8, #8, #18, .T.);
#18 = CIRCLE('', #19, 2.375);
#19 = AXIS2_PLACEMENT_3D('', #20, #21, #22);
#20 = CARTESIAN_POINT('', (1.94289029309402E-16, 2.38697950294409E-15, -51.58));
#21 = DIRECTION('', (0., 0., -1.));
#22 = DIRECTION('', (-1., 3.86025852402393E-16, 0.));
#23 = ORIENTED_EDGE('', *, *, #7, .T.);
#24 = ORIENTED_EDGE('', *, *, #25, .F.);
#25 = EDGE_CURVE('', #10, #10, #26, .T.);
#26 = CIRCLE('', #27, 2.5);
#27 = AXIS2_PLACEMENT_3D('', #28, #29, #30);
#28 = CARTESIAN_POINT('', (1.2490009027033E-16, 1.49880108324396E-15, -52.));
#29 = DIRECTION('', (0., 0., -1.));
#30 = DIRECTION('', (-1., 7.35344577773031E-16, 0.));
#31 = (
   BOUNDED_SURFACE ()
   B_SPLINE_SURFACE (2, 1, ((#32, #33), (#34, #35), (#36, #37), (#38, #39), (#40, #41), (#42, #43), (#44, #45), (#46, #47), (#48, #49)), .UNSPECIFIED., .T., .F., .U.)
   B_SPLINE_SURFACE_WITH_KNOTS ((3, 2, 2, 2, 3), (2, 2), (0., 0.25, 0.5, 0.75, 1.), (0., 1.), .UNSPECIFIED.)
   GEOMETRIC_REPRESENTATION_ITEM ()
   RATIONAL_B_SPLINE_SURFACE (((1., 1.), (0.707106781186548, 0.707106781186548), (1., 1.), (0.707106781186548, 0.707106781186548), (1., 1.), (0.707106781186548, 0.707106781186548), (1., 1.), (0.707106781186548, 0.707106781186548), (1., 1.)))
   REPRESENTATION_ITEM ('')
   SURFACE ()
);
#32 = CARTESIAN_POINT('', (-2.375, 3.30379090239977E-15, -51.58));
#33 = CARTESIAN_POINT('', (-2.5, 3.66465956456821E-15, -52.));
#34 = CARTESIAN_POINT('', (-2.375, 2.375, -51.58));
#35 = CARTESIAN_POINT('', (-2.5, 2.5, -52.));
#36 = CARTESIAN_POINT('', (3.57469772923546E-15, 2.375, -51.58));
#37 = CARTESIAN_POINT('', (3.76137889521545E-15, 2.5, -52.));
#38 = CARTESIAN_POINT('', (2.375, 2.375, -51.58));
#39 = CARTESIAN_POINT('', (2.5, 2.5, -52.));
#40 = CARTESIAN_POINT('', (2.375, -3.79009340483988E-15, -51.58));
#41 = CARTESIAN_POINT('', (2.5, -3.80258707463143E-15, -52.));
#42 = CARTESIAN_POINT('', (2.375, -2.375, -51.58));
#43 = CARTESIAN_POINT('', (2.5, -2.5, -52.));
#44 = CARTESIAN_POINT('', (-3.2283329632067E-15, -2.375, -51.58));
#45 = CARTESIAN_POINT('', (-3.39970604419735E-15, -2.5, -52.));
#46 = CARTESIAN_POINT('', (-2.375, -2.375, -51.58));
#47 = CARTESIAN_POINT('', (-2.5, -2.5, -52.));
#48 = CARTESIAN_POINT('', (-2.375, 3.30379090239977E-15, -51.58));
#49 = CARTESIAN_POINT('', (-2.5, 3.66465956456821E-15, -52.));
#50 = ADVANCED_FACE('', (#51), #70, .T.);
#51 = FACE_OUTER_BOUND('', #52, .T.);
#52 = EDGE_LOOP('', (#53, #61, #68, #69));
#53 = ORIENTED_EDGE('', *, *, #54, .F.);
#54 = EDGE_CURVE('', #55, #8, #57, .T.);
#55 = VERTEX_POINT('', #56);
#56 = CARTESIAN_POINT('', (-2.375, 2.41102338582135E-15, -37.));
#57 = LINE('', #58, #59);
#58 = CARTESIAN_POINT('', (-2.375, 2.41102338582135E-15, -37.));
#59 = VECTOR('', #60, 14.58);
#60 = DIRECTION('', (0., 8.9276751657842E-16, -14.58));
#61 = ORIENTED_EDGE('', *, *, #62, .T.);
#62 = EDGE_CURVE('', #55, #55, #63, .T.);
#63 = CIRCLE('', #64, 2.375);
#64 = AXIS2_PLACEMENT_3D('', #65, #66, #67);
#65 = CARTESIAN_POINT('', (2.28983498828939E-16, 1.4432899320127E-15, -37.));
#66 = DIRECTION('', (0., 0., -1.));
#67 = DIRECTION('', (-1., 4.07466717393114E-16, 0.));
#68 = ORIENTED_EDGE('', *, *, #54, .T.);
#69 = ORIENTED_EDGE('', *, *, #17, .F.);
#70 = (
   BOUNDED_SURFACE ()
   B_SPLINE_SURFACE (2, 1, ((#71, #72), (#73, #74), (#75, #76), (#77, #78), (#79, #80), (#81, #82), (#83, #84), (#85, #86), (#87, #88)), .UNSPECIFIED., .T., .F., .U.)
   B_SPLINE_SURFACE_WITH_KNOTS ((3, 2, 2, 2, 3), (2, 2), (0., 3.73064127613788, 7.46128255227575, 11.1919238284136, 14.9225651045515), (0., 1.), .UNSPECIFIED.)
   GEOMETRIC_REPRESENTATION_ITEM ()
   RATIONAL_B_SPLINE_SURFACE (((1., 1.), (0.707106781186548, 0.707106781186548), (1., 1.), (0.707106781186548, 0.707106781186548), (1., 1.), (0.707106781186548, 0.707106781186548), (1., 1.), (0.707106781186548, 0.707106781186548), (1., 1.)))
   REPRESENTATION_ITEM ('')
   SURFACE ()
);
#71 = CARTESIAN_POINT('', (-2.375, 2.41102338582135E-15, -37.));
#72 = CARTESIAN_POINT('', (-2.375, 2.41102338582135E-15, -51.58));
#73 = CARTESIAN_POINT('', (-2.375, 2.375, -37.));
#74 = CARTESIAN_POINT('', (-2.375, 2.375, -51.58));
#75 = CARTESIAN_POINT('', (2.18232985157571E-15, 2.375, -37.));
#76 = CARTESIAN_POINT('', (2.18232985157571E-15, 2.375, -51.58));
#77 = CARTESIAN_POINT('', (2.375, 2.375, -37.));
#78 = CARTESIAN_POINT('', (2.375, 2.375, -51.58));
#79 = CARTESIAN_POINT('', (2.375, -7.87902141473665E-16, -37.));
#80 = CARTESIAN_POINT('', (2.375, -7.87902141473665E-16, -51.58));
#81 = CARTESIAN_POINT('', (2.375, -2.375, -37.));
#82 = CARTESIAN_POINT('', (2.375, -2.375, -51.58));
#83 = CARTESIAN_POINT('', (-7.25742060921804E-16, -2.375, -37.));
#84 = CARTESIAN_POINT('', (-7.25742060921804E-16, -2.375, -51.58));
#85 = CARTESIAN_POINT('', (-2.375, -2.375, -37.));
#86 = CARTESIAN_POINT('', (-2.375, -2.375, -51.58));
#87 = CARTESIAN_POINT('', (-2.375, 2.41102338582135E-15, -37.));
#88 = CARTESIAN_POINT('', (-2.375, 2.41102338582135E-15, -51.58));
#89 = ADVANCED_FACE('', (#90), #109, .T.);
#90 = FACE_OUTER_BOUND('', #91, .T.);
#91 = EDGE_LOOP('', (#92, #100, #107, #108));
#92 = ORIENTED_EDGE('', *, *, #93, .F.);
#93 = EDGE_CURVE('', #94, #55, #96, .T.);
#94 = VERTEX_POINT('', #95);
#95 = CARTESIAN_POINT('', (-3., 2.38316267114075E-15, -35.92));
#96 = LINE('', #97, #98);
#97 = CARTESIAN_POINT('', (-3., 2.38316267114075E-15, -35.92));
#98 = VECTOR('', #99, 1.24780807819151);
#99 = DIRECTION('', (0.625, 2.78607146806E-17, -1.08));
#100 = ORIENTED_EDGE('', *, *, #101, .T.);
#101 = EDGE_CURVE('', #94, #94, #102, .T.);
#102 = CIRCLE('', #103, 3.);
#103 = AXIS2_PLACEMENT_3D('', #104, #105, #106);
#104 = CARTESIAN_POINT('', (-6.93889390390723E-16, 8.88178419700125E-16, -35.92));
#105 = DIRECTION('', (0., 0., -1.));
#106 = DIRECTION('', (-1., 4.98328083813542E-16, 0.));
#107 = ORIENTED_EDGE('', *, *, #93, .T.);
#108 = ORIENTED_EDGE('', *, *, #62, .F.);
#109 = (
   BOUNDED_SURFACE ()
   B_SPLINE_SURFACE (2, 1, ((#110, #111), (#112, #113), (#114, #115), (#116, #117), (#118, #119), (#120, #121), (#122, #123), (#124, #125), (#126, #127)), .UNSPECIFIED., .T., .F., .U.)
   B_SPLINE_SURFACE_WITH_KNOTS ((3, 2, 2, 2, 3), (2, 2), (0., 0.25, 0.5, 0.75, 1.), (0., 1.), .UNSPECIFIED.)
   GEOMETRIC_REPRESENTATION_ITEM ()
   RATIONAL_B_SPLINE_SURFACE (((1., 1.), (0.707106781186548, 0.707106781186548), (1., 1.), (0.707106781186548, 0.707106781186548), (1., 1.), (0.707106781186548, 0.707106781186548), (1., 1.), (0.707106781186548, 0.707106781186548), (1., 1.)))
   REPRESENTATION_ITEM ('')
   SURFACE ()
);
#110 = CARTESIAN_POINT('', (-3., 2.38316267114075E-15, -35.92));
#111 = CARTESIAN_POINT('', (-2.375, -7.24105975500471E-17, -37.));
#112 = CARTESIAN_POINT('', (-3., 3., -35.92));
#113 = CARTESIAN_POINT('', (-2.375, 2.375, -37.));
#114 = CARTESIAN_POINT('', (8.25564658295016E-16, 3., -35.92));
#115 = CARTESIAN_POINT('', (7.9524110502166E-16, 2.375, -37.));
#116 = CARTESIAN_POINT('', (3., 3., -35.92));
#117 = CARTESIAN_POINT('', (2.375, 2.375, -37.));
#118 = CARTESIAN_POINT('', (3., 2.09205655971654E-15, -35.92));
#119 = CARTESIAN_POINT('', (2.375, -3.0286960242755E-16, -37.));
#120 = CARTESIAN_POINT('', (3., -3., -35.92));
#121 = CARTESIAN_POINT('', (2.375, -2.375, -37.));
#122 = CARTESIAN_POINT('', (9.01852586615007E-16, -3., -35.92));
#123 = CARTESIAN_POINT('', (8.55635714941653E-16, -2.375, -37.));
#124 = CARTESIAN_POINT('', (-3., -3., -35.92));
#125 = CARTESIAN_POINT('', (-2.375, -2.375, -37.));
#126 = CARTESIAN_POINT('', (-3., 2.38316267114075E-15, -35.92));
#127 = CARTESIAN_POINT('', (-2.375, -7.24105975500471E-17, -37.));
#128 = ADVANCED_FACE('', (#129), #156, .T.);
#129 = FACE_OUTER_BOUND('', #130, .T.);
#130 = EDGE_LOOP('', (#131, #141, #148, #149));
#131 = ORIENTED_EDGE('', *, *, #132, .T.);
#132 = EDGE_CURVE('', #133, #135, #137, .T.);
#133 = VERTEX_POINT('', #134);
#134 = CARTESIAN_POINT('', (-3., 2.02066721859313E-16, -0.299999999999997));
#135 = VERTEX_POINT('', #136);
#136 = CARTESIAN_POINT('', (-2.7, 1.65327317884893E-16, 0.));
#137 = LINE('', #138, #139);
#138 = CARTESIAN_POINT('', (-3., 2.02066721859313E-16, -0.299999999999997));
#139 = VECTOR('', #140, 0.424264068711926);
#140 = DIRECTION('', (0.3, -3.673940397442E-17, 0.299999999999997));
#141 = ORIENTED_EDGE('', *, *, #142, .T.);
#142 = EDGE_CURVE('', #135, #135, #143, .T.);
#143 = CIRCLE('', #144, 2.7);
#144 = AXIS2_PLACEMENT_3D('', #145, #146, #147);
#145 = CARTESIAN_POINT('', (6.24500451351651E-17, -1.88737914186277E-15, -1.07852076885685E-31));
#146 = DIRECTION('', (6.60738625565492E-33, 6.12323399573678E-17, -1.));
#147 = DIRECTION('', (-1., 7.60261651758392E-16, 3.99452136613649E-32));
#148 = ORIENTED_EDGE('', *, *, #132, .F.);
#149 = ORIENTED_EDGE('', *, *, #150, .F.);
#150 = EDGE_CURVE('', #133, #133, #151, .T.);
#151 = CIRCLE('', #152, 3.);
#152 = AXIS2_PLACEMENT_3D('', #153, #154, #155);
#153 = CARTESIAN_POINT('', (-8.32667268468867E-16, 1.66533453693773E-16, -0.299999999999997));
#154 = DIRECTION('', (7.45939217764516E-34, 6.29780982393227E-17, -1.));
#155 = DIRECTION('', (-1., 1.18444227218465E-17, 0.));
#156 = (
   BOUNDED_SURFACE ()
   B_SPLINE_SURFACE (1, 2, ((#157, #158, #159, #160, #161, #162, #163, #164, #165), (#166, #167, #168, #169, #170, #171, #172, #173, #174)), .UNSPECIFIED., .F., .T., .U.)
   B_SPLINE_SURFACE_WITH_KNOTS ((2, 2), (3, 2, 2, 2, 3), (0., 1.), (0., 0.25, 0.5, 0.75, 1.), .UNSPECIFIED.)
   GEOMETRIC_REPRESENTATION_ITEM ()
   RATIONAL_B_SPLINE_SURFACE (((1., 0.707106781186548, 1., 0.707106781186548, 1., 0.707106781186548, 1., 0.707106781186548, 1.), (1., 0.707106781186548, 1., 0.707106781186548, 1., 0.707106781186548, 1., 0.707106781186548, 1.)))
   REPRESENTATION_ITEM ('')
   SURFACE ()
);
#157 = CARTESIAN_POINT('', (-3., 1.49129302665284E-15, -0.299999999999997));
#158 = CARTESIAN_POINT('', (-3., 3., -0.299999999999985));
#159 = CARTESIAN_POINT('', (2.34149119846292E-15, 3., -0.299999999999985));
#160 = CARTESIAN_POINT('', (3., 3., -0.299999999999985));
#161 = CARTESIAN_POINT('', (3., -1.34594359183367E-15, -0.299999999999997));
#162 = CARTESIAN_POINT('', (3., -3., -0.300000000000009));
#163 = CARTESIAN_POINT('', (-1.28351380279387E-16, -3., -0.300000000000009));
#164 = CARTESIAN_POINT('', (-3., -3., -0.300000000000009));
#165 = CARTESIAN_POINT('', (-3., 1.49129302665284E-15, -0.299999999999997));
#166 = CARTESIAN_POINT('', (-2.7, 1.65327317884893E-16, -2.18952885050753E-47));
#167 = CARTESIAN_POINT('', (-2.7, 2.7, 1.04916075827078E-14));
#168 = CARTESIAN_POINT('', (2.19962936753859E-15, 2.7, 1.04916075827078E-14));
#169 = CARTESIAN_POINT('', (2.7, 2.7, 1.04916075827078E-14));
#170 = CARTESIAN_POINT('', (2.7, -2.38818563875297E-15, 1.12461399303431E-30));
#171 = CARTESIAN_POINT('', (2.7, -2.7, -1.04916075827078E-14));
#172 = CARTESIAN_POINT('', (-2.32289533294833E-17, -2.7, -1.04916075827078E-14));
#173 = CARTESIAN_POINT('', (-2.7, -2.7, -1.04916075827078E-14));
#174 = CARTESIAN_POINT('', (-2.7, 1.65327317884893E-16, -2.18952885050753E-47));
#175 = ADVANCED_FACE('', (#176), #179, .T.);
#176 = FACE_OUTER_BOUND('', #177, .T.);
#177 = EDGE_LOOP('', (#178));
#178 = ORIENTED_EDGE('', *, *, #142, .F.);
#179 = B_SPLINE_SURFACE_WITH_KNOTS('', 1, 1, ((#180, #181), (#182, #183)), .UNSPECIFIED., .F., .F., .U., (2, 2), (2, 2), (1.50021428024809, 6.90021428024809), (1.50021428024809, 6.90021428024809), .UNSPECIFIED.);
#180 = CARTESIAN_POINT('', (2.7, -2.7, -1.65327317884893E-16));
#181 = CARTESIAN_POINT('', (-2.7, -2.7, -1.65327317884893E-16));
#182 = CARTESIAN_POINT('', (2.7, 2.7, 1.65327317884892E-16));
#183 = CARTESIAN_POINT('', (-2.7, 2.7, 1.65327317884892E-16));
#184 = ADVANCED_FACE('', (#185), #196, .T.);
#185 = FACE_OUTER_BOUND('', #186, .T.);
#186 = EDGE_LOOP('', (#187, #193, #194, #195));
#187 = ORIENTED_EDGE('', *, *, #188, .T.);
#188 = EDGE_CURVE('', #94, #133, #189, .T.);
#189 = LINE('', #190, #191);
#190 = CARTESIAN_POINT('', (-3., 2.38316267114075E-15, -35.92));
#191 = VECTOR('', #192, 35.62);
#192 = DIRECTION('', (0., -2.18109594928144E-15, 35.62));
#193 = ORIENTED_EDGE('', *, *, #150, .T.);
#194 = ORIENTED_EDGE('', *, *, #188, .F.);
#195 = ORIENTED_EDGE('', *, *, #101, .F.);
#196 = (
   BOUNDED_SURFACE ()
   B_SPLINE_SURFACE (1, 2, ((#197, #198, #199, #200, #201, #202, #203, #204, #205), (#206, #207, #208, #209, #210, #211, #212, #213, #214)), .UNSPECIFIED., .F., .T., .U.)
   B_SPLINE_SURFACE_WITH_KNOTS ((2, 2), (3, 2, 2, 2, 3), (0., 1.), (0., 4.7123889803847, 9.4247779607694, 14.1371669411541, 18.8495559215388), .UNSPECIFIED.)
   GEOMETRIC_REPRESENTATION_ITEM ()
   RATIONAL_B_SPLINE_SURFACE (((1., 0.707106781186548, 1., 0.707106781186548, 1., 0.707106781186548, 1., 0.707106781186548, 1.), (1., 0.707106781186548, 1., 0.707106781186548, 1., 0.707106781186548, 1., 0.707106781186548, 1.)))
   REPRESENTATION_ITEM ('')
   SURFACE ()
);
#197 = CARTESIAN_POINT('', (-3., 2.20046816618459E-15, -35.92));
#198 = CARTESIAN_POINT('', (-3., 3., -35.92));
#199 = CARTESIAN_POINT('', (2.59279185892218E-15, 3., -35.92));
#200 = CARTESIAN_POINT('', (3., 3., -35.92));
#201 = CARTESIAN_POINT('', (3., -1.61102952151536E-15, -35.92));
#202 = CARTESIAN_POINT('', (3., -3., -35.92));
#203 = CARTESIAN_POINT('', (-8.51311789033567E-16, -3., -35.92));
#204 = CARTESIAN_POINT('', (-3., -3., -35.92));
#205 = CARTESIAN_POINT('', (-3., 2.20046816618459E-15, -35.92));
#206 = CARTESIAN_POINT('', (-3., 2.02066721859312E-16, -0.299999999999997));
#207 = CARTESIAN_POINT('', (-3., 3., -0.299999999999997));
#208 = CARTESIAN_POINT('', (3.25189426120798E-15, 3., -0.299999999999997));
#209 = CARTESIAN_POINT('', (3., 3., -0.299999999999997));
#210 = CARTESIAN_POINT('', (3., -3.60943096584064E-15, -0.299999999999997));
#211 = CARTESIAN_POINT('', (3., -3., -0.299999999999997));
#212 = CARTESIAN_POINT('', (-1.92209386747767E-16, -3., -0.299999999999997));
#213 = CARTESIAN_POINT('', (-3., -3., -0.299999999999997));
#214 = CARTESIAN_POINT('', (-3., 2.02066721859312E-16, -0.299999999999997));
#215 = ADVANCED_FACE('', (#216), #219, .T.);
#216 = FACE_OUTER_BOUND('', #217, .T.);
#217 = EDGE_LOOP('', (#218));
#218 = ORIENTED_EDGE('', *, *, #25, .T.);
#219 = B_SPLINE_SURFACE_WITH_KNOTS('', 1, 1, ((#220, #221), (#222, #223)), .UNSPECIFIED., .F., .F., .U., (2, 2), (2, 2), (57.6018077192108, 62.6018077192108), (52.6544361550373, 57.6544361550373), .UNSPECIFIED.);
#220 = CARTESIAN_POINT('', (-2.5, 2.5, -52.));
#221 = CARTESIAN_POINT('', (-2.5, -2.5, -52.));
#222 = CARTESIAN_POINT('', (2.5, 2.5, -52.));
#223 = CARTESIAN_POINT('', (2.5, -2.5, -52.));
#224 = DRAUGHTING_MODEL('', (#232, #340, #380, #385, #390, #395, #400), #414);
#225 = PRESENTATION_STYLE_ASSIGNMENT((#226));
#226 = SURFACE_STYLE_USAGE(.POSITIVE., #227);
#227 = SURFACE_SIDE_STYLE('', (#228));
#228 = SURFACE_STYLE_FILL_AREA(#229);
#229 = FILL_AREA_STYLE('', (#230));
#230 = FILL_AREA_STYLE_COLOUR('', #231);
#231 = COLOUR_RGB('', 0.50196078431373, 0.50196078431373, 0.50196078431373);
#232 = STYLED_ITEM('', (#225), #1);
#233 = MANIFOLD_SOLID_BREP('CUT', #234);
#234 = CLOSED_SHELL('', (#235, #252, #291));
#235 = ADVANCED_FACE('', (#236), #247, .T.);
#236 = FACE_OUTER_BOUND('', #237, .T.);
#237 = EDGE_LOOP('', (#238));
#238 = ORIENTED_EDGE('', *, *, #239, .F.);
#239 = EDGE_CURVE('', #240, #240, #242, .T.);
#240 = VERTEX_POINT('', #241);
#241 = CARTESIAN_POINT('', (-2.5, 3.33716252767654E-15, -52.));
#242 = CIRCLE('', #243, 2.5);
#243 = AXIS2_PLACEMENT_3D('', #244, #245, #246);
#244 = CARTESIAN_POINT('', (1.2490009027033E-16, 1.49880108324396E-15, -52.));
#245 = DIRECTION('', (0., 0., -1.));
#246 = DIRECTION('', (-1., 7.35344577773031E-16, 0.));
#247 = B_SPLINE_SURFACE_WITH_KNOTS('', 1, 1, ((#248, #249), (#250, #251)), .UNSPECIFIED., .F., .F., .U., (2, 2), (2, 2), (52.6544361550373, 57.6544361550373), (57.6018077192108, 62.6018077192108), .UNSPECIFIED.);
#248 = CARTESIAN_POINT('', (-2.5, 2.5, -52.));
#249 = CARTESIAN_POINT('', (2.5, 2.5, -52.));
#250 = CARTESIAN_POINT('', (-2.5, -2.5, -52.));
#251 = CARTESIAN_POINT('', (2.5, -2.5, -52.));
#252 = ADVANCED_FACE('', (#253), #272, .T.);
#253 = FACE_OUTER_BOUND('', #254, .T.);
#254 = EDGE_LOOP('', (#255, #263, #264, #265));
#255 = ORIENTED_EDGE('', *, *, #256, .F.);
#256 = EDGE_CURVE('', #240, #257, #259, .T.);
#257 = VERTEX_POINT('', #258);
#258 = CARTESIAN_POINT('', (-2.5, 3.49024337756996E-15, -54.5));
#259 = LINE('', #260, #261);
#260 = CARTESIAN_POINT('', (-2.5, 3.33716252767654E-15, -52.));
#261 = VECTOR('', #262, 2.5);
#262 = DIRECTION('', (0., 1.5308084989342E-16, -2.5));
#263 = ORIENTED_EDGE('', *, *, #239, .T.);
#264 = ORIENTED_EDGE('', *, *, #256, .T.);
#265 = ORIENTED_EDGE('', *, *, #266, .F.);
#266 = EDGE_CURVE('', #257, #257, #267, .T.);
#267 = CIRCLE('', #268, 2.5);
#268 = AXIS2_PLACEMENT_3D('', #269, #270, #271);
#269 = CARTESIAN_POINT('', (1.2490009027033E-16, 1.66533453693773E-15, -54.5));
#270 = DIRECTION('', (7.06125546965879E-30, 9.67343588955994E-15, -1.));
#271 = DIRECTION('', (-1., 7.2996353625289E-16, 0.));
#272 = (
   BOUNDED_SURFACE ()
   B_SPLINE_SURFACE (2, 1, ((#273, #274), (#275, #276), (#277, #278), (#279, #280), (#281, #282), (#283, #284), (#285, #286), (#287, #288), (#289, #290)), .UNSPECIFIED., .T., .F., .U.)
   B_SPLINE_SURFACE_WITH_KNOTS ((3, 2, 2, 2, 3), (2, 2), (0., 3.92699081698725, 7.8539816339745, 11.7809724509618, 15.707963267949), (0., 1.), .UNSPECIFIED.)
   GEOMETRIC_REPRESENTATION_ITEM ()
   RATIONAL_B_SPLINE_SURFACE (((1., 1.), (0.707106781186548, 0.707106781186548), (1., 1.), (0.707106781186548, 0.707106781186548), (1., 1.), (0.707106781186548, 0.707106781186548), (1., 1.), (0.707106781186548, 0.707106781186548), (1., 1.)))
   REPRESENTATION_ITEM ('')
   SURFACE ()
);
#273 = CARTESIAN_POINT('', (-2.5, 3.33716252767654E-15, -52.));
#274 = CARTESIAN_POINT('', (-2.5, 3.50369598137031E-15, -54.5));
#275 = CARTESIAN_POINT('', (-2.5, 2.5, -52.));
#276 = CARTESIAN_POINT('', (-2.5, 2.5, -54.5));
#277 = CARTESIAN_POINT('', (1.42854152009459E-15, 2.5, -52.));
#278 = CARTESIAN_POINT('', (1.42854152009459E-15, 2.5, -54.5));
#279 = CARTESIAN_POINT('', (2.5, 2.5, -52.));
#280 = CARTESIAN_POINT('', (2.5, 2.5, -54.5));
#281 = CARTESIAN_POINT('', (2.5, -8.10554778639389E-16, -52.));
#282 = CARTESIAN_POINT('', (2.5, -6.44021324945615E-16, -54.5));
#283 = CARTESIAN_POINT('', (2.5, -2.5, -52.));
#284 = CARTESIAN_POINT('', (2.5, -2.5, -54.5));
#285 = CARTESIAN_POINT('', (-2.4130140864345E-15, -2.5, -52.));
#286 = CARTESIAN_POINT('', (-2.4130140864345E-15, -2.5, -54.5));
#287 = CARTESIAN_POINT('', (-2.5, -2.5, -52.));
#288 = CARTESIAN_POINT('', (-2.5, -2.5, -54.5));
#289 = CARTESIAN_POINT('', (-2.5, 3.33716252767654E-15, -52.));
#290 = CARTESIAN_POINT('', (-2.5, 3.50369598137031E-15, -54.5));
#291 = ADVANCED_FACE('', (#292), #305, .T.);
#292 = FACE_OUTER_BOUND('', #293, .T.);
#293 = EDGE_LOOP('', (#294, #303, #304));
#294 = ORIENTED_EDGE('', *, *, #295, .F.);
#295 = EDGE_CURVE('', #257, #296, #298, .T.);
#296 = VERTEX_POINT('', #297);
#297 = CARTESIAN_POINT('', (9.0333175953032E-16, 3.49024337756996E-15, -57.));
#298 = CIRCLE('', #299, 2.49999999999997);
#299 = AXIS2_PLACEMENT_3D('', #300, #301, #302);
#300 = CARTESIAN_POINT('', (-2.48689957516035E-14, 3.33716252767655E-15, -54.5));
#301 = DIRECTION('', (-6.12323399573666E-17, -1., -6.1232339957367E-17));
#302 = DIRECTION('', (-1., 6.12323399573661E-17, 8.52651282912129E-15));
#303 = ORIENTED_EDGE('', *, *, #266, .T.);
#304 = ORIENTED_EDGE('', *, *, #295, .T.);
#305 = (
   BOUNDED_SURFACE ()
   B_SPLINE_SURFACE (2, 2, ((#306, #307, #308), (#309, #310, #311), (#312, #313, #314), (#315, #316, #317), (#318, #319, #320), (#321, #322, #323), (#324, #325, #326), (#327, #328, #329), (#330, #331, #332)), .UNSPECIFIED., .T., .F., .U.)
   B_SPLINE_SURFACE_WITH_KNOTS ((3, 2, 2, 2, 3), (3, 3), (0., 0.25, 0.5, 0.75, 1.), (0., 1.), .UNSPECIFIED.)
   GEOMETRIC_REPRESENTATION_ITEM ()
   RATIONAL_B_SPLINE_SURFACE (((1., 0.707106781186548, 1.), (0.707106781186548, 0.5, 0.707106781186548), (1., 0.707106781186548, 1.), (0.707106781186548, 0.5, 0.707106781186548), (1., 0.707106781186548, 1.), (0.707106781186548, 0.5, 0.707106781186548), (1., 0.707106781186548, 1.), (0.707106781186548, 0.5, 0.707106781186548), (1., 0.707106781186548, 1.)))
   REPRESENTATION_ITEM ('')
   SURFACE ()
);
#306 = CARTESIAN_POINT('', (-2.5, 3.49024337756996E-15, -54.5));
#307 = CARTESIAN_POINT('', (-2.5, 3.64332422746338E-15, -57.));
#308 = CARTESIAN_POINT('', (9.0333175953032E-16, 3.49024337756996E-15, -57.));
#309 = CARTESIAN_POINT('', (-2.5, 2.49999999999996, -54.5));
#310 = CARTESIAN_POINT('', (-2.5, 2.49999999999996, -57.));
#311 = CARTESIAN_POINT('', (9.0333175953032E-16, 3.49024337756996E-15, -57.));
#312 = CARTESIAN_POINT('', (-3.99680288865056E-14, 2.49999999999996, -54.5));
#313 = CARTESIAN_POINT('', (-3.98149480366122E-14, 2.49999999999996, -57.));
#314 = CARTESIAN_POINT('', (9.0333175953032E-16, 3.49024337756996E-15, -57.));
#315 = CARTESIAN_POINT('', (2.49999999999992, 2.49999999999996, -54.5));
#316 = CARTESIAN_POINT('', (2.49999999999992, 2.49999999999996, -57.));
#317 = CARTESIAN_POINT('', (9.0333175953032E-16, 3.49024337756996E-15, -57.));
#318 = CARTESIAN_POINT('', (2.49999999999992, 3.49024337756996E-15, -54.5));
#319 = CARTESIAN_POINT('', (2.49999999999992, 3.33716252767654E-15, -57.));
#320 = CARTESIAN_POINT('', (9.0333175953032E-16, 3.49024337756996E-15, -57.));
#321 = CARTESIAN_POINT('', (2.49999999999992, -2.49999999999996, -54.5));
#322 = CARTESIAN_POINT('', (2.49999999999992, -2.49999999999996, -57.));
#323 = CARTESIAN_POINT('', (9.0333175953032E-16, 3.49024337756996E-15, -57.));
#324 = CARTESIAN_POINT('', (-3.96618671867188E-14, -2.49999999999996, -54.5));
#325 = CARTESIAN_POINT('', (-3.98149480366122E-14, -2.49999999999996, -57.));
#326 = CARTESIAN_POINT('', (9.0333175953032E-16, 3.49024337756996E-15, -57.));
#327 = CARTESIAN_POINT('', (-2.5, -2.49999999999996, -54.5));
#328 = CARTESIAN_POINT('', (-2.5, -2.49999999999996, -57.));
#329 = CARTESIAN_POINT('', (9.0333175953032E-16, 3.49024337756996E-15, -57.));
#330 = CARTESIAN_POINT('', (-2.5, 3.49024337756996E-15, -54.5));
#331 = CARTESIAN_POINT('', (-2.5, 3.64332422746338E-15, -57.));
#332 = CARTESIAN_POINT('', (9.0333175953032E-16, 3.49024337756996E-15, -57.));
#333 = PRESENTATION_STYLE_ASSIGNMENT((#334));
#334 = SURFACE_STYLE_USAGE(.POSITIVE., #335);
#335 = SURFACE_SIDE_STYLE('', (#336));
#336 = SURFACE_STYLE_FILL_AREA(#337);
#337 = FILL_AREA_STYLE('', (#338));
#338 = FILL_AREA_STYLE_COLOUR('', #339);
#339 = COLOUR_RGB('', 0.8, 0.8, 0.8);
#340 = STYLED_ITEM('', (#333), #233);
#341 = TRIMMED_CURVE('cutting part line', #342, (#346), (#347), .T., .CARTESIAN.);
#342 = LINE('', #343, #344);
#343 = CARTESIAN_POINT('', (-5.84906315238124E-31, -3.18408167778312E-15, -52.));
#344 = VECTOR('', #345, 2.5);
#345 = DIRECTION('', (2.5, -4.59242549680258E-16, 0.));
#346 = CARTESIAN_POINT('', (-5.84906315238124E-31, -3.18408167778312E-15, -52.));
#347 = CARTESIAN_POINT('', (2.5, -3.64332422746338E-15, -52.));
#348 = TRIMMED_CURVE('cutting part line', #349, (#353), (#354), .T., .CARTESIAN.);
#349 = LINE('', #350, #351);
#350 = CARTESIAN_POINT('', (2.5, -3.64332422746338E-15, -52.));
#351 = VECTOR('', #352, 2.5);
#352 = DIRECTION('', (0., -1.5308084989342E-16, -2.5));
#353 = CARTESIAN_POINT('', (2.5, -3.64332422746338E-15, -52.));
#354 = CARTESIAN_POINT('', (2.5, -3.7964050773568E-15, -54.5));
#355 = TRIMMED_CURVE('cutting part line', #356, (#361), (#362), .T., .CARTESIAN.);
#356 = CIRCLE('', #357, 2.5);
#357 = AXIS2_PLACEMENT_3D('', #358, #359, #360);
#358 = CARTESIAN_POINT('', (-4.44089209850063E-15, -3.33716252767654E-15, -54.5));
#359 = DIRECTION('', (1.83697019872103E-16, 1., -6.12323399573681E-17));
#360 = DIRECTION('', (1., -1.83697019872103E-16, 0.));
#361 = CARTESIAN_POINT('', (2.5, -3.7964050773568E-15, -54.5));
#362 = CARTESIAN_POINT('', (-1.51225368704432E-15, -3.49024337756996E-15, -57.));
#363 = TRIMMED_CURVE('cutting part line', #364, (#368), (#369), .T., .CARTESIAN.);
#364 = LINE('', #365, #366);
#365 = CARTESIAN_POINT('', (-6.41147307087945E-31, -3.49024337756996E-15, -57.));
#366 = VECTOR('', #367, 5.);
#367 = DIRECTION('', (5.62409918498206E-32, 3.0616169978684E-16, 5.));
#368 = CARTESIAN_POINT('', (-6.41147307087945E-31, -3.49024337756996E-15, -57.));
#369 = CARTESIAN_POINT('', (-5.84906315238124E-31, -3.18408167778312E-15, -52.));
#370 = COMPOSITE_CURVE('cutting part line', (#371, #372, #373, #374), .U.);
#371 = COMPOSITE_CURVE_SEGMENT(.CONTINUOUS., .T., #341);
#372 = COMPOSITE_CURVE_SEGMENT(.CONTINUOUS., .T., #348);
#373 = COMPOSITE_CURVE_SEGMENT(.CONTINUOUS., .T., #355);
#374 = COMPOSITE_CURVE_SEGMENT(.CONTINUOUS., .T., #363);
#375 = GEOMETRIC_SET('', (#370, #413));
#376 = PRESENTATION_STYLE_ASSIGNMENT((#377));
#377 = CURVE_STYLE('', #379, POSITIVE_LENGTH_MEASURE(1.E-6), #378);
#378 = COLOUR_RGB('', 0., 0., 1.);
#379 = DRAUGHTING_PRE_DEFINED_CURVE_FONT('continuous');
#380 = STYLED_ITEM('', (#376), #370);
#381 = PRESENTATION_STYLE_ASSIGNMENT((#382));
#382 = CURVE_STYLE('', #384, POSITIVE_LENGTH_MEASURE(1.E-6), #383);
#383 = COLOUR_RGB('', 0., 0., 1.);
#384 = DRAUGHTING_PRE_DEFINED_CURVE_FONT('continuous');
#385 = OVER_RIDING_STYLED_ITEM('', (#381), #341, #380);
#386 = PRESENTATION_STYLE_ASSIGNMENT((#387));
#387 = CURVE_STYLE('', #389, POSITIVE_LENGTH_MEASURE(1.E-6), #388);
#388 = COLOUR_RGB('', 0., 0., 1.);
#389 = DRAUGHTING_PRE_DEFINED_CURVE_FONT('continuous');
#390 = OVER_RIDING_STYLED_ITEM('', (#386), #348, #380);
#391 = PRESENTATION_STYLE_ASSIGNMENT((#392));
#392 = CURVE_STYLE('', #394, POSITIVE_LENGTH_MEASURE(1.E-6), #393);
#393 = COLOUR_RGB('', 0., 0., 1.);
#394 = DRAUGHTING_PRE_DEFINED_CURVE_FONT('continuous');
#395 = OVER_RIDING_STYLED_ITEM('', (#391), #355, #380);
#396 = PRESENTATION_STYLE_ASSIGNMENT((#397));
#397 = CURVE_STYLE('', #399, POSITIVE_LENGTH_MEASURE(1.E-6), #398);
#398 = COLOUR_RGB('', 0., 0., 1.);
#399 = DRAUGHTING_PRE_DEFINED_CURVE_FONT('continuous');
#400 = OVER_RIDING_STYLED_ITEM('', (#396), #363, #380);
#401 = AXIS2_PLACEMENT_3D('CIP', #402, #403, #404);
#402 = CARTESIAN_POINT('', (2.13715769029315E-31, 3.49024337756996E-15, -57.));
#403 = DIRECTION('', (-3.74939945665465E-33, -6.12323399573677E-17, 1.));
#404 = DIRECTION('', (1., -6.12323399573677E-17, 0.));
#405 = AXIS2_PLACEMENT_3D('MCS', #406, #407, #408);
#406 = CARTESIAN_POINT('', (1.34678428483035E-31, 2.19946565126865E-15, -35.92));
#407 = DIRECTION('', (-3.74939945665465E-33, -6.12323399573677E-17, 1.));
#408 = DIRECTION('', (1., -6.12323399573677E-17, 0.));
#409 = AXIS2_PLACEMENT_3D('PCS', #410, #411, #412);
#410 = CARTESIAN_POINT('', (0., 0., 0.));
#411 = DIRECTION('', (0., 0., 1.));
#412 = DIRECTION('', (1., 0., 0.));
#413 = CARTESIAN_POINT('CRP', (2.5, 0., -57.));
#414 = (
   GEOMETRIC_REPRESENTATION_CONTEXT (3)
   GLOBAL_UNCERTAINTY_ASSIGNED_CONTEXT ((#416))
   GLOBAL_UNIT_ASSIGNED_CONTEXT ((#415, #417, #418))
   REPRESENTATION_CONTEXT ('', '3D')
);
#415 = (
   LENGTH_UNIT ()
   NAMED_UNIT (*)
   SI_UNIT (.MILLI., .METRE.)
);
#416 = UNCERTAINTY_MEASURE_WITH_UNIT(LENGTH_MEASURE(1.E-6), #415, 'DISTANCE_ACCURACY_VALUE', '');
#417 = (
   NAMED_UNIT (*)
   SI_UNIT ($, .STERADIAN.)
   SOLID_ANGLE_UNIT ()
);
#418 = (
   NAMED_UNIT (*)
   PLANE_ANGLE_UNIT ()
   SI_UNIT ($, .RADIAN.)
);
#419 = SHAPE_REPRESENTATION('', (), #414);
#420 = PRODUCT_DEFINITION_SHAPE('', '', #421);
#421 = PRODUCT_DEFINITION('', '', #424, #428);
#422 = APPLICATION_CONTEXT('configuration controlled 3D designs of mechanical parts and assemblies');
#423 = APPLICATION_PROTOCOL_DEFINITION('International Standard', 'automotive_design', 2002, #422);
#424 = PRODUCT_DEFINITION_FORMATION_WITH_SPECIFIED_SOURCE('', '', #425, .NOT_KNOWN.);
#425 = PRODUCT('EmptyName', 'EmptyName', '', (#426));
#426 = PRODUCT_CONTEXT('', #422, 'mechanical');
#427 = PRODUCT_RELATED_PRODUCT_CATEGORY('detail', '', (#425));
#428 = PRODUCT_DEFINITION_CONTEXT('part definition', #422, 'design');
#429 = SHAPE_DEFINITION_REPRESENTATION(#420, #419);
#430 = CONSTRUCTIVE_GEOMETRY_REPRESENTATION('supplemental geometry', (#401, #405, #409), #414);
#431 = CONSTRUCTIVE_GEOMETRY_REPRESENTATION_RELATIONSHIP('', '', #419, #430);
#432 = SHAPE_REPRESENTATION_RELATIONSHIP('', '', #419, #433);
#433 = SHAPE_REPRESENTATION('', (#375), #414);
#434 = SHAPE_REPRESENTATION_RELATIONSHIP('', '', #419, #435);
#435 = ADVANCED_BREP_SHAPE_REPRESENTATION('', (#1, #233), #414);
ENDSEC;
END-ISO-10303-21;
