ISO-10303-21;
HEADER;
FILE_DESCRIPTION(('STEP'), '1');
FILE_NAME('C:\\Users\\ds2002\\OneDrive - Sandvik\\HomeShare\\Documents\\Batchrepair\\CorSRT2\\NEW_MILBN_SLD\\Output2\\MOD000000000000000020084645200000.stp', '2018-11-23T12:39:43', (''), (''), 'Express v3.0.0.0', 'Express Tool', 'Unknown');
FILE_SCHEMA(('AUTOMOTIVE_DESIGN'));
ENDSEC;

DATA;
#1 = MANIFOLD_SOLID_BREP('NOCUT', #2);
#2 = CLOSED_SHELL('', (#3, #50, #59, #98));
#3 = ADVANCED_FACE('', (#4), #31, .T.);
#4 = FACE_OUTER_BOUND('', #5, .T.);
#5 = EDGE_LOOP('', (#6, #16, #23, #24));
#6 = ORIENTED_EDGE('', *, *, #7, .T.);
#7 = EDGE_CURVE('', #8, #10, #12, .T.);
#8 = VERTEX_POINT('', #9);
#9 = CARTESIAN_POINT('', (-2., 1.34711147906209E-16, -0.200000000000003));
#10 = VERTEX_POINT('', #11);
#11 = CARTESIAN_POINT('', (-1.8, 1.10218211923262E-16, 0.));
#12 = LINE('', #13, #14);
#13 = CARTESIAN_POINT('', (-2., 1.34711147906209E-16, -0.200000000000003));
#14 = VECTOR('', #15, 0.282842712474621);
#15 = DIRECTION('', (0.2, -2.4492935982947E-17, 0.200000000000003));
#16 = ORIENTED_EDGE('', *, *, #17, .T.);
#17 = EDGE_CURVE('', #10, #10, #18, .T.);
#18 = CIRCLE('', #19, 1.8);
#19 = AXIS2_PLACEMENT_3D('', #20, #21, #22);
#20 = CARTESIAN_POINT('', (3.95516952522712E-16, -1.66533453693773E-16, -1.23259516440783E-32));
#21 = DIRECTION('', (2.56677801597317E-33, 6.12323399573678E-17, -1.));
#22 = DIRECTION('', (-1., -9.1178434486673E-17, -8.14984691324171E-33));
#23 = ORIENTED_EDGE('', *, *, #7, .F.);
#24 = ORIENTED_EDGE('', *, *, #25, .F.);
#25 = EDGE_CURVE('', #8, #8, #26, .T.);
#26 = CIRCLE('', #27, 2.);
#27 = AXIS2_PLACEMENT_3D('', #28, #29, #30);
#28 = CARTESIAN_POINT('', (2.84494650060196E-16, 5.55111512312578E-17, -0.200000000000003));
#29 = DIRECTION('', (1.38777878078145E-17, -4.5148837062514E-17, -1.));
#30 = DIRECTION('', (-1., -2.05329361491995E-16, -1.38777878078145E-17));
#31 = (
   BOUNDED_SURFACE ()
   B_SPLINE_SURFACE (1, 2, ((#32, #33, #34, #35, #36, #37, #38, #39, #40), (#41, #42, #43, #44, #45, #46, #47, #48, #49)), .UNSPECIFIED., .F., .T., .U.)
   B_SPLINE_SURFACE_WITH_KNOTS ((2, 2), (3, 2, 2, 2, 3), (0., 1.), (0., 0.25, 0.5, 0.75, 1.), .UNSPECIFIED.)
   GEOMETRIC_REPRESENTATION_ITEM ()
   RATIONAL_B_SPLINE_SURFACE (((1., 0.707106781186548, 1., 0.707106781186548, 1., 0.707106781186548, 1., 0.707106781186548, 1.), (1., 0.707106781186548, 1., 0.707106781186548, 1., 0.707106781186548, 1., 0.707106781186548, 1.)))
   REPRESENTATION_ITEM ('')
   SURFACE ()
);
#32 = CARTESIAN_POINT('', (-2., -1.02476577886459E-15, -0.200000000000003));
#33 = CARTESIAN_POINT('', (-2., 2., -0.200000000000015));
#34 = CARTESIAN_POINT('', (1.64220489059138E-16, 2., -0.200000000000015));
#35 = CARTESIAN_POINT('', (2., 2., -0.200000000000015));
#36 = CARTESIAN_POINT('', (2., -1.39484012040631E-15, -0.200000000000003));
#37 = CARTESIAN_POINT('', (2., -2., -0.199999999999991));
#38 = CARTESIAN_POINT('', (3.90755073468892E-17, -2., -0.199999999999991));
#39 = CARTESIAN_POINT('', (-2., -2., -0.199999999999991));
#40 = CARTESIAN_POINT('', (-2., -1.02476577886459E-15, -0.200000000000003));
#41 = CARTESIAN_POINT('', (-1.8, 1.10218211923262E-16, 0.));
#42 = CARTESIAN_POINT('', (-1.8, 1.8, -1.04916075827076E-14));
#43 = CARTESIAN_POINT('', (1.45716771982052E-16, 1.8, -1.04916075827076E-14));
#44 = CARTESIAN_POINT('', (1.8, 1.8, -1.04916075827076E-14));
#45 = CARTESIAN_POINT('', (1.8, -2.22848695464285E-16, -1.30334029187341E-30));
#46 = CARTESIAN_POINT('', (1.8, -1.8, 1.04916075827076E-14));
#47 = CARTESIAN_POINT('', (3.30862884410282E-17, -1.8, 1.04916075827076E-14));
#48 = CARTESIAN_POINT('', (-1.8, -1.8, 1.04916075827076E-14));
#49 = CARTESIAN_POINT('', (-1.8, 1.10218211923262E-16, 0.));
#50 = ADVANCED_FACE('', (#51), #54, .T.);
#51 = FACE_OUTER_BOUND('', #52, .T.);
#52 = EDGE_LOOP('', (#53));
#53 = ORIENTED_EDGE('', *, *, #17, .F.);
#54 = B_SPLINE_SURFACE_WITH_KNOTS('', 1, 1, ((#55, #56), (#57, #58)), .UNSPECIFIED., .F., .F., .U., (2, 2), (2, 2), (1.00014285349873, 4.60014285349873), (1.00014285349873, 4.60014285349873), .UNSPECIFIED.);
#55 = CARTESIAN_POINT('', (1.8, -1.8, -1.10218211923258E-16));
#56 = CARTESIAN_POINT('', (-1.8, -1.8, -1.43210729271253E-14));
#57 = CARTESIAN_POINT('', (1.8, 1.8, 1.43210729271253E-14));
#58 = CARTESIAN_POINT('', (-1.8, 1.8, 1.10218211923277E-16));
#59 = ADVANCED_FACE('', (#60), #79, .T.);
#60 = FACE_OUTER_BOUND('', #61, .T.);
#61 = EDGE_LOOP('', (#62, #71, #77, #78));
#62 = ORIENTED_EDGE('', *, *, #63, .F.);
#63 = EDGE_CURVE('', #64, #64, #66, .T.);
#64 = VERTEX_POINT('', #65);
#65 = CARTESIAN_POINT('', (-2., 5.8783046359073E-15, -94.));
#66 = CIRCLE('', #67, 2.);
#67 = AXIS2_PLACEMENT_3D('', #68, #69, #70);
#68 = CARTESIAN_POINT('', (1.94289029309402E-16, 7.60502771868232E-15, -94.));
#69 = DIRECTION('', (0., 0., -1.));
#70 = DIRECTION('', (-1., -8.63361541387511E-16, 0.));
#71 = ORIENTED_EDGE('', *, *, #72, .F.);
#72 = EDGE_CURVE('', #8, #64, #73, .T.);
#73 = LINE('', #74, #75);
#74 = CARTESIAN_POINT('', (-2., 1.34711147906209E-16, -0.200000000000003));
#75 = VECTOR('', #76, 93.8);
#76 = DIRECTION('', (0., 5.74359348800109E-15, -93.8));
#77 = ORIENTED_EDGE('', *, *, #25, .T.);
#78 = ORIENTED_EDGE('', *, *, #72, .T.);
#79 = (
   BOUNDED_SURFACE ()
   B_SPLINE_SURFACE (1, 2, ((#80, #81, #82, #83, #84, #85, #86, #87, #88), (#89, #90, #91, #92, #93, #94, #95, #96, #97)), .UNSPECIFIED., .F., .T., .U.)
   B_SPLINE_SURFACE_WITH_KNOTS ((2, 2), (3, 2, 2, 2, 3), (-1.41752577319588, 1.), (0., 0.25, 0.5, 0.75, 1.), .UNSPECIFIED.)
   GEOMETRIC_REPRESENTATION_ITEM ()
   RATIONAL_B_SPLINE_SURFACE (((1., 0.707106781186548, 1., 0.707106781186548, 1., 0.707106781186548, 1., 0.707106781186548, 1.), (1., 0.707106781186548, 1., 0.707106781186548, 1., 0.707106781186548, 1., 0.707106781186548, 1.)))
   REPRESENTATION_ITEM ('')
   SURFACE ()
);
#80 = CARTESIAN_POINT('', (-2., 8.84996189121369E-15, -94.));
#81 = CARTESIAN_POINT('', (-2., 2.00000000000001, -94.));
#82 = CARTESIAN_POINT('', (1.20573621946352E-15, 2.00000000000001, -94.));
#83 = CARTESIAN_POINT('', (2., 2.00000000000001, -94.));
#84 = CARTESIAN_POINT('', (2., 7.04911211583049E-15, -94.));
#85 = CARTESIAN_POINT('', (2., -1.99999999999999, -94.));
#86 = CARTESIAN_POINT('', (-3.50184196090206E-16, -1.99999999999999, -94.));
#87 = CARTESIAN_POINT('', (-2., -1.99999999999999, -94.));
#88 = CARTESIAN_POINT('', (-2., 8.84996189121369E-15, -94.));
#89 = CARTESIAN_POINT('', (-2., 1.34711147906209E-16, -0.200000000000003));
#90 = CARTESIAN_POINT('', (-2., 2., -0.200000000000003));
#91 = CARTESIAN_POINT('', (1.20573621946352E-15, 2., -0.200000000000003));
#92 = CARTESIAN_POINT('', (2., 2., -0.200000000000003));
#93 = CARTESIAN_POINT('', (2., -1.66613862747699E-15, -0.200000000000003));
#94 = CARTESIAN_POINT('', (2., -2., -0.200000000000003));
#95 = CARTESIAN_POINT('', (-3.5018419609021E-16, -2., -0.200000000000003));
#96 = CARTESIAN_POINT('', (-2., -2., -0.200000000000003));
#97 = CARTESIAN_POINT('', (-2., 1.34711147906209E-16, -0.200000000000003));
#98 = ADVANCED_FACE('', (#99), #102, .T.);
#99 = FACE_OUTER_BOUND('', #100, .T.);
#100 = EDGE_LOOP('', (#101));
#101 = ORIENTED_EDGE('', *, *, #63, .T.);
#102 = B_SPLINE_SURFACE_WITH_KNOTS('', 1, 1, ((#103, #104), (#105, #106)), .UNSPECIFIED., .F., .F., .U., (2, 2), (2, 2), (99.919877246292, 103.919877246292), (96.3998737918922, 100.399873791892), .UNSPECIFIED.);
#103 = CARTESIAN_POINT('', (-2., 2.00000000000001, -94.));
#104 = CARTESIAN_POINT('', (-2., -1.99999999999999, -94.));
#105 = CARTESIAN_POINT('', (2., 2.00000000000001, -94.));
#106 = CARTESIAN_POINT('', (2., -1.99999999999999, -94.));
#107 = DRAUGHTING_MODEL('', (#115, #223, #263, #268, #273, #278, #283), #297);
#108 = PRESENTATION_STYLE_ASSIGNMENT((#109));
#109 = SURFACE_STYLE_USAGE(.POSITIVE., #110);
#110 = SURFACE_SIDE_STYLE('', (#111));
#111 = SURFACE_STYLE_FILL_AREA(#112);
#112 = FILL_AREA_STYLE('', (#113));
#113 = FILL_AREA_STYLE_COLOUR('', #114);
#114 = COLOUR_RGB('', 0.50196078431373, 0.50196078431373, 0.50196078431373);
#115 = STYLED_ITEM('', (#108), #1);
#116 = MANIFOLD_SOLID_BREP('CUT', #117);
#117 = CLOSED_SHELL('', (#118, #135, #174));
#118 = ADVANCED_FACE('', (#119), #130, .T.);
#119 = FACE_OUTER_BOUND('', #120, .T.);
#120 = EDGE_LOOP('', (#121));
#121 = ORIENTED_EDGE('', *, *, #122, .F.);
#122 = EDGE_CURVE('', #123, #123, #125, .T.);
#123 = VERTEX_POINT('', #124);
#124 = CARTESIAN_POINT('', (-2., 5.8783046359073E-15, -94.));
#125 = CIRCLE('', #126, 2.);
#126 = AXIS2_PLACEMENT_3D('', #127, #128, #129);
#127 = CARTESIAN_POINT('', (1.94289029309402E-16, 7.60502771868232E-15, -94.));
#128 = DIRECTION('', (0., 0., -1.));
#129 = DIRECTION('', (-1., -8.63361541387511E-16, 0.));
#130 = B_SPLINE_SURFACE_WITH_KNOTS('', 1, 1, ((#131, #132), (#133, #134)), .UNSPECIFIED., .F., .F., .U., (2, 2), (2, 2), (96.3998737918922, 100.399873791892), (99.919877246292, 103.919877246292), .UNSPECIFIED.);
#131 = CARTESIAN_POINT('', (-2., 2.00000000000002, -94.));
#132 = CARTESIAN_POINT('', (2., 2.00000000000002, -94.));
#133 = CARTESIAN_POINT('', (-2., -1.99999999999998, -94.));
#134 = CARTESIAN_POINT('', (2., -1.99999999999998, -94.));
#135 = ADVANCED_FACE('', (#136), #155, .T.);
#136 = FACE_OUTER_BOUND('', #137, .T.);
#137 = EDGE_LOOP('', (#138, #139, #147, #154));
#138 = ORIENTED_EDGE('', *, *, #122, .T.);
#139 = ORIENTED_EDGE('', *, *, #140, .T.);
#140 = EDGE_CURVE('', #123, #141, #143, .T.);
#141 = VERTEX_POINT('', #142);
#142 = CARTESIAN_POINT('', (-2., 6.12323399573677E-15, -98.));
#143 = LINE('', #144, #145);
#144 = CARTESIAN_POINT('', (-2., 5.8783046359073E-15, -94.));
#145 = VECTOR('', #146, 4.);
#146 = DIRECTION('', (0., 2.4492935982947E-16, -4.));
#147 = ORIENTED_EDGE('', *, *, #148, .F.);
#148 = EDGE_CURVE('', #141, #141, #149, .T.);
#149 = CIRCLE('', #150, 2.);
#150 = AXIS2_PLACEMENT_3D('', #151, #152, #153);
#151 = CARTESIAN_POINT('', (1.2490009027033E-16, 7.49400541621981E-15, -98.));
#152 = DIRECTION('', (0., 0., -1.));
#153 = DIRECTION('', (-1., -6.85385710241518E-16, 0.));
#154 = ORIENTED_EDGE('', *, *, #140, .F.);
#155 = (
   BOUNDED_SURFACE ()
   B_SPLINE_SURFACE (1, 2, ((#156, #157, #158, #159, #160, #161, #162, #163, #164), (#165, #166, #167, #168, #169, #170, #171, #172, #173)), .UNSPECIFIED., .F., .T., .U.)
   B_SPLINE_SURFACE_WITH_KNOTS ((2, 2), (3, 2, 2, 2, 3), (-1.52061855670103, -1.41752577319588), (0., 0.25, 0.5, 0.75, 1.), .UNSPECIFIED.)
   GEOMETRIC_REPRESENTATION_ITEM ()
   RATIONAL_B_SPLINE_SURFACE (((1., 0.707106781186548, 1., 0.707106781186548, 1., 0.707106781186548, 1., 0.707106781186548, 1.), (1., 0.707106781186548, 1., 0.707106781186548, 1., 0.707106781186548, 1., 0.707106781186548, 1.)))
   REPRESENTATION_ITEM ('')
   SURFACE ()
);
#156 = CARTESIAN_POINT('', (-2., 5.37870427482598E-15, -98.));
#157 = CARTESIAN_POINT('', (-2., 2., -98.));
#158 = CARTESIAN_POINT('', (-2.01572121638353E-15, 2.00000000000001, -98.));
#159 = CARTESIAN_POINT('', (2., 2.00000000000001, -98.));
#160 = CARTESIAN_POINT('', (2., 9.52116901005556E-15, -98.));
#161 = CARTESIAN_POINT('', (2., -1.99999999999999, -98.));
#162 = CARTESIAN_POINT('', (2.37167287867552E-15, -1.99999999999999, -98.));
#163 = CARTESIAN_POINT('', (-2., -1.99999999999999, -98.));
#164 = CARTESIAN_POINT('', (-2., 5.37870427482598E-15, -98.));
#165 = CARTESIAN_POINT('', (-2., 5.8783046359073E-15, -94.));
#166 = CARTESIAN_POINT('', (-2., 2.00000000000001, -94.));
#167 = CARTESIAN_POINT('', (-2.01572121638353E-15, 2.00000000000001, -94.));
#168 = CARTESIAN_POINT('', (2., 2.00000000000001, -94.));
#169 = CARTESIAN_POINT('', (2., 1.00207693711369E-14, -94.));
#170 = CARTESIAN_POINT('', (2., -1.99999999999999, -94.));
#171 = CARTESIAN_POINT('', (2.37167287867552E-15, -1.99999999999999, -94.));
#172 = CARTESIAN_POINT('', (-2., -1.99999999999999, -94.));
#173 = CARTESIAN_POINT('', (-2., 5.8783046359073E-15, -94.));
#174 = ADVANCED_FACE('', (#175), #188, .T.);
#175 = FACE_OUTER_BOUND('', #176, .T.);
#176 = EDGE_LOOP('', (#177, #186, #187));
#177 = ORIENTED_EDGE('', *, *, #178, .F.);
#178 = EDGE_CURVE('', #141, #179, #181, .T.);
#179 = VERTEX_POINT('', #180);
#180 = CARTESIAN_POINT('', (5.89438644669238E-16, 6.12323399573677E-15, -100.));
#181 = CIRCLE('', #182, 1.99999999999998);
#182 = AXIS2_PLACEMENT_3D('', #183, #184, #185);
#183 = CARTESIAN_POINT('', (-1.59872115546023E-14, 6.00076931582204E-15, -98.));
#184 = DIRECTION('', (-6.12323399573646E-17, -1., -6.12323399573643E-17));
#185 = DIRECTION('', (-1., 6.12323399573641E-17, 7.10542735760106E-15));
#186 = ORIENTED_EDGE('', *, *, #148, .T.);
#187 = ORIENTED_EDGE('', *, *, #178, .T.);
#188 = (
   BOUNDED_SURFACE ()
   B_SPLINE_SURFACE (2, 2, ((#189, #190, #191), (#192, #193, #194), (#195, #196, #197), (#198, #199, #200), (#201, #202, #203), (#204, #205, #206), (#207, #208, #209), (#210, #211, #212), (#213, #214, #215)), .UNSPECIFIED., .T., .F., .U.)
   B_SPLINE_SURFACE_WITH_KNOTS ((3, 2, 2, 2, 3), (3, 3), (0., 0.25, 0.5, 0.75, 1.), (0., 1.), .UNSPECIFIED.)
   GEOMETRIC_REPRESENTATION_ITEM ()
   RATIONAL_B_SPLINE_SURFACE (((1., 0.707106781186548, 1.), (0.707106781186548, 0.5, 0.707106781186548), (1., 0.707106781186548, 1.), (0.707106781186548, 0.5, 0.707106781186548), (1., 0.707106781186548, 1.), (0.707106781186548, 0.5, 0.707106781186548), (1., 0.707106781186548, 1.), (0.707106781186548, 0.5, 0.707106781186548), (1., 0.707106781186548, 1.)))
   REPRESENTATION_ITEM ('')
   SURFACE ()
);
#189 = CARTESIAN_POINT('', (-2., 6.12323399573677E-15, -98.));
#190 = CARTESIAN_POINT('', (-2., 6.2456986756515E-15, -100.));
#191 = CARTESIAN_POINT('', (5.89438644669238E-16, 6.12323399573677E-15, -100.));
#192 = CARTESIAN_POINT('', (-2., 1.99999999999997, -98.));
#193 = CARTESIAN_POINT('', (-2., 1.99999999999997, -100.));
#194 = CARTESIAN_POINT('', (5.89438644669238E-16, 6.12323399573677E-15, -100.));
#195 = CARTESIAN_POINT('', (-3.13082892944294E-14, 1.99999999999997, -98.));
#196 = CARTESIAN_POINT('', (-3.11858246145147E-14, 1.99999999999997, -100.));
#197 = CARTESIAN_POINT('', (5.89438644669238E-16, 6.12323399573677E-15, -100.));
#198 = CARTESIAN_POINT('', (1.99999999999994, 1.99999999999997, -98.));
#199 = CARTESIAN_POINT('', (1.99999999999994, 1.99999999999997, -100.));
#200 = CARTESIAN_POINT('', (5.89438644669238E-16, 6.12323399573677E-15, -100.));
#201 = CARTESIAN_POINT('', (1.99999999999994, 6.12323399573679E-15, -98.));
#202 = CARTESIAN_POINT('', (1.99999999999994, 6.00076931582206E-15, -100.));
#203 = CARTESIAN_POINT('', (5.89438644669238E-16, 6.12323399573677E-15, -100.));
#204 = CARTESIAN_POINT('', (1.99999999999994, -1.99999999999996, -98.));
#205 = CARTESIAN_POINT('', (1.99999999999994, -1.99999999999996, -100.));
#206 = CARTESIAN_POINT('', (5.89438644669238E-16, 6.12323399573677E-15, -100.));
#207 = CARTESIAN_POINT('', (-3.10633599345999E-14, -1.99999999999996, -98.));
#208 = CARTESIAN_POINT('', (-3.11858246145147E-14, -1.99999999999996, -100.));
#209 = CARTESIAN_POINT('', (5.89438644669238E-16, 6.12323399573677E-15, -100.));
#210 = CARTESIAN_POINT('', (-2., -1.99999999999996, -98.));
#211 = CARTESIAN_POINT('', (-2., -1.99999999999996, -100.));
#212 = CARTESIAN_POINT('', (5.89438644669238E-16, 6.12323399573677E-15, -100.));
#213 = CARTESIAN_POINT('', (-2., 6.12323399573677E-15, -98.));
#214 = CARTESIAN_POINT('', (-2., 6.2456986756515E-15, -100.));
#215 = CARTESIAN_POINT('', (5.89438644669238E-16, 6.12323399573677E-15, -100.));
#216 = PRESENTATION_STYLE_ASSIGNMENT((#217));
#217 = SURFACE_STYLE_USAGE(.POSITIVE., #218);
#218 = SURFACE_SIDE_STYLE('', (#219));
#219 = SURFACE_STYLE_FILL_AREA(#220);
#220 = FILL_AREA_STYLE('', (#221));
#221 = FILL_AREA_STYLE_COLOUR('', #222);
#222 = COLOUR_RGB('', 0.8, 0.8, 0.8);
#223 = STYLED_ITEM('', (#216), #116);
#224 = TRIMMED_CURVE('cutting part line', #225, (#229), (#230), .T., .CARTESIAN.);
#225 = LINE('', #226, #227);
#226 = CARTESIAN_POINT('', (-1.05733064677661E-30, -5.75583995599256E-15, -94.));
#227 = VECTOR('', #228, 2.);
#228 = DIRECTION('', (2., -3.6739403974421E-16, 0.));
#229 = CARTESIAN_POINT('', (-1.05733064677661E-30, -5.75583995599256E-15, -94.));
#230 = CARTESIAN_POINT('', (2., -6.12323399573677E-15, -94.));
#231 = TRIMMED_CURVE('cutting part line', #232, (#236), (#237), .T., .CARTESIAN.);
#232 = LINE('', #233, #234);
#233 = CARTESIAN_POINT('', (2., -6.12323399573677E-15, -94.));
#234 = VECTOR('', #235, 4.);
#235 = DIRECTION('', (0., -2.4492935982947E-16, -4.));
#236 = CARTESIAN_POINT('', (2., -6.12323399573677E-15, -94.));
#237 = CARTESIAN_POINT('', (2., -6.36816335556624E-15, -98.));
#238 = TRIMMED_CURVE('cutting part line', #239, (#244), (#245), .T., .CARTESIAN.);
#239 = CIRCLE('', #240, 1.99999999999997);
#240 = AXIS2_PLACEMENT_3D('', #241, #242, #243);
#241 = CARTESIAN_POINT('', (3.01980662698043E-14, -6.00076931582205E-15, -98.));
#242 = DIRECTION('', (1.83697019872098E-16, 1., -6.12323399573634E-17));
#243 = DIRECTION('', (1., -1.83697019872098E-16, 7.10542735760111E-15));
#244 = CARTESIAN_POINT('', (2., -6.36816335556624E-15, -98.));
#245 = CARTESIAN_POINT('', (-7.65713739784778E-16, -6.12323399573677E-15, -100.));
#246 = TRIMMED_CURVE('cutting part line', #247, (#251), (#252), .T., .CARTESIAN.);
#247 = LINE('', #248, #249);
#248 = CARTESIAN_POINT('', (-1.12481983699639E-30, -6.12323399573677E-15, -100.));
#249 = VECTOR('', #250, 6.);
#250 = DIRECTION('', (6.74891902197832E-32, 3.6739403974421E-16, 6.));
#251 = CARTESIAN_POINT('', (-1.12481983699639E-30, -6.12323399573677E-15, -100.));
#252 = CARTESIAN_POINT('', (-1.05733064677661E-30, -5.75583995599256E-15, -94.));
#253 = COMPOSITE_CURVE('cutting part line', (#254, #255, #256, #257), .U.);
#254 = COMPOSITE_CURVE_SEGMENT(.CONTINUOUS., .T., #224);
#255 = COMPOSITE_CURVE_SEGMENT(.CONTINUOUS., .T., #231);
#256 = COMPOSITE_CURVE_SEGMENT(.CONTINUOUS., .T., #238);
#257 = COMPOSITE_CURVE_SEGMENT(.CONTINUOUS., .T., #246);
#258 = GEOMETRIC_SET('', (#253, #296));
#259 = PRESENTATION_STYLE_ASSIGNMENT((#260));
#260 = CURVE_STYLE('', #262, POSITIVE_LENGTH_MEASURE(1.E-6), #261);
#261 = COLOUR_RGB('', 0., 0., 1.);
#262 = DRAUGHTING_PRE_DEFINED_CURVE_FONT('continuous');
#263 = STYLED_ITEM('', (#259), #253);
#264 = PRESENTATION_STYLE_ASSIGNMENT((#265));
#265 = CURVE_STYLE('', #267, POSITIVE_LENGTH_MEASURE(1.E-6), #266);
#266 = COLOUR_RGB('', 0., 0., 1.);
#267 = DRAUGHTING_PRE_DEFINED_CURVE_FONT('continuous');
#268 = OVER_RIDING_STYLED_ITEM('', (#264), #224, #263);
#269 = PRESENTATION_STYLE_ASSIGNMENT((#270));
#270 = CURVE_STYLE('', #272, POSITIVE_LENGTH_MEASURE(1.E-6), #271);
#271 = COLOUR_RGB('', 0., 0., 1.);
#272 = DRAUGHTING_PRE_DEFINED_CURVE_FONT('continuous');
#273 = OVER_RIDING_STYLED_ITEM('', (#269), #231, #263);
#274 = PRESENTATION_STYLE_ASSIGNMENT((#275));
#275 = CURVE_STYLE('', #277, POSITIVE_LENGTH_MEASURE(1.E-6), #276);
#276 = COLOUR_RGB('', 0., 0., 1.);
#277 = DRAUGHTING_PRE_DEFINED_CURVE_FONT('continuous');
#278 = OVER_RIDING_STYLED_ITEM('', (#274), #238, #263);
#279 = PRESENTATION_STYLE_ASSIGNMENT((#280));
#280 = CURVE_STYLE('', #282, POSITIVE_LENGTH_MEASURE(1.E-6), #281);
#281 = COLOUR_RGB('', 0., 0., 1.);
#282 = DRAUGHTING_PRE_DEFINED_CURVE_FONT('continuous');
#283 = OVER_RIDING_STYLED_ITEM('', (#279), #246, #263);
#284 = AXIS2_PLACEMENT_3D('CIP', #285, #286, #287);
#285 = CARTESIAN_POINT('', (3.74939945665464E-31, 6.12323399573677E-15, -100.));
#286 = DIRECTION('', (-3.74939945665465E-33, -6.12323399573677E-17, 1.));
#287 = DIRECTION('', (1., -6.12323399573677E-17, 0.));
#288 = AXIS2_PLACEMENT_3D('MCS', #289, #290, #291);
#289 = CARTESIAN_POINT('', (1.46226578809531E-31, 2.38806125833734E-15, -39.));
#290 = DIRECTION('', (-3.74939945665465E-33, -6.12323399573677E-17, 1.));
#291 = DIRECTION('', (1., -6.12323399573677E-17, 0.));
#292 = AXIS2_PLACEMENT_3D('PCS', #293, #294, #295);
#293 = CARTESIAN_POINT('', (0., 0., 0.));
#294 = DIRECTION('', (0., 0., 1.));
#295 = DIRECTION('', (1., 0., 0.));
#296 = CARTESIAN_POINT('CRP', (2., 0., -100.));
#297 = (
   GEOMETRIC_REPRESENTATION_CONTEXT (3)
   GLOBAL_UNCERTAINTY_ASSIGNED_CONTEXT ((#299))
   GLOBAL_UNIT_ASSIGNED_CONTEXT ((#298, #300, #301))
   REPRESENTATION_CONTEXT ('', '3D')
);
#298 = (
   LENGTH_UNIT ()
   NAMED_UNIT (*)
   SI_UNIT (.MILLI., .METRE.)
);
#299 = UNCERTAINTY_MEASURE_WITH_UNIT(LENGTH_MEASURE(1.E-6), #298, 'DISTANCE_ACCURACY_VALUE', '');
#300 = (
   NAMED_UNIT (*)
   SI_UNIT ($, .STERADIAN.)
   SOLID_ANGLE_UNIT ()
);
#301 = (
   NAMED_UNIT (*)
   PLANE_ANGLE_UNIT ()
   SI_UNIT ($, .RADIAN.)
);
#302 = SHAPE_REPRESENTATION('', (), #297);
#303 = PRODUCT_DEFINITION_SHAPE('', '', #304);
#304 = PRODUCT_DEFINITION('', '', #307, #311);
#305 = APPLICATION_CONTEXT('configuration controlled 3D designs of mechanical parts and assemblies');
#306 = APPLICATION_PROTOCOL_DEFINITION('International Standard', 'automotive_design', 2002, #305);
#307 = PRODUCT_DEFINITION_FORMATION_WITH_SPECIFIED_SOURCE('', '', #308, .NOT_KNOWN.);
#308 = PRODUCT('NONE', 'R216.42-04030-AQ06G P10', '', (#309));
#309 = PRODUCT_CONTEXT('', #305, 'mechanical');
#310 = PRODUCT_RELATED_PRODUCT_CATEGORY('detail', '', (#308));
#311 = PRODUCT_DEFINITION_CONTEXT('part definition', #305, 'design');
#312 = SHAPE_DEFINITION_REPRESENTATION(#303, #302);
#313 = CONSTRUCTIVE_GEOMETRY_REPRESENTATION('supplemental geometry', (#284, #288, #292), #297);
#314 = CONSTRUCTIVE_GEOMETRY_REPRESENTATION_RELATIONSHIP('', '', #302, #313);
#315 = SHAPE_REPRESENTATION_RELATIONSHIP('', '', #302, #316);
#316 = SHAPE_REPRESENTATION('', (#258), #297);
#317 = SHAPE_REPRESENTATION_RELATIONSHIP('', '', #302, #318);
#318 = ADVANCED_BREP_SHAPE_REPRESENTATION('', (#1, #116), #297);
ENDSEC;
END-ISO-10303-21;
