ISO-10303-21;
HEADER;
FILE_DESCRIPTION(('STEP'), '1');
FILE_NAME('C:\\Users\\ds2002\\OneDrive - Sandvik\\HomeShare\\Documents\\Batchrepair\\CorSRT2\\NEW_MILBN_SLD\\Output2\\MOD000000000000000020084643300000.stp', '2018-11-23T12:38:58', (''), (''), 'Express v3.0.0.0', 'Express Tool', 'Unknown');
FILE_SCHEMA(('AUTOMOTIVE_DESIGN'));
ENDSEC;

DATA;
#1 = MANIFOLD_SOLID_BREP('NOCUT', #2);
#2 = CLOSED_SHELL('', (#3, #50, #89, #128, #175, #184, #215));
#3 = ADVANCED_FACE('', (#4), #31, .T.);
#4 = FACE_OUTER_BOUND('', #5, .T.);
#5 = EDGE_LOOP('', (#6, #16, #23, #24));
#6 = ORIENTED_EDGE('', *, *, #7, .F.);
#7 = EDGE_CURVE('', #8, #10, #12, .T.);
#8 = VERTEX_POINT('', #9);
#9 = CARTESIAN_POINT('', (-1.2, 3.29307524290723E-15, -52.58));
#10 = VERTEX_POINT('', #11);
#11 = CARTESIAN_POINT('', (-1.25, 3.3218544426872E-15, -53.));
#12 = LINE('', #13, #14);
#13 = CARTESIAN_POINT('', (-1.2, 3.29307524290723E-15, -52.58));
#14 = VECTOR('', #15, 0.422965719651134);
#15 = DIRECTION('', (-0.05, 2.87791997799699E-17, -0.420000000000002));
#16 = ORIENTED_EDGE('', *, *, #17, .T.);
#17 = EDGE_CURVE('', #8, #8, #18, .T.);
#18 = CIRCLE('', #19, 1.20000000000002);
#19 = AXIS2_PLACEMENT_3D('', #20, #21, #22);
#20 = CARTESIAN_POINT('', (-1.11022302462516E-16, 3.19189119579733E-15, -52.58));
#21 = DIRECTION('', (1.69930102910393E-30, 2.01529914365827E-14, -1.));
#22 = DIRECTION('', (-1., 8.43200392582547E-17, 0.));
#23 = ORIENTED_EDGE('', *, *, #7, .T.);
#24 = ORIENTED_EDGE('', *, *, #25, .F.);
#25 = EDGE_CURVE('', #10, #10, #26, .T.);
#26 = CIRCLE('', #27, 1.25);
#27 = AXIS2_PLACEMENT_3D('', #28, #29, #30);
#28 = CARTESIAN_POINT('', (-1.45716771982052E-16, 2.4980018054066E-15, -53.));
#29 = DIRECTION('', (0., 0., -1.));
#30 = DIRECTION('', (-1., 6.59082109824478E-16, 0.));
#31 = (
   BOUNDED_SURFACE ()
   B_SPLINE_SURFACE (2, 1, ((#32, #33), (#34, #35), (#36, #37), (#38, #39), (#40, #41), (#42, #43), (#44, #45), (#46, #47), (#48, #49)), .UNSPECIFIED., .T., .F., .U.)
   B_SPLINE_SURFACE_WITH_KNOTS ((3, 2, 2, 2, 3), (2, 2), (0., 0.25, 0.5, 0.75, 1.), (0., 1.), .UNSPECIFIED.)
   GEOMETRIC_REPRESENTATION_ITEM ()
   RATIONAL_B_SPLINE_SURFACE (((1., 1.), (0.707106781186548, 0.707106781186548), (1., 1.), (0.707106781186548, 0.707106781186548), (1., 1.), (0.707106781186548, 0.707106781186548), (1., 1.), (0.707106781186548, 0.707106781186548), (1., 1.)))
   REPRESENTATION_ITEM ('')
   SURFACE ()
);
#32 = CARTESIAN_POINT('', (-1.2, 3.29307524290723E-15, -52.58));
#33 = CARTESIAN_POINT('', (-1.25, 3.41872188818852E-15, -53.));
#34 = CARTESIAN_POINT('', (-1.2, 1.2, -52.58));
#35 = CARTESIAN_POINT('', (-1.25, 1.25, -53.));
#36 = CARTESIAN_POINT('', (2.15100677375668E-15, 1.2, -52.58));
#37 = CARTESIAN_POINT('', (2.24583622642447E-15, 1.25, -53.));
#38 = CARTESIAN_POINT('', (1.2, 1.2, -52.58));
#39 = CARTESIAN_POINT('', (1.25, 1.25, -53.));
#40 = CARTESIAN_POINT('', (1.2, -1.25873848514678E-15, -52.58));
#41 = CARTESIAN_POINT('', (1.25, -1.32275074520108E-15, -53.));
#42 = CARTESIAN_POINT('', (1.2, -1.2, -52.58));
#43 = CARTESIAN_POINT('', (1.25, -1.25, -53.));
#44 = CARTESIAN_POINT('', (-2.25384933839965E-15, -1.2, -52.58));
#45 = CARTESIAN_POINT('', (-2.34255555707171E-15, -1.25, -53.));
#46 = CARTESIAN_POINT('', (-1.2, -1.2, -52.58));
#47 = CARTESIAN_POINT('', (-1.25, -1.25, -53.));
#48 = CARTESIAN_POINT('', (-1.2, 3.29307524290723E-15, -52.58));
#49 = CARTESIAN_POINT('', (-1.25, 3.41872188818852E-15, -53.));
#50 = ADVANCED_FACE('', (#51), #70, .T.);
#51 = FACE_OUTER_BOUND('', #52, .T.);
#52 = EDGE_LOOP('', (#53, #61, #68, #69));
#53 = ORIENTED_EDGE('', *, *, #54, .F.);
#54 = EDGE_CURVE('', #55, #8, #57, .T.);
#55 = VERTEX_POINT('', #56);
#56 = CARTESIAN_POINT('', (-1.2, 2.21661070645671E-15, -35.));
#57 = LINE('', #58, #59);
#58 = CARTESIAN_POINT('', (-1.2, 2.21661070645671E-15, -35.));
#59 = VECTOR('', #60, 17.58);
#60 = DIRECTION('', (0., 1.07646453645052E-15, -17.58));
#61 = ORIENTED_EDGE('', *, *, #62, .T.);
#62 = EDGE_CURVE('', #55, #55, #63, .T.);
#63 = CIRCLE('', #64, 1.2);
#64 = AXIS2_PLACEMENT_3D('', #65, #66, #67);
#65 = CARTESIAN_POINT('', (1.35308431126191E-16, 1.99840144432528E-15, -35.));
#66 = DIRECTION('', (0., 0., -1.));
#67 = DIRECTION('', (-1., 1.81841051776191E-16, 0.));
#68 = ORIENTED_EDGE('', *, *, #54, .T.);
#69 = ORIENTED_EDGE('', *, *, #17, .F.);
#70 = (
   BOUNDED_SURFACE ()
   B_SPLINE_SURFACE (2, 1, ((#71, #72), (#73, #74), (#75, #76), (#77, #78), (#79, #80), (#81, #82), (#83, #84), (#85, #86), (#87, #88)), .UNSPECIFIED., .T., .F., .U.)
   B_SPLINE_SURFACE_WITH_KNOTS ((3, 2, 2, 2, 3), (2, 2), (0., 1.88495559215388, 3.76991118430775, 5.65486677646163, 7.5398223686155), (0., 1.), .UNSPECIFIED.)
   GEOMETRIC_REPRESENTATION_ITEM ()
   RATIONAL_B_SPLINE_SURFACE (((1., 1.), (0.707106781186548, 0.707106781186548), (1., 1.), (0.707106781186548, 0.707106781186548), (1., 1.), (0.707106781186548, 0.707106781186548), (1., 1.), (0.707106781186548, 0.707106781186548), (1., 1.)))
   REPRESENTATION_ITEM ('')
   SURFACE ()
);
#71 = CARTESIAN_POINT('', (-1.2, 2.21661070645671E-15, -35.));
#72 = CARTESIAN_POINT('', (-1.2, 2.57743318945988E-15, -52.58));
#73 = CARTESIAN_POINT('', (-1.2, 1.2, -35.));
#74 = CARTESIAN_POINT('', (-1.2, 1.2, -52.58));
#75 = CARTESIAN_POINT('', (2.12925411070005E-15, 1.2, -35.));
#76 = CARTESIAN_POINT('', (2.12925411070005E-15, 1.2, -52.58));
#77 = CARTESIAN_POINT('', (1.2, 1.2, -35.));
#78 = CARTESIAN_POINT('', (1.2, 1.2, -52.58));
#79 = CARTESIAN_POINT('', (1.2, -1.1814746708589E-15, -35.));
#80 = CARTESIAN_POINT('', (1.2, -8.20652187855726E-16, -52.58));
#81 = CARTESIAN_POINT('', (1.2, -1.2, -35.));
#82 = CARTESIAN_POINT('', (1.2, -1.2, -52.58));
#83 = CARTESIAN_POINT('', (-1.12187365071787E-15, -1.2, -35.));
#84 = CARTESIAN_POINT('', (-1.12187365071787E-15, -1.2, -52.58));
#85 = CARTESIAN_POINT('', (-1.2, -1.2, -35.));
#86 = CARTESIAN_POINT('', (-1.2, -1.2, -52.58));
#87 = CARTESIAN_POINT('', (-1.2, 2.21661070645671E-15, -35.));
#88 = CARTESIAN_POINT('', (-1.2, 2.57743318945988E-15, -52.58));
#89 = ADVANCED_FACE('', (#90), #109, .T.);
#90 = FACE_OUTER_BOUND('', #91, .T.);
#91 = EDGE_LOOP('', (#92, #100, #107, #108));
#92 = ORIENTED_EDGE('', *, *, #93, .F.);
#93 = EDGE_CURVE('', #94, #55, #96, .T.);
#94 = VERTEX_POINT('', #95);
#95 = CARTESIAN_POINT('', (-3., 1.82288676053084E-15, -26.77));
#96 = LINE('', #97, #98);
#97 = CARTESIAN_POINT('', (-3., 1.82288676053084E-15, -26.77));
#98 = VECTOR('', #99, 8.42454153055227);
#99 = DIRECTION('', (1.8, 3.9372394592587E-16, -8.23));
#100 = ORIENTED_EDGE('', *, *, #101, .T.);
#101 = EDGE_CURVE('', #94, #94, #102, .T.);
#102 = CIRCLE('', #103, 3.);
#103 = AXIS2_PLACEMENT_3D('', #104, #105, #106);
#104 = CARTESIAN_POINT('', (7.63278329429795E-16, 1.49880108324396E-15, -26.77));
#105 = DIRECTION('', (1.1842378929335E-15, -3.85270076266766E-15, -1.));
#106 = DIRECTION('', (-1., 1.08028559095626E-16, -1.1842378929335E-15));
#107 = ORIENTED_EDGE('', *, *, #93, .T.);
#108 = ORIENTED_EDGE('', *, *, #62, .F.);
#109 = (
   BOUNDED_SURFACE ()
   B_SPLINE_SURFACE (2, 1, ((#110, #111), (#112, #113), (#114, #115), (#116, #117), (#118, #119), (#120, #121), (#122, #123), (#124, #125), (#126, #127)), .UNSPECIFIED., .T., .F., .U.)
   B_SPLINE_SURFACE_WITH_KNOTS ((3, 2, 2, 2, 3), (2, 2), (0., 0.25, 0.5, 0.75, 1.), (0., 1.), .UNSPECIFIED.)
   GEOMETRIC_REPRESENTATION_ITEM ()
   RATIONAL_B_SPLINE_SURFACE (((1., 1.), (0.707106781186548, 0.707106781186548), (1., 1.), (0.707106781186548, 0.707106781186548), (1., 1.), (0.707106781186548, 0.707106781186548), (1., 1.), (0.707106781186548, 0.707106781186548), (1., 1.)))
   REPRESENTATION_ITEM ('')
   SURFACE ()
);
#110 = CARTESIAN_POINT('', (-3., 1.82288676053084E-15, -26.77));
#111 = CARTESIAN_POINT('', (-1.19999999999999, 1.07332384184613E-15, -35.));
#112 = CARTESIAN_POINT('', (-3., 3., -26.77));
#113 = CARTESIAN_POINT('', (-1.19999999999999, 1.2, -35.));
#114 = CARTESIAN_POINT('', (8.62033623421128E-16, 3., -26.77));
#115 = CARTESIAN_POINT('', (1.0524078287815E-14, 1.2, -35.));
#116 = CARTESIAN_POINT('', (3., 3., -26.77));
#117 = CARTESIAN_POINT('', (1.20000000000001, 1.2, -35.));
#118 = CARTESIAN_POINT('', (3., 1.54210944570129E-15, -26.77));
#119 = CARTESIAN_POINT('', (1.20000000000001, 9.61012915914313E-16, -35.));
#120 = CARTESIAN_POINT('', (3., -3., -26.77));
#121 = CARTESIAN_POINT('', (1.20000000000001, -1.2, -35.));
#122 = CARTESIAN_POINT('', (9.48650348335782E-16, -3., -26.77));
#123 = CARTESIAN_POINT('', (1.05587249777808E-14, -1.2, -35.));
#124 = CARTESIAN_POINT('', (-3., -3., -26.77));
#125 = CARTESIAN_POINT('', (-1.19999999999999, -1.2, -35.));
#126 = CARTESIAN_POINT('', (-3., 1.82288676053084E-15, -26.77));
#127 = CARTESIAN_POINT('', (-1.19999999999999, 1.07332384184613E-15, -35.));
#128 = ADVANCED_FACE('', (#129), #156, .T.);
#129 = FACE_OUTER_BOUND('', #130, .T.);
#130 = EDGE_LOOP('', (#131, #141, #148, #149));
#131 = ORIENTED_EDGE('', *, *, #132, .T.);
#132 = EDGE_CURVE('', #133, #135, #137, .T.);
#133 = VERTEX_POINT('', #134);
#134 = CARTESIAN_POINT('', (-3., 2.02066721859313E-16, -0.300000000000001));
#135 = VERTEX_POINT('', #136);
#136 = CARTESIAN_POINT('', (-2.7, 1.65327317884893E-16, 0.));
#137 = LINE('', #138, #139);
#138 = CARTESIAN_POINT('', (-3., 2.02066721859313E-16, -0.300000000000001));
#139 = VECTOR('', #140, 0.424264068711929);
#140 = DIRECTION('', (0.3, -3.673940397442E-17, 0.300000000000001));
#141 = ORIENTED_EDGE('', *, *, #142, .T.);
#142 = EDGE_CURVE('', #135, #135, #143, .T.);
#143 = CIRCLE('', #144, 2.7);
#144 = AXIS2_PLACEMENT_3D('', #145, #146, #147);
#145 = CARTESIAN_POINT('', (1.80411241501588E-16, 3.33066907387547E-16, 2.46519032881566E-32));
#146 = DIRECTION('', (5.32622804422992E-33, 6.12323399573677E-17, -1.));
#147 = DIRECTION('', (-1., -6.21257738898718E-17, -9.13033455116911E-33));
#148 = ORIENTED_EDGE('', *, *, #132, .F.);
#149 = ORIENTED_EDGE('', *, *, #150, .F.);
#150 = EDGE_CURVE('', #133, #133, #151, .T.);
#151 = CIRCLE('', #152, 3.);
#152 = AXIS2_PLACEMENT_3D('', #153, #154, #155);
#153 = CARTESIAN_POINT('', (2.91433543964104E-16, 0., -0.300000000000001));
#154 = DIRECTION('', (1.85037170770859E-17, -6.01984494166822E-17, -1.));
#155 = DIRECTION('', (-1., 6.73555739531044E-17, -1.85037170770859E-17));
#156 = (
   BOUNDED_SURFACE ()
   B_SPLINE_SURFACE (1, 2, ((#157, #158, #159, #160, #161, #162, #163, #164, #165), (#166, #167, #168, #169, #170, #171, #172, #173, #174)), .UNSPECIFIED., .F., .T., .U.)
   B_SPLINE_SURFACE_WITH_KNOTS ((2, 2), (3, 2, 2, 2, 3), (0., 1.), (0., 0.25, 0.5, 0.75, 1.), .UNSPECIFIED.)
   GEOMETRIC_REPRESENTATION_ITEM ()
   RATIONAL_B_SPLINE_SURFACE (((1., 0.707106781186548, 1., 0.707106781186548, 1., 0.707106781186548, 1., 0.707106781186548, 1.), (1., 0.707106781186548, 1., 0.707106781186548, 1., 0.707106781186548, 1., 0.707106781186548, 1.)))
   REPRESENTATION_ITEM ('')
   SURFACE ()
);
#157 = CARTESIAN_POINT('', (-3., 1.49129302665284E-15, -0.3));
#158 = CARTESIAN_POINT('', (-3., 3., -0.299999999999988));
#159 = CARTESIAN_POINT('', (2.34149119846292E-15, 3., -0.299999999999988));
#160 = CARTESIAN_POINT('', (3., 3., -0.299999999999988));
#161 = CARTESIAN_POINT('', (3., -1.34594359183367E-15, -0.3));
#162 = CARTESIAN_POINT('', (3., -3., -0.300000000000012));
#163 = CARTESIAN_POINT('', (-1.28351380279387E-16, -3., -0.300000000000012));
#164 = CARTESIAN_POINT('', (-3., -3., -0.300000000000012));
#165 = CARTESIAN_POINT('', (-3., 1.49129302665284E-15, -0.3));
#166 = CARTESIAN_POINT('', (-2.7, 1.65327317884893E-16, -2.18952885050753E-47));
#167 = CARTESIAN_POINT('', (-2.7, 2.7, 1.04916075827077E-14));
#168 = CARTESIAN_POINT('', (2.19962936753859E-15, 2.7, 1.04916075827077E-14));
#169 = CARTESIAN_POINT('', (2.7, 2.7, 1.04916075827077E-14));
#170 = CARTESIAN_POINT('', (2.7, -2.38818563875297E-15, 1.12461399303429E-30));
#171 = CARTESIAN_POINT('', (2.7, -2.7, -1.04916075827077E-14));
#172 = CARTESIAN_POINT('', (-2.32289533294833E-17, -2.7, -1.04916075827077E-14));
#173 = CARTESIAN_POINT('', (-2.7, -2.7, -1.04916075827077E-14));
#174 = CARTESIAN_POINT('', (-2.7, 1.65327317884893E-16, -2.18952885050753E-47));
#175 = ADVANCED_FACE('', (#176), #179, .T.);
#176 = FACE_OUTER_BOUND('', #177, .T.);
#177 = EDGE_LOOP('', (#178));
#178 = ORIENTED_EDGE('', *, *, #142, .F.);
#179 = B_SPLINE_SURFACE_WITH_KNOTS('', 1, 1, ((#180, #181), (#182, #183)), .UNSPECIFIED., .F., .F., .U., (2, 2), (2, 2), (0.178587826733388, 0.821412173266612), (0.178587826733388, 0.821412173266612), .UNSPECIFIED.);
#180 = CARTESIAN_POINT('', (2.7, -2.7, -7.27075467548589E-15));
#181 = CARTESIAN_POINT('', (-2.7, -2.7, -1.65327317884892E-16));
#182 = CARTESIAN_POINT('', (2.7, 2.7, 1.65327317884893E-16));
#183 = CARTESIAN_POINT('', (-2.7, 2.7, 7.27075467548589E-15));
#184 = ADVANCED_FACE('', (#185), #196, .T.);
#185 = FACE_OUTER_BOUND('', #186, .T.);
#186 = EDGE_LOOP('', (#187, #193, #194, #195));
#187 = ORIENTED_EDGE('', *, *, #188, .T.);
#188 = EDGE_CURVE('', #94, #133, #189, .T.);
#189 = LINE('', #190, #191);
#190 = CARTESIAN_POINT('', (-3., 1.82288676053084E-15, -26.77));
#191 = VECTOR('', #192, 26.47);
#192 = DIRECTION('', (0., -1.62082003867153E-15, 26.47));
#193 = ORIENTED_EDGE('', *, *, #150, .T.);
#194 = ORIENTED_EDGE('', *, *, #188, .F.);
#195 = ORIENTED_EDGE('', *, *, #101, .F.);
#196 = (
   BOUNDED_SURFACE ()
   B_SPLINE_SURFACE (1, 2, ((#197, #198, #199, #200, #201, #202, #203, #204, #205), (#206, #207, #208, #209, #210, #211, #212, #213, #214)), .UNSPECIFIED., .F., .T., .U.)
   B_SPLINE_SURFACE_WITH_KNOTS ((2, 2), (3, 2, 2, 2, 3), (0., 1.), (0., 4.7123889803847, 9.4247779607694, 14.1371669411541, 18.8495559215388), .UNSPECIFIED.)
   GEOMETRIC_REPRESENTATION_ITEM ()
   RATIONAL_B_SPLINE_SURFACE (((1., 0.707106781186548, 1., 0.707106781186548, 1., 0.707106781186548, 1., 0.707106781186548, 1.), (1., 0.707106781186548, 1., 0.707106781186548, 1., 0.707106781186548, 1., 0.707106781186548, 1.)))
   REPRESENTATION_ITEM ('')
   SURFACE ()
);
#197 = CARTESIAN_POINT('', (-2.99999999999999, 1.9229124100283E-15, -26.77));
#198 = CARTESIAN_POINT('', (-2.99999999999999, 3., -26.77));
#199 = CARTESIAN_POINT('', (1.07000104590766E-14, 3., -26.77));
#200 = CARTESIAN_POINT('', (3.00000000000001, 3., -26.77));
#201 = CARTESIAN_POINT('', (3.00000000000001, -1.99960758013417E-15, -26.77));
#202 = CARTESIAN_POINT('', (3.00000000000001, -3., -26.77));
#203 = CARTESIAN_POINT('', (7.14488450865835E-15, -3., -26.77));
#204 = CARTESIAN_POINT('', (-2.99999999999999, -3., -26.77));
#205 = CARTESIAN_POINT('', (-2.99999999999999, 1.9229124100283E-15, -26.77));
#206 = CARTESIAN_POINT('', (-3., 2.02066721859313E-16, -0.300000000000001));
#207 = CARTESIAN_POINT('', (-3., 3., -0.300000000000001));
#208 = CARTESIAN_POINT('', (2.86331620258917E-15, 3., -0.3));
#209 = CARTESIAN_POINT('', (3., 3., -0.299999999999999));
#210 = CARTESIAN_POINT('', (3., -3.72045326830315E-15, -0.299999999999999));
#211 = CARTESIAN_POINT('', (3., -3., -0.299999999999999));
#212 = CARTESIAN_POINT('', (-6.91809747829088E-16, -3., -0.3));
#213 = CARTESIAN_POINT('', (-3., -3., -0.300000000000001));
#214 = CARTESIAN_POINT('', (-3., 2.02066721859313E-16, -0.300000000000001));
#215 = ADVANCED_FACE('', (#216), #219, .T.);
#216 = FACE_OUTER_BOUND('', #217, .T.);
#217 = EDGE_LOOP('', (#218));
#218 = ORIENTED_EDGE('', *, *, #25, .T.);
#219 = B_SPLINE_SURFACE_WITH_KNOTS('', 1, 1, ((#220, #221), (#222, #223)), .UNSPECIFIED., .F., .F., .U., (2, 2), (2, 2), (57.1825200785252, 59.6825200785252), (51.6188802001782, 54.1188802001782), .UNSPECIFIED.);
#220 = CARTESIAN_POINT('', (-1.25000000000001, 1.25000000000002, -53.));
#221 = CARTESIAN_POINT('', (-1.25000000000001, -1.24999999999998, -53.));
#222 = CARTESIAN_POINT('', (1.24999999999999, 1.25000000000002, -53.));
#223 = CARTESIAN_POINT('', (1.24999999999999, -1.24999999999998, -53.));
#224 = DRAUGHTING_MODEL('', (#232, #340, #380, #385, #390, #395, #400), #414);
#225 = PRESENTATION_STYLE_ASSIGNMENT((#226));
#226 = SURFACE_STYLE_USAGE(.POSITIVE., #227);
#227 = SURFACE_SIDE_STYLE('', (#228));
#228 = SURFACE_STYLE_FILL_AREA(#229);
#229 = FILL_AREA_STYLE('', (#230));
#230 = FILL_AREA_STYLE_COLOUR('', #231);
#231 = COLOUR_RGB('', 0.50196078431373, 0.50196078431373, 0.50196078431373);
#232 = STYLED_ITEM('', (#225), #1);
#233 = MANIFOLD_SOLID_BREP('CUT', #234);
#234 = CLOSED_SHELL('', (#235, #252, #291));
#235 = ADVANCED_FACE('', (#236), #247, .T.);
#236 = FACE_OUTER_BOUND('', #237, .T.);
#237 = EDGE_LOOP('', (#238));
#238 = ORIENTED_EDGE('', *, *, #239, .F.);
#239 = EDGE_CURVE('', #240, #240, #242, .T.);
#240 = VERTEX_POINT('', #241);
#241 = CARTESIAN_POINT('', (-1.25, 3.3218544426872E-15, -53.));
#242 = CIRCLE('', #243, 1.25);
#243 = AXIS2_PLACEMENT_3D('', #244, #245, #246);
#244 = CARTESIAN_POINT('', (-1.45716771982052E-16, 2.4980018054066E-15, -53.));
#245 = DIRECTION('', (0., 0., -1.));
#246 = DIRECTION('', (-1., 6.59082109824478E-16, 0.));
#247 = B_SPLINE_SURFACE_WITH_KNOTS('', 1, 1, ((#248, #249), (#250, #251)), .UNSPECIFIED., .F., .F., .U., (2, 2), (2, 2), (51.6188802001782, 54.1188802001782), (57.1825200785252, 59.6825200785252), .UNSPECIFIED.);
#248 = CARTESIAN_POINT('', (-1.25, 1.25, -53.));
#249 = CARTESIAN_POINT('', (1.25, 1.25, -53.));
#250 = CARTESIAN_POINT('', (-1.25, -1.25, -53.));
#251 = CARTESIAN_POINT('', (1.25, -1.25, -53.));
#252 = ADVANCED_FACE('', (#253), #272, .T.);
#253 = FACE_OUTER_BOUND('', #254, .T.);
#254 = EDGE_LOOP('', (#255, #263, #264, #265));
#255 = ORIENTED_EDGE('', *, *, #256, .F.);
#256 = EDGE_CURVE('', #240, #257, #259, .T.);
#257 = VERTEX_POINT('', #258);
#258 = CARTESIAN_POINT('', (-1.25, 3.36777869765522E-15, -53.75));
#259 = LINE('', #260, #261);
#260 = CARTESIAN_POINT('', (-1.25, 3.3218544426872E-15, -53.));
#261 = VECTOR('', #262, 0.75);
#262 = DIRECTION('', (0., 4.59242549680202E-17, -0.75));
#263 = ORIENTED_EDGE('', *, *, #239, .T.);
#264 = ORIENTED_EDGE('', *, *, #256, .T.);
#265 = ORIENTED_EDGE('', *, *, #266, .F.);
#266 = EDGE_CURVE('', #257, #257, #267, .T.);
#267 = CIRCLE('', #268, 1.25);
#268 = AXIS2_PLACEMENT_3D('', #269, #270, #271);
#269 = CARTESIAN_POINT('', (-1.45716771982052E-16, 2.52575738102223E-15, -53.75));
#270 = DIRECTION('', (1.30323827585471E-29, 1.93468717791196E-14, -1.));
#271 = DIRECTION('', (-1., 6.73617053306391E-16, 0.));
#272 = (
   BOUNDED_SURFACE ()
   B_SPLINE_SURFACE (2, 1, ((#273, #274), (#275, #276), (#277, #278), (#279, #280), (#281, #282), (#283, #284), (#285, #286), (#287, #288), (#289, #290)), .UNSPECIFIED., .T., .F., .U.)
   B_SPLINE_SURFACE_WITH_KNOTS ((3, 2, 2, 2, 3), (2, 2), (0., 1.96349540849362, 3.92699081698724, 5.89048622548086, 7.85398163397448), (0., 1.), .UNSPECIFIED.)
   GEOMETRIC_REPRESENTATION_ITEM ()
   RATIONAL_B_SPLINE_SURFACE (((1., 1.), (0.707106781186548, 0.707106781186548), (1., 1.), (0.707106781186548, 0.707106781186548), (1., 1.), (0.707106781186548, 0.707106781186548), (1., 1.), (0.707106781186548, 0.707106781186548), (1., 1.)))
   REPRESENTATION_ITEM ('')
   SURFACE ()
);
#273 = CARTESIAN_POINT('', (-1.25, 3.3218544426872E-15, -53.));
#274 = CARTESIAN_POINT('', (-1.25, 3.34961001830283E-15, -53.75));
#275 = CARTESIAN_POINT('', (-1.25, 1.25, -53.));
#276 = CARTESIAN_POINT('', (-1.25, 1.25, -53.75));
#277 = CARTESIAN_POINT('', (1.98937422113328E-15, 1.25, -53.));
#278 = CARTESIAN_POINT('', (1.98937422113328E-15, 1.25, -53.75));
#279 = CARTESIAN_POINT('', (1.25, 1.25, -53.));
#280 = CARTESIAN_POINT('', (1.25, 1.25, -53.75));
#281 = CARTESIAN_POINT('', (1.25, -7.81794089849694E-16, -53.));
#282 = CARTESIAN_POINT('', (1.25, -7.54038514234065E-16, -53.75));
#283 = CARTESIAN_POINT('', (1.25, -1.25, -53.));
#284 = CARTESIAN_POINT('', (1.25, -1.25, -53.75));
#285 = CARTESIAN_POINT('', (-1.96119346151019E-15, -1.25, -53.));
#286 = CARTESIAN_POINT('', (-1.96119346151019E-15, -1.25, -53.75));
#287 = CARTESIAN_POINT('', (-1.25, -1.25, -53.));
#288 = CARTESIAN_POINT('', (-1.25, -1.25, -53.75));
#289 = CARTESIAN_POINT('', (-1.25, 3.3218544426872E-15, -53.));
#290 = CARTESIAN_POINT('', (-1.25, 3.34961001830283E-15, -53.75));
#291 = ADVANCED_FACE('', (#292), #305, .T.);
#292 = FACE_OUTER_BOUND('', #293, .T.);
#293 = EDGE_LOOP('', (#294, #303, #304));
#294 = ORIENTED_EDGE('', *, *, #295, .F.);
#295 = EDGE_CURVE('', #257, #296, #298, .T.);
#296 = VERTEX_POINT('', #297);
#297 = CARTESIAN_POINT('', (4.5166587976516E-16, 3.36777869765522E-15, -55.));
#298 = CIRCLE('', #299, 1.24999999999999);
#299 = AXIS2_PLACEMENT_3D('', #300, #301, #302);
#300 = CARTESIAN_POINT('', (-1.26565424807268E-14, 3.29123827270851E-15, -53.75));
#301 = DIRECTION('', (-6.1232339957367E-17, -1., -6.1232339957367E-17));
#302 = DIRECTION('', (-1., 6.12323399573666E-17, 5.68434188608086E-15));
#303 = ORIENTED_EDGE('', *, *, #266, .T.);
#304 = ORIENTED_EDGE('', *, *, #295, .T.);
#305 = (
   BOUNDED_SURFACE ()
   B_SPLINE_SURFACE (2, 2, ((#306, #307, #308), (#309, #310, #311), (#312, #313, #314), (#315, #316, #317), (#318, #319, #320), (#321, #322, #323), (#324, #325, #326), (#327, #328, #329), (#330, #331, #332)), .UNSPECIFIED., .T., .F., .U.)
   B_SPLINE_SURFACE_WITH_KNOTS ((3, 2, 2, 2, 3), (3, 3), (0., 0.25, 0.5, 0.75, 1.), (0., 1.), .UNSPECIFIED.)
   GEOMETRIC_REPRESENTATION_ITEM ()
   RATIONAL_B_SPLINE_SURFACE (((1., 0.707106781186548, 1.), (0.707106781186548, 0.5, 0.707106781186548), (1., 0.707106781186548, 1.), (0.707106781186548, 0.5, 0.707106781186548), (1., 0.707106781186548, 1.), (0.707106781186548, 0.5, 0.707106781186548), (1., 0.707106781186548, 1.), (0.707106781186548, 0.5, 0.707106781186548), (1., 0.707106781186548, 1.)))
   REPRESENTATION_ITEM ('')
   SURFACE ()
);
#306 = CARTESIAN_POINT('', (-1.25, 3.36777869765522E-15, -53.75));
#307 = CARTESIAN_POINT('', (-1.25, 3.44431912260193E-15, -55.));
#308 = CARTESIAN_POINT('', (4.5166587976516E-16, 3.36777869765522E-15, -55.));
#309 = CARTESIAN_POINT('', (-1.25, 1.24999999999999, -53.75));
#310 = CARTESIAN_POINT('', (-1.25, 1.24999999999999, -55.));
#311 = CARTESIAN_POINT('', (4.5166587976516E-16, 3.36777869765522E-15, -55.));
#312 = CARTESIAN_POINT('', (-1.26565424807268E-14, 1.24999999999999, -53.75));
#313 = CARTESIAN_POINT('', (-1.25800020557801E-14, 1.24999999999999, -55.));
#314 = CARTESIAN_POINT('', (4.5166587976516E-16, 3.36777869765522E-15, -55.));
#315 = CARTESIAN_POINT('', (1.24999999999997, 1.24999999999999, -53.75));
#316 = CARTESIAN_POINT('', (1.24999999999997, 1.24999999999999, -55.));
#317 = CARTESIAN_POINT('', (4.5166587976516E-16, 3.36777869765522E-15, -55.));
#318 = CARTESIAN_POINT('', (1.24999999999997, 3.36777869765522E-15, -53.75));
#319 = CARTESIAN_POINT('', (1.24999999999997, 3.29123827270851E-15, -55.));
#320 = CARTESIAN_POINT('', (4.5166587976516E-16, 3.36777869765522E-15, -55.));
#321 = CARTESIAN_POINT('', (1.24999999999997, -1.24999999999998, -53.75));
#322 = CARTESIAN_POINT('', (1.24999999999997, -1.24999999999998, -55.));
#323 = CARTESIAN_POINT('', (4.5166587976516E-16, 3.36777869765522E-15, -55.));
#324 = CARTESIAN_POINT('', (-1.25034616308334E-14, -1.24999999999998, -53.75));
#325 = CARTESIAN_POINT('', (-1.25800020557801E-14, -1.24999999999998, -55.));
#326 = CARTESIAN_POINT('', (4.5166587976516E-16, 3.36777869765522E-15, -55.));
#327 = CARTESIAN_POINT('', (-1.25, -1.24999999999998, -53.75));
#328 = CARTESIAN_POINT('', (-1.25, -1.24999999999998, -55.));
#329 = CARTESIAN_POINT('', (4.5166587976516E-16, 3.36777869765522E-15, -55.));
#330 = CARTESIAN_POINT('', (-1.25, 3.36777869765522E-15, -53.75));
#331 = CARTESIAN_POINT('', (-1.25, 3.44431912260193E-15, -55.));
#332 = CARTESIAN_POINT('', (4.5166587976516E-16, 3.36777869765522E-15, -55.));
#333 = PRESENTATION_STYLE_ASSIGNMENT((#334));
#334 = SURFACE_STYLE_USAGE(.POSITIVE., #335);
#335 = SURFACE_SIDE_STYLE('', (#336));
#336 = SURFACE_STYLE_FILL_AREA(#337);
#337 = FILL_AREA_STYLE('', (#338));
#338 = FILL_AREA_STYLE_COLOUR('', #339);
#339 = COLOUR_RGB('', 0.8, 0.8, 0.8);
#340 = STYLED_ITEM('', (#333), #233);
#341 = TRIMMED_CURVE('cutting part line', #342, (#346), (#347), .T., .CARTESIAN.);
#342 = LINE('', #343, #344);
#343 = CARTESIAN_POINT('', (-5.96154513608089E-31, -3.24531401774049E-15, -53.));
#344 = VECTOR('', #345, 1.25);
#345 = DIRECTION('', (1.25, -2.29621274840129E-16, 0.));
#346 = CARTESIAN_POINT('', (-5.96154513608089E-31, -3.24531401774049E-15, -53.));
#347 = CARTESIAN_POINT('', (1.25, -3.47493529258062E-15, -53.));
#348 = TRIMMED_CURVE('cutting part line', #349, (#353), (#354), .T., .CARTESIAN.);
#349 = LINE('', #350, #351);
#350 = CARTESIAN_POINT('', (1.25, -3.47493529258062E-15, -53.));
#351 = VECTOR('', #352, 0.75);
#352 = DIRECTION('', (0., -4.59242549680202E-17, -0.75));
#353 = CARTESIAN_POINT('', (1.25, -3.47493529258062E-15, -53.));
#354 = CARTESIAN_POINT('', (1.25, -3.52085954754864E-15, -53.75));
#355 = TRIMMED_CURVE('cutting part line', #356, (#361), (#362), .T., .CARTESIAN.);
#356 = CIRCLE('', #357, 1.25000000000002);
#357 = AXIS2_PLACEMENT_3D('', #358, #359, #360);
#358 = CARTESIAN_POINT('', (-1.68753899743024E-14, -3.2912382727085E-15, -53.75));
#359 = DIRECTION('', (1.83697019872104E-16, 1., -6.12323399573691E-17));
#360 = DIRECTION('', (1., -1.83697019872105E-16, -1.13686837721615E-14));
#361 = CARTESIAN_POINT('', (1.25, -3.52085954754864E-15, -53.75));
#362 = CARTESIAN_POINT('', (-7.56126843521757E-16, -3.36777869765522E-15, -55.));
#363 = TRIMMED_CURVE('cutting part line', #364, (#368), (#369), .T., .CARTESIAN.);
#364 = LINE('', #365, #366);
#365 = CARTESIAN_POINT('', (-6.18650910348016E-31, -3.36777869765522E-15, -55.));
#366 = VECTOR('', #367, 2.);
#367 = DIRECTION('', (2.24963967399269E-32, 1.2246467991473E-16, 2.));
#368 = CARTESIAN_POINT('', (-6.18650910348016E-31, -3.36777869765522E-15, -55.));
#369 = CARTESIAN_POINT('', (-5.96154513608089E-31, -3.24531401774049E-15, -53.));
#370 = COMPOSITE_CURVE('cutting part line', (#371, #372, #373, #374), .U.);
#371 = COMPOSITE_CURVE_SEGMENT(.CONTINUOUS., .T., #341);
#372 = COMPOSITE_CURVE_SEGMENT(.CONTINUOUS., .T., #348);
#373 = COMPOSITE_CURVE_SEGMENT(.CONTINUOUS., .T., #355);
#374 = COMPOSITE_CURVE_SEGMENT(.CONTINUOUS., .T., #363);
#375 = GEOMETRIC_SET('', (#370, #413));
#376 = PRESENTATION_STYLE_ASSIGNMENT((#377));
#377 = CURVE_STYLE('', #379, POSITIVE_LENGTH_MEASURE(1.E-6), #378);
#378 = COLOUR_RGB('', 0., 0., 1.);
#379 = DRAUGHTING_PRE_DEFINED_CURVE_FONT('continuous');
#380 = STYLED_ITEM('', (#376), #370);
#381 = PRESENTATION_STYLE_ASSIGNMENT((#382));
#382 = CURVE_STYLE('', #384, POSITIVE_LENGTH_MEASURE(1.E-6), #383);
#383 = COLOUR_RGB('', 0., 0., 1.);
#384 = DRAUGHTING_PRE_DEFINED_CURVE_FONT('continuous');
#385 = OVER_RIDING_STYLED_ITEM('', (#381), #341, #380);
#386 = PRESENTATION_STYLE_ASSIGNMENT((#387));
#387 = CURVE_STYLE('', #389, POSITIVE_LENGTH_MEASURE(1.E-6), #388);
#388 = COLOUR_RGB('', 0., 0., 1.);
#389 = DRAUGHTING_PRE_DEFINED_CURVE_FONT('continuous');
#390 = OVER_RIDING_STYLED_ITEM('', (#386), #348, #380);
#391 = PRESENTATION_STYLE_ASSIGNMENT((#392));
#392 = CURVE_STYLE('', #394, POSITIVE_LENGTH_MEASURE(1.E-6), #393);
#393 = COLOUR_RGB('', 0., 0., 1.);
#394 = DRAUGHTING_PRE_DEFINED_CURVE_FONT('continuous');
#395 = OVER_RIDING_STYLED_ITEM('', (#391), #355, #380);
#396 = PRESENTATION_STYLE_ASSIGNMENT((#397));
#397 = CURVE_STYLE('', #399, POSITIVE_LENGTH_MEASURE(1.E-6), #398);
#398 = COLOUR_RGB('', 0., 0., 1.);
#399 = DRAUGHTING_PRE_DEFINED_CURVE_FONT('continuous');
#400 = OVER_RIDING_STYLED_ITEM('', (#396), #363, #380);
#401 = AXIS2_PLACEMENT_3D('MCS', #402, #403, #404);
#402 = CARTESIAN_POINT('', (0., 0., -36.));
#403 = DIRECTION('', (0., 0., 1.));
#404 = DIRECTION('', (1., 0., 0.));
#405 = AXIS2_PLACEMENT_3D('PCS', #406, #407, #408);
#406 = CARTESIAN_POINT('', (0., 0., 0.));
#407 = DIRECTION('', (0., 0., 1.));
#408 = DIRECTION('', (1., 0., 0.));
#409 = AXIS2_PLACEMENT_3D('CIP', #410, #411, #412);
#410 = CARTESIAN_POINT('', (0., 0., -55.));
#411 = DIRECTION('', (0., 0., 1.));
#412 = DIRECTION('', (1., 0., 0.));
#413 = CARTESIAN_POINT('CRP', (1.25, 0., -55.));
#414 = (
   GEOMETRIC_REPRESENTATION_CONTEXT (3)
   GLOBAL_UNCERTAINTY_ASSIGNED_CONTEXT ((#416))
   GLOBAL_UNIT_ASSIGNED_CONTEXT ((#415, #417, #418))
   REPRESENTATION_CONTEXT ('', '3D')
);
#415 = (
   LENGTH_UNIT ()
   NAMED_UNIT (*)
   SI_UNIT (.MILLI., .METRE.)
);
#416 = UNCERTAINTY_MEASURE_WITH_UNIT(LENGTH_MEASURE(1.E-6), #415, 'DISTANCE_ACCURACY_VALUE', '');
#417 = (
   NAMED_UNIT (*)
   SI_UNIT ($, .STERADIAN.)
   SOLID_ANGLE_UNIT ()
);
#418 = (
   NAMED_UNIT (*)
   PLANE_ANGLE_UNIT ()
   SI_UNIT ($, .RADIAN.)
);
#419 = SHAPE_REPRESENTATION('', (), #414);
#420 = PRODUCT_DEFINITION_SHAPE('', '', #421);
#421 = PRODUCT_DEFINITION('', '', #424, #428);
#422 = APPLICATION_CONTEXT('configuration controlled 3D designs of mechanical parts and assemblies');
#423 = APPLICATION_PROTOCOL_DEFINITION('International Standard', 'automotive_design', 2002, #422);
#424 = PRODUCT_DEFINITION_FORMATION_WITH_SPECIFIED_SOURCE('', '', #425, .NOT_KNOWN.);
#425 = PRODUCT('R216.42-02530-IC25G 1700', 'R216.42-02530-IC25G 1700', '', (#426));
#426 = PRODUCT_CONTEXT('', #422, 'mechanical');
#427 = PRODUCT_RELATED_PRODUCT_CATEGORY('detail', '', (#425));
#428 = PRODUCT_DEFINITION_CONTEXT('part definition', #422, 'design');
#429 = SHAPE_DEFINITION_REPRESENTATION(#420, #419);
#430 = CONSTRUCTIVE_GEOMETRY_REPRESENTATION('supplemental geometry', (#401, #405, #409), #414);
#431 = CONSTRUCTIVE_GEOMETRY_REPRESENTATION_RELATIONSHIP('', '', #419, #430);
#432 = SHAPE_REPRESENTATION_RELATIONSHIP('', '', #419, #433);
#433 = SHAPE_REPRESENTATION('', (#375), #414);
#434 = SHAPE_REPRESENTATION_RELATIONSHIP('', '', #419, #435);
#435 = ADVANCED_BREP_SHAPE_REPRESENTATION('', (#1, #233), #414);
ENDSEC;
END-ISO-10303-21;
