ISO-10303-21;
HEADER;
FILE_DESCRIPTION(('STEP'), '1');
FILE_NAME('C:\\Users\\ds2002\\OneDrive - Sandvik\\HomeShare\\Documents\\Batchrepair\\CorSRT2\\NEW_MILBN_SLD\\Output2\\MOD000000000000000020084641900000.stp', '2018-11-23T12:38:45', (''), (''), 'Express v3.0.0.0', 'Express Tool', 'Unknown');
FILE_SCHEMA(('AUTOMOTIVE_DESIGN'));
ENDSEC;

DATA;
#1 = MANIFOLD_SOLID_BREP('NOCUT', #2);
#2 = CLOSED_SHELL('', (#3, #50, #89, #128, #175, #184, #215));
#3 = ADVANCED_FACE('', (#4), #31, .T.);
#4 = FACE_OUTER_BOUND('', #5, .T.);
#5 = EDGE_LOOP('', (#6, #16, #23, #24));
#6 = ORIENTED_EDGE('', *, *, #7, .F.);
#7 = EDGE_CURVE('', #8, #10, #12, .T.);
#8 = VERTEX_POINT('', #9);
#9 = CARTESIAN_POINT('', (-0.96, 2.684425783731E-15, -42.88));
#10 = VERTEX_POINT('', #11);
#11 = CARTESIAN_POINT('', (-1., 2.71259266011139E-15, -43.3));
#12 = LINE('', #13, #14);
#13 = CARTESIAN_POINT('', (-0.96, 2.684425783731E-15, -42.88));
#14 = VECTOR('', #15, 0.421900462194574);
#15 = DIRECTION('', (-0.04, 2.81668763803898E-17, -0.419999999999995));
#16 = ORIENTED_EDGE('', *, *, #17, .T.);
#17 = EDGE_CURVE('', #8, #8, #18, .T.);
#18 = CIRCLE('', #19, 0.959999999999999);
#19 = AXIS2_PLACEMENT_3D('', #20, #21, #22);
#20 = CARTESIAN_POINT('', (-1.59594559789866E-16, 2.96984659087229E-15, -42.88));
#21 = DIRECTION('', (0., 0., -1.));
#22 = DIRECTION('', (-1., -2.97313340772178E-16, 0.));
#23 = ORIENTED_EDGE('', *, *, #7, .T.);
#24 = ORIENTED_EDGE('', *, *, #25, .F.);
#25 = EDGE_CURVE('', #10, #10, #26, .T.);
#26 = CIRCLE('', #27, 1.);
#27 = AXIS2_PLACEMENT_3D('', #28, #29, #30);
#28 = CARTESIAN_POINT('', (-3.46944695195361E-17, 3.02535774210355E-15, -43.3));
#29 = DIRECTION('', (-7.56378242286029E-30, 2.41835897238997E-14, -1.));
#30 = DIRECTION('', (-1., -3.12765081992162E-16, 0.));
#31 = (
   BOUNDED_SURFACE ()
   B_SPLINE_SURFACE (2, 1, ((#32, #33), (#34, #35), (#36, #37), (#38, #39), (#40, #41), (#42, #43), (#44, #45), (#46, #47), (#48, #49)), .UNSPECIFIED., .T., .F., .U.)
   B_SPLINE_SURFACE_WITH_KNOTS ((3, 2, 2, 2, 3), (2, 2), (0., 0.25, 0.5, 0.75, 1.), (0., 1.), .UNSPECIFIED.)
   GEOMETRIC_REPRESENTATION_ITEM ()
   RATIONAL_B_SPLINE_SURFACE (((1., 1.), (0.707106781186548, 0.707106781186548), (1., 1.), (0.707106781186548, 0.707106781186548), (1., 1.), (0.707106781186548, 0.707106781186548), (1., 1.), (0.707106781186548, 0.707106781186548), (1., 1.)))
   REPRESENTATION_ITEM ('')
   SURFACE ()
);
#32 = CARTESIAN_POINT('', (-0.96, 2.684425783731E-15, -42.88));
#33 = CARTESIAN_POINT('', (-1., 3.30975500694226E-15, -43.3));
#34 = CARTESIAN_POINT('', (-0.96, 0.960000000000003, -42.88));
#35 = CARTESIAN_POINT('', (-1., 1., -43.3));
#36 = CARTESIAN_POINT('', (1.58865954532918E-16, 0.960000000000002, -42.88));
#37 = CARTESIAN_POINT('', (-2.93750124834825E-15, 1., -43.3));
#38 = CARTESIAN_POINT('', (0.96, 0.960000000000002, -42.88));
#39 = CARTESIAN_POINT('', (0.999999999999996, 1., -43.3));
#40 = CARTESIAN_POINT('', (0.96, 2.0960770124128E-15, -42.88));
#41 = CARTESIAN_POINT('', (0.999999999999996, 2.69689170348581E-15, -43.3));
#42 = CARTESIAN_POINT('', (0.96, -0.959999999999998, -42.88));
#43 = CARTESIAN_POINT('', (0.999999999999996, -0.999999999999997, -43.3));
#44 = CARTESIAN_POINT('', (-3.11916724067154E-16, -0.959999999999998, -42.88));
#45 = CARTESIAN_POINT('', (-3.42789987188999E-15, -0.999999999999996, -43.3));
#46 = CARTESIAN_POINT('', (-0.96, -0.959999999999998, -42.88));
#47 = CARTESIAN_POINT('', (-1., -0.999999999999996, -43.3));
#48 = CARTESIAN_POINT('', (-0.96, 2.684425783731E-15, -42.88));
#49 = CARTESIAN_POINT('', (-1., 3.30975500694226E-15, -43.3));
#50 = ADVANCED_FACE('', (#51), #70, .T.);
#51 = FACE_OUTER_BOUND('', #52, .T.);
#52 = EDGE_LOOP('', (#53, #61, #68, #69));
#53 = ORIENTED_EDGE('', *, *, #54, .F.);
#54 = EDGE_CURVE('', #55, #8, #57, .T.);
#55 = VERTEX_POINT('', #56);
#56 = CARTESIAN_POINT('', (-0.96, 2.63054132456851E-15, -42.));
#57 = LINE('', #58, #59);
#58 = CARTESIAN_POINT('', (-0.96, 2.63054132456851E-15, -42.));
#59 = VECTOR('', #60, 0.880000000000003);
#60 = DIRECTION('', (0., 5.388445916249E-17, -0.880000000000003));
#61 = ORIENTED_EDGE('', *, *, #62, .T.);
#62 = EDGE_CURVE('', #55, #55, #63, .T.);
#63 = CIRCLE('', #64, 0.959999999999999);
#64 = AXIS2_PLACEMENT_3D('', #65, #66, #67);
#65 = CARTESIAN_POINT('', (-1.04083408558608E-16, 2.52575738102223E-15, -42.));
#66 = DIRECTION('', (0., 0., -1.));
#67 = DIRECTION('', (-1., 1.09149941194044E-16, 0.));
#68 = ORIENTED_EDGE('', *, *, #54, .T.);
#69 = ORIENTED_EDGE('', *, *, #17, .F.);
#70 = (
   BOUNDED_SURFACE ()
   B_SPLINE_SURFACE (2, 1, ((#71, #72), (#73, #74), (#75, #76), (#77, #78), (#79, #80), (#81, #82), (#83, #84), (#85, #86), (#87, #88)), .UNSPECIFIED., .T., .F., .U.)
   B_SPLINE_SURFACE_WITH_KNOTS ((3, 2, 2, 2, 3), (2, 2), (0., 1.5079644737231, 3.0159289474462, 4.5238934211693, 6.0318578948924), (0., 1.), .UNSPECIFIED.)
   GEOMETRIC_REPRESENTATION_ITEM ()
   RATIONAL_B_SPLINE_SURFACE (((1., 1.), (0.707106781186548, 0.707106781186548), (1., 1.), (0.707106781186548, 0.707106781186548), (1., 1.), (0.707106781186548, 0.707106781186548), (1., 1.), (0.707106781186548, 0.707106781186548), (1., 1.)))
   REPRESENTATION_ITEM ('')
   SURFACE ()
);
#71 = CARTESIAN_POINT('', (-0.96, 2.63054132456851E-15, -42.));
#72 = CARTESIAN_POINT('', (-0.96, 2.85258592949354E-15, -42.88));
#73 = CARTESIAN_POINT('', (-0.96, 0.960000000000002, -42.));
#74 = CARTESIAN_POINT('', (-0.96, 0.960000000000003, -42.88));
#75 = CARTESIAN_POINT('', (1.77839881361443E-16, 0.960000000000002, -42.));
#76 = CARTESIAN_POINT('', (1.77839881361444E-16, 0.960000000000002, -42.88));
#77 = CARTESIAN_POINT('', (0.96, 0.960000000000002, -42.));
#78 = CARTESIAN_POINT('', (0.96, 0.960000000000002, -42.88));
#79 = CARTESIAN_POINT('', (0.96, 1.98342801788152E-15, -42.));
#80 = CARTESIAN_POINT('', (0.96, 2.20547262280655E-15, -42.88));
#81 = CARTESIAN_POINT('', (0.96, -0.959999999999998, -42.));
#82 = CARTESIAN_POINT('', (0.96, -0.959999999999998, -42.88));
#83 = CARTESIAN_POINT('', (-3.51707332607401E-16, -0.959999999999998, -42.));
#84 = CARTESIAN_POINT('', (-3.51707332607401E-16, -0.959999999999998, -42.88));
#85 = CARTESIAN_POINT('', (-0.96, -0.959999999999998, -42.));
#86 = CARTESIAN_POINT('', (-0.96, -0.959999999999997, -42.88));
#87 = CARTESIAN_POINT('', (-0.96, 2.63054132456851E-15, -42.));
#88 = CARTESIAN_POINT('', (-0.96, 2.85258592949354E-15, -42.88));
#89 = ADVANCED_FACE('', (#90), #109, .T.);
#90 = FACE_OUTER_BOUND('', #91, .T.);
#91 = EDGE_LOOP('', (#92, #100, #107, #108));
#92 = ORIENTED_EDGE('', *, *, #93, .F.);
#93 = EDGE_CURVE('', #94, #55, #96, .T.);
#94 = VERTEX_POINT('', #95);
#95 = CARTESIAN_POINT('', (-3., 2.17925897908272E-15, -32.59));
#96 = LINE('', #97, #98);
#97 = CARTESIAN_POINT('', (-3., 2.17925897908272E-15, -32.59));
#98 = VECTOR('', #99, 9.62858764305544);
#99 = DIRECTION('', (2.04, 4.5128234548579E-16, -9.41));
#100 = ORIENTED_EDGE('', *, *, #101, .T.);
#101 = EDGE_CURVE('', #94, #94, #102, .T.);
#102 = CIRCLE('', #103, 3.);
#103 = AXIS2_PLACEMENT_3D('', #104, #105, #106);
#104 = CARTESIAN_POINT('', (7.49400541621981E-16, 1.72084568816899E-15, -32.59));
#105 = DIRECTION('', (0., 0., -1.));
#106 = DIRECTION('', (-1., 1.52804430304576E-16, 0.));
#107 = ORIENTED_EDGE('', *, *, #93, .T.);
#108 = ORIENTED_EDGE('', *, *, #62, .F.);
#109 = (
   BOUNDED_SURFACE ()
   B_SPLINE_SURFACE (2, 1, ((#110, #111), (#112, #113), (#114, #115), (#116, #117), (#118, #119), (#120, #121), (#122, #123), (#124, #125), (#126, #127)), .UNSPECIFIED., .T., .F., .U.)
   B_SPLINE_SURFACE_WITH_KNOTS ((3, 2, 2, 2, 3), (2, 2), (0., 0.25, 0.5, 0.75, 1.), (0., 1.), .UNSPECIFIED.)
   GEOMETRIC_REPRESENTATION_ITEM ()
   RATIONAL_B_SPLINE_SURFACE (((1., 1.), (0.707106781186548, 0.707106781186548), (1., 1.), (0.707106781186548, 0.707106781186548), (1., 1.), (0.707106781186548, 0.707106781186548), (1., 1.), (0.707106781186548, 0.707106781186548), (1., 1.)))
   REPRESENTATION_ITEM ('')
   SURFACE ()
);
#110 = CARTESIAN_POINT('', (-3., 2.17925897908272E-15, -32.59));
#111 = CARTESIAN_POINT('', (-0.96, 2.24612399265856E-15, -42.));
#112 = CARTESIAN_POINT('', (-3., 3., -32.59));
#113 = CARTESIAN_POINT('', (-0.96, 0.960000000000002, -42.));
#114 = CARTESIAN_POINT('', (5.80027602813543E-16, 3., -32.59));
#115 = CARTESIAN_POINT('', (3.55472955667983E-16, 0.960000000000002, -42.));
#116 = CARTESIAN_POINT('', (3., 3., -32.59));
#117 = CARTESIAN_POINT('', (0.96, 0.960000000000002, -42.));
#118 = CARTESIAN_POINT('', (3., 1.51880413453696E-15, -32.59));
#119 = CARTESIAN_POINT('', (0.96, 2.03477844240392E-15, -42.));
#120 = CARTESIAN_POINT('', (3., -3., -32.59));
#121 = CARTESIAN_POINT('', (0.96, -0.959999999999998, -42.));
#122 = CARTESIAN_POINT('', (2.86966798011984E-16, -3., -32.59));
#123 = CARTESIAN_POINT('', (2.61693498131484E-16, -0.959999999999998, -42.));
#124 = CARTESIAN_POINT('', (-3., -3., -32.59));
#125 = CARTESIAN_POINT('', (-0.96, -0.959999999999998, -42.));
#126 = CARTESIAN_POINT('', (-3., 2.17925897908272E-15, -32.59));
#127 = CARTESIAN_POINT('', (-0.96, 2.24612399265856E-15, -42.));
#128 = ADVANCED_FACE('', (#129), #156, .T.);
#129 = FACE_OUTER_BOUND('', #130, .T.);
#130 = EDGE_LOOP('', (#131, #141, #148, #149));
#131 = ORIENTED_EDGE('', *, *, #132, .T.);
#132 = EDGE_CURVE('', #133, #135, #137, .T.);
#133 = VERTEX_POINT('', #134);
#134 = CARTESIAN_POINT('', (-3., 2.02066721859313E-16, -0.299999999999997));
#135 = VERTEX_POINT('', #136);
#136 = CARTESIAN_POINT('', (-2.7, 1.65327317884893E-16, 0.));
#137 = LINE('', #138, #139);
#138 = CARTESIAN_POINT('', (-3., 2.02066721859313E-16, -0.299999999999997));
#139 = VECTOR('', #140, 0.424264068711926);
#140 = DIRECTION('', (0.3, -3.673940397442E-17, 0.299999999999997));
#141 = ORIENTED_EDGE('', *, *, #142, .T.);
#142 = EDGE_CURVE('', #135, #135, #143, .T.);
#143 = CIRCLE('', #144, 2.7);
#144 = AXIS2_PLACEMENT_3D('', #145, #146, #147);
#145 = CARTESIAN_POINT('', (1.80411241501588E-16, 3.33066907387547E-16, 2.46519032881566E-32));
#146 = DIRECTION('', (5.32622804422992E-33, 6.12323399573677E-17, -1.));
#147 = DIRECTION('', (-1., -6.21257738898718E-17, -9.13033455116911E-33));
#148 = ORIENTED_EDGE('', *, *, #132, .F.);
#149 = ORIENTED_EDGE('', *, *, #150, .F.);
#150 = EDGE_CURVE('', #133, #133, #151, .T.);
#151 = CIRCLE('', #152, 3.);
#152 = AXIS2_PLACEMENT_3D('', #153, #154, #155);
#153 = CARTESIAN_POINT('', (2.91433543964104E-16, 0., -0.299999999999997));
#154 = DIRECTION('', (4.24192595338452E-33, 6.2978098239322E-17, -1.));
#155 = DIRECTION('', (-1., 6.73555739531044E-17, 0.));
#156 = (
   BOUNDED_SURFACE ()
   B_SPLINE_SURFACE (1, 2, ((#157, #158, #159, #160, #161, #162, #163, #164, #165), (#166, #167, #168, #169, #170, #171, #172, #173, #174)), .UNSPECIFIED., .F., .T., .U.)
   B_SPLINE_SURFACE_WITH_KNOTS ((2, 2), (3, 2, 2, 2, 3), (0., 1.), (0., 0.25, 0.5, 0.75, 1.), .UNSPECIFIED.)
   GEOMETRIC_REPRESENTATION_ITEM ()
   RATIONAL_B_SPLINE_SURFACE (((1., 0.707106781186548, 1., 0.707106781186548, 1., 0.707106781186548, 1., 0.707106781186548, 1.), (1., 0.707106781186548, 1., 0.707106781186548, 1., 0.707106781186548, 1., 0.707106781186548, 1.)))
   REPRESENTATION_ITEM ('')
   SURFACE ()
);
#157 = CARTESIAN_POINT('', (-3., 1.49129302665284E-15, -0.299999999999997));
#158 = CARTESIAN_POINT('', (-3., 3., -0.299999999999985));
#159 = CARTESIAN_POINT('', (2.34149119846292E-15, 3., -0.299999999999985));
#160 = CARTESIAN_POINT('', (3., 3., -0.299999999999985));
#161 = CARTESIAN_POINT('', (3., -1.34594359183367E-15, -0.299999999999997));
#162 = CARTESIAN_POINT('', (3., -3., -0.300000000000009));
#163 = CARTESIAN_POINT('', (-1.28351380279387E-16, -3., -0.300000000000009));
#164 = CARTESIAN_POINT('', (-3., -3., -0.300000000000009));
#165 = CARTESIAN_POINT('', (-3., 1.49129302665284E-15, -0.299999999999997));
#166 = CARTESIAN_POINT('', (-2.7, 1.65327317884893E-16, -2.18952885050753E-47));
#167 = CARTESIAN_POINT('', (-2.7, 2.7, 1.04916075827078E-14));
#168 = CARTESIAN_POINT('', (2.19962936753859E-15, 2.7, 1.04916075827078E-14));
#169 = CARTESIAN_POINT('', (2.7, 2.7, 1.04916075827078E-14));
#170 = CARTESIAN_POINT('', (2.7, -2.38818563875297E-15, 1.12461399303431E-30));
#171 = CARTESIAN_POINT('', (2.7, -2.7, -1.04916075827078E-14));
#172 = CARTESIAN_POINT('', (-2.32289533294833E-17, -2.7, -1.04916075827078E-14));
#173 = CARTESIAN_POINT('', (-2.7, -2.7, -1.04916075827078E-14));
#174 = CARTESIAN_POINT('', (-2.7, 1.65327317884893E-16, -2.18952885050753E-47));
#175 = ADVANCED_FACE('', (#176), #179, .T.);
#176 = FACE_OUTER_BOUND('', #177, .T.);
#177 = EDGE_LOOP('', (#178));
#178 = ORIENTED_EDGE('', *, *, #142, .F.);
#179 = B_SPLINE_SURFACE_WITH_KNOTS('', 1, 1, ((#180, #181), (#182, #183)), .UNSPECIFIED., .F., .F., .U., (2, 2), (2, 2), (0.178587826733387, 0.821412173266612), (0.178587826733388, 0.821412173266612), .UNSPECIFIED.);
#180 = CARTESIAN_POINT('', (2.7, -2.7, -1.65327317884893E-16));
#181 = CARTESIAN_POINT('', (-2.7, -2.7, -1.65327317884893E-16));
#182 = CARTESIAN_POINT('', (2.7, 2.7, 1.65327317884893E-16));
#183 = CARTESIAN_POINT('', (-2.7, 2.7, 1.65327317884893E-16));
#184 = ADVANCED_FACE('', (#185), #196, .T.);
#185 = FACE_OUTER_BOUND('', #186, .T.);
#186 = EDGE_LOOP('', (#187, #193, #194, #195));
#187 = ORIENTED_EDGE('', *, *, #188, .T.);
#188 = EDGE_CURVE('', #94, #133, #189, .T.);
#189 = LINE('', #190, #191);
#190 = CARTESIAN_POINT('', (-3., 2.17925897908272E-15, -32.59));
#191 = VECTOR('', #192, 32.29);
#192 = DIRECTION('', (0., -1.97719225722341E-15, 32.29));
#193 = ORIENTED_EDGE('', *, *, #150, .T.);
#194 = ORIENTED_EDGE('', *, *, #188, .F.);
#195 = ORIENTED_EDGE('', *, *, #101, .F.);
#196 = (
   BOUNDED_SURFACE ()
   B_SPLINE_SURFACE (1, 2, ((#197, #198, #199, #200, #201, #202, #203, #204, #205), (#206, #207, #208, #209, #210, #211, #212, #213, #214)), .UNSPECIFIED., .F., .T., .U.)
   B_SPLINE_SURFACE_WITH_KNOTS ((2, 2), (3, 2, 2, 2, 3), (0., 1.), (0., 4.7123889803847, 9.4247779607694, 14.1371669411541, 18.8495559215388), .UNSPECIFIED.)
   GEOMETRIC_REPRESENTATION_ITEM ()
   RATIONAL_B_SPLINE_SURFACE (((1., 0.707106781186548, 1., 0.707106781186548, 1., 0.707106781186548, 1., 0.707106781186548, 1.), (1., 0.707106781186548, 1., 0.707106781186548, 1., 0.707106781186548, 1., 0.707106781186548, 1.)))
   REPRESENTATION_ITEM ('')
   SURFACE ()
);
#197 = CARTESIAN_POINT('', (-3., 1.97842356125956E-15, -32.59));
#198 = CARTESIAN_POINT('', (-3., 3., -32.59));
#199 = CARTESIAN_POINT('', (2.65440923678887E-15, 3., -32.59));
#200 = CARTESIAN_POINT('', (3., 3., -32.59));
#201 = CARTESIAN_POINT('', (3., -1.83307412644039E-15, -32.59));
#202 = CARTESIAN_POINT('', (3., -3., -32.59));
#203 = CARTESIAN_POINT('', (-7.89694411166871E-16, -3., -32.59));
#204 = CARTESIAN_POINT('', (-3., -3., -32.59));
#205 = CARTESIAN_POINT('', (-3., 1.97842356125956E-15, -32.59));
#206 = CARTESIAN_POINT('', (-3., 2.02066721859312E-16, -0.299999999999997));
#207 = CARTESIAN_POINT('', (-3., 3., -0.299999999999997));
#208 = CARTESIAN_POINT('', (3.25189426120798E-15, 3., -0.299999999999997));
#209 = CARTESIAN_POINT('', (3., 3., -0.299999999999997));
#210 = CARTESIAN_POINT('', (3., -3.60943096584064E-15, -0.299999999999997));
#211 = CARTESIAN_POINT('', (3., -3., -0.299999999999997));
#212 = CARTESIAN_POINT('', (-1.92209386747767E-16, -3., -0.299999999999997));
#213 = CARTESIAN_POINT('', (-3., -3., -0.299999999999997));
#214 = CARTESIAN_POINT('', (-3., 2.02066721859312E-16, -0.299999999999997));
#215 = ADVANCED_FACE('', (#216), #219, .T.);
#216 = FACE_OUTER_BOUND('', #217, .T.);
#217 = EDGE_LOOP('', (#218));
#218 = ORIENTED_EDGE('', *, *, #25, .T.);
#219 = B_SPLINE_SURFACE_WITH_KNOTS('', 1, 1, ((#220, #221), (#222, #223)), .UNSPECIFIED., .F., .F., .U., (2, 2), (2, 2), (47.5663516276643, 49.5663516276643), (42.0196814996644, 44.0196814996644), .UNSPECIFIED.);
#220 = CARTESIAN_POINT('', (-1.00000000000001, 1.00000000000002, -43.3));
#221 = CARTESIAN_POINT('', (-1.00000000000001, -0.999999999999986, -43.3));
#222 = CARTESIAN_POINT('', (1., 1.00000000000002, -43.3));
#223 = CARTESIAN_POINT('', (1., -0.999999999999986, -43.3));
#224 = DRAUGHTING_MODEL('', (#232, #340, #380, #385, #390, #395, #400), #414);
#225 = PRESENTATION_STYLE_ASSIGNMENT((#226));
#226 = SURFACE_STYLE_USAGE(.POSITIVE., #227);
#227 = SURFACE_SIDE_STYLE('', (#228));
#228 = SURFACE_STYLE_FILL_AREA(#229);
#229 = FILL_AREA_STYLE('', (#230));
#230 = FILL_AREA_STYLE_COLOUR('', #231);
#231 = COLOUR_RGB('', 0.50196078431373, 0.50196078431373, 0.50196078431373);
#232 = STYLED_ITEM('', (#225), #1);
#233 = MANIFOLD_SOLID_BREP('CUT', #234);
#234 = CLOSED_SHELL('', (#235, #252, #291));
#235 = ADVANCED_FACE('', (#236), #247, .T.);
#236 = FACE_OUTER_BOUND('', #237, .T.);
#237 = EDGE_LOOP('', (#238));
#238 = ORIENTED_EDGE('', *, *, #239, .F.);
#239 = EDGE_CURVE('', #240, #240, #242, .T.);
#240 = VERTEX_POINT('', #241);
#241 = CARTESIAN_POINT('', (-1., 2.71259266011139E-15, -43.3));
#242 = CIRCLE('', #243, 1.);
#243 = AXIS2_PLACEMENT_3D('', #244, #245, #246);
#244 = CARTESIAN_POINT('', (-3.46944695195361E-17, 3.02535774210355E-15, -43.3));
#245 = DIRECTION('', (-7.56378242286029E-30, 2.41835897238997E-14, -1.));
#246 = DIRECTION('', (-1., -3.12765081992162E-16, 0.));
#247 = B_SPLINE_SURFACE_WITH_KNOTS('', 1, 1, ((#248, #249), (#250, #251)), .UNSPECIFIED., .F., .F., .U., (2, 2), (2, 2), (42.0196814996645, 44.0196814996645), (47.5663516276643, 49.5663516276643), .UNSPECIFIED.);
#248 = CARTESIAN_POINT('', (-1., 1., -43.3));
#249 = CARTESIAN_POINT('', (1., 1., -43.3));
#250 = CARTESIAN_POINT('', (-1., -0.999999999999993, -43.3));
#251 = CARTESIAN_POINT('', (1., -0.999999999999993, -43.3));
#252 = ADVANCED_FACE('', (#253), #272, .T.);
#253 = FACE_OUTER_BOUND('', #254, .T.);
#254 = EDGE_LOOP('', (#255, #263, #264, #265));
#255 = ORIENTED_EDGE('', *, *, #256, .F.);
#256 = EDGE_CURVE('', #240, #257, #259, .T.);
#257 = VERTEX_POINT('', #258);
#258 = CARTESIAN_POINT('', (-1., 2.75545529808154E-15, -44.));
#259 = LINE('', #260, #261);
#260 = CARTESIAN_POINT('', (-1., 2.71259266011139E-15, -43.3));
#261 = VECTOR('', #262, 0.700000000000003);
#262 = DIRECTION('', (0., 4.286263797015E-17, -0.700000000000003));
#263 = ORIENTED_EDGE('', *, *, #239, .T.);
#264 = ORIENTED_EDGE('', *, *, #256, .T.);
#265 = ORIENTED_EDGE('', *, *, #266, .F.);
#266 = EDGE_CURVE('', #257, #257, #267, .T.);
#267 = CIRCLE('', #268, 1.);
#268 = AXIS2_PLACEMENT_3D('', #269, #270, #271);
#269 = CARTESIAN_POINT('', (1.38777878078145E-17, 2.72004641033163E-15, -44.));
#270 = DIRECTION('', (8.56314013923537E-31, 2.41835897238996E-14, -1.));
#271 = DIRECTION('', (-1., 3.5408887749914E-17, 0.));
#272 = (
   BOUNDED_SURFACE ()
   B_SPLINE_SURFACE (2, 1, ((#273, #274), (#275, #276), (#277, #278), (#279, #280), (#281, #282), (#283, #284), (#285, #286), (#287, #288), (#289, #290)), .UNSPECIFIED., .T., .F., .U.)
   B_SPLINE_SURFACE_WITH_KNOTS ((3, 2, 2, 2, 3), (2, 2), (0., 1.5707963267949, 3.14159265358979, 4.71238898038469, 6.28318530717959), (0., 1.), .UNSPECIFIED.)
   GEOMETRIC_REPRESENTATION_ITEM ()
   RATIONAL_B_SPLINE_SURFACE (((1., 1.), (0.707106781186548, 0.707106781186548), (1., 1.), (0.707106781186548, 0.707106781186548), (1., 1.), (0.707106781186548, 0.707106781186548), (1., 1.), (0.707106781186548, 0.707106781186548), (1., 1.)))
   REPRESENTATION_ITEM ('')
   SURFACE ()
);
#273 = CARTESIAN_POINT('', (-1., 2.71259266011139E-15, -43.3));
#274 = CARTESIAN_POINT('', (-1., 2.37952575272384E-15, -44.));
#275 = CARTESIAN_POINT('', (-1., 1., -43.3));
#276 = CARTESIAN_POINT('', (-1., 1., -44.));
#277 = CARTESIAN_POINT('', (-3.63589081093668E-16, 1., -43.3));
#278 = CARTESIAN_POINT('', (-3.63589081093668E-16, 1., -44.));
#279 = CARTESIAN_POINT('', (0.999999999999999, 1., -43.3));
#280 = CARTESIAN_POINT('', (0.999999999999999, 1., -44.));
#281 = CARTESIAN_POINT('', (0.999999999999999, 3.07200944539164E-15, -43.3));
#282 = CARTESIAN_POINT('', (0.999999999999999, 2.7389425380041E-15, -44.));
#283 = CARTESIAN_POINT('', (0.999999999999999, -0.999999999999996, -43.3));
#284 = CARTESIAN_POINT('', (0.999999999999999, -0.999999999999997, -44.));
#285 = CARTESIAN_POINT('', (1.1829238410132E-16, -0.999999999999997, -43.3));
#286 = CARTESIAN_POINT('', (1.18292384101321E-16, -0.999999999999997, -44.));
#287 = CARTESIAN_POINT('', (-0.999999999999999, -0.999999999999997, -43.3));
#288 = CARTESIAN_POINT('', (-0.999999999999999, -0.999999999999997, -44.));
#289 = CARTESIAN_POINT('', (-1., 2.71259266011139E-15, -43.3));
#290 = CARTESIAN_POINT('', (-1., 2.37952575272384E-15, -44.));
#291 = ADVANCED_FACE('', (#292), #305, .T.);
#292 = FACE_OUTER_BOUND('', #293, .T.);
#293 = EDGE_LOOP('', (#294, #303, #304));
#294 = ORIENTED_EDGE('', *, *, #295, .F.);
#295 = EDGE_CURVE('', #257, #296, #298, .T.);
#296 = VERTEX_POINT('', #297);
#297 = CARTESIAN_POINT('', (2.94719322334619E-16, 2.75545529808154E-15, -45.));
#298 = CIRCLE('', #299, 0.999999999999998);
#299 = AXIS2_PLACEMENT_3D('', #300, #301, #302);
#300 = CARTESIAN_POINT('', (-1.33226762955019E-15, 2.69422295812417E-15, -44.));
#301 = DIRECTION('', (-6.12323399573708E-17, -1., -6.12323399573706E-17));
#302 = DIRECTION('', (-1., 6.12323399573708E-17, 0.));
#303 = ORIENTED_EDGE('', *, *, #266, .T.);
#304 = ORIENTED_EDGE('', *, *, #295, .T.);
#305 = (
   BOUNDED_SURFACE ()
   B_SPLINE_SURFACE (2, 2, ((#306, #307, #308), (#309, #310, #311), (#312, #313, #314), (#315, #316, #317), (#318, #319, #320), (#321, #322, #323), (#324, #325, #326), (#327, #328, #329), (#330, #331, #332)), .UNSPECIFIED., .T., .F., .U.)
   B_SPLINE_SURFACE_WITH_KNOTS ((3, 2, 2, 2, 3), (3, 3), (0., 0.25, 0.5, 0.75, 1.), (0., 1.), .UNSPECIFIED.)
   GEOMETRIC_REPRESENTATION_ITEM ()
   RATIONAL_B_SPLINE_SURFACE (((1., 0.707106781186548, 1.), (0.707106781186548, 0.5, 0.707106781186548), (1., 0.707106781186548, 1.), (0.707106781186548, 0.5, 0.707106781186548), (1., 0.707106781186548, 1.), (0.707106781186548, 0.5, 0.707106781186548), (1., 0.707106781186548, 1.), (0.707106781186548, 0.5, 0.707106781186548), (1., 0.707106781186548, 1.)))
   REPRESENTATION_ITEM ('')
   SURFACE ()
);
#306 = CARTESIAN_POINT('', (-1., 2.75545529808154E-15, -44.));
#307 = CARTESIAN_POINT('', (-1., 2.81668763803891E-15, -45.));
#308 = CARTESIAN_POINT('', (2.94719322334619E-16, 2.75545529808154E-15, -45.));
#309 = CARTESIAN_POINT('', (-1., 1., -44.));
#310 = CARTESIAN_POINT('', (-1., 1., -45.));
#311 = CARTESIAN_POINT('', (2.94719322334619E-16, 2.75545529808154E-15, -45.));
#312 = CARTESIAN_POINT('', (-1.33226762955018E-15, 1., -44.));
#313 = CARTESIAN_POINT('', (-1.27103528959281E-15, 1., -45.));
#314 = CARTESIAN_POINT('', (2.94719322334619E-16, 2.75545529808154E-15, -45.));
#315 = CARTESIAN_POINT('', (0.999999999999997, 1., -44.));
#316 = CARTESIAN_POINT('', (0.999999999999997, 1., -45.));
#317 = CARTESIAN_POINT('', (2.94719322334619E-16, 2.75545529808154E-15, -45.));
#318 = CARTESIAN_POINT('', (0.999999999999997, 2.75545529808153E-15, -44.));
#319 = CARTESIAN_POINT('', (0.999999999999997, 2.69422295812416E-15, -45.));
#320 = CARTESIAN_POINT('', (2.94719322334619E-16, 2.75545529808154E-15, -45.));
#321 = CARTESIAN_POINT('', (0.999999999999997, -0.999999999999996, -44.));
#322 = CARTESIAN_POINT('', (0.999999999999997, -0.999999999999996, -45.));
#323 = CARTESIAN_POINT('', (2.94719322334619E-16, 2.75545529808154E-15, -45.));
#324 = CARTESIAN_POINT('', (-1.20980294963546E-15, -0.999999999999996, -44.));
#325 = CARTESIAN_POINT('', (-1.27103528959283E-15, -0.999999999999996, -45.));
#326 = CARTESIAN_POINT('', (2.94719322334619E-16, 2.75545529808154E-15, -45.));
#327 = CARTESIAN_POINT('', (-1., -0.999999999999996, -44.));
#328 = CARTESIAN_POINT('', (-1., -0.999999999999996, -45.));
#329 = CARTESIAN_POINT('', (2.94719322334619E-16, 2.75545529808154E-15, -45.));
#330 = CARTESIAN_POINT('', (-1., 2.75545529808154E-15, -44.));
#331 = CARTESIAN_POINT('', (-1., 2.81668763803891E-15, -45.));
#332 = CARTESIAN_POINT('', (2.94719322334619E-16, 2.75545529808154E-15, -45.));
#333 = PRESENTATION_STYLE_ASSIGNMENT((#334));
#334 = SURFACE_STYLE_USAGE(.POSITIVE., #335);
#335 = SURFACE_SIDE_STYLE('', (#336));
#336 = SURFACE_STYLE_FILL_AREA(#337);
#337 = FILL_AREA_STYLE('', (#338));
#338 = FILL_AREA_STYLE_COLOUR('', #339);
#339 = COLOUR_RGB('', 0.8, 0.8, 0.8);
#340 = STYLED_ITEM('', (#333), #233);
#341 = TRIMMED_CURVE('cutting part line', #342, (#346), (#347), .T., .CARTESIAN.);
#342 = LINE('', #343, #344);
#343 = CARTESIAN_POINT('', (-4.87046989419438E-31, -2.65136032015402E-15, -43.3));
#344 = VECTOR('', #345, 1.);
#345 = DIRECTION('', (1., -1.83697019872105E-16, 0.));
#346 = CARTESIAN_POINT('', (-4.87046989419438E-31, -2.65136032015402E-15, -43.3));
#347 = CARTESIAN_POINT('', (1., -2.83505734002613E-15, -43.3));
#348 = TRIMMED_CURVE('cutting part line', #349, (#353), (#354), .T., .CARTESIAN.);
#349 = LINE('', #350, #351);
#350 = CARTESIAN_POINT('', (1., -2.83505734002613E-15, -43.3));
#351 = VECTOR('', #352, 0.700000000000003);
#352 = DIRECTION('', (0., -4.286263797015E-17, -0.700000000000003));
#353 = CARTESIAN_POINT('', (1., -2.83505734002613E-15, -43.3));
#354 = CARTESIAN_POINT('', (1., -2.87791997799628E-15, -44.));
#355 = TRIMMED_CURVE('cutting part line', #356, (#361), (#362), .T., .CARTESIAN.);
#356 = CIRCLE('', #357, 1.00000000000002);
#357 = AXIS2_PLACEMENT_3D('', #358, #359, #360);
#358 = CARTESIAN_POINT('', (-2.78665979180914E-14, -2.69422295812417E-15, -44.));
#359 = DIRECTION('', (1.83697019872105E-16, 1., -6.12323399573697E-17));
#360 = DIRECTION('', (1., -1.83697019872106E-16, -1.42108547152016E-14));
#361 = CARTESIAN_POINT('', (0.999999999999996, -2.87791997799628E-15, -44.));
#362 = CARTESIAN_POINT('', (-4.93879172354163E-16, -2.75545529808155E-15, -45.));
#363 = TRIMMED_CURVE('cutting part line', #364, (#368), (#369), .T., .CARTESIAN.);
#364 = LINE('', #365, #366);
#365 = CARTESIAN_POINT('', (-5.06168926648376E-31, -2.75545529808154E-15, -45.));
#366 = VECTOR('', #367, 1.7);
#367 = DIRECTION('', (1.91219372289382E-32, 1.0409497792752E-16, 1.7));
#368 = CARTESIAN_POINT('', (-5.06168926648376E-31, -2.75545529808154E-15, -45.));
#369 = CARTESIAN_POINT('', (-4.87046989419438E-31, -2.65136032015402E-15, -43.3));
#370 = COMPOSITE_CURVE('cutting part line', (#371, #372, #373, #374), .U.);
#371 = COMPOSITE_CURVE_SEGMENT(.CONTINUOUS., .T., #341);
#372 = COMPOSITE_CURVE_SEGMENT(.CONTINUOUS., .T., #348);
#373 = COMPOSITE_CURVE_SEGMENT(.CONTINUOUS., .T., #355);
#374 = COMPOSITE_CURVE_SEGMENT(.CONTINUOUS., .T., #363);
#375 = GEOMETRIC_SET('', (#370, #413));
#376 = PRESENTATION_STYLE_ASSIGNMENT((#377));
#377 = CURVE_STYLE('', #379, POSITIVE_LENGTH_MEASURE(1.E-6), #378);
#378 = COLOUR_RGB('', 0., 0., 1.);
#379 = DRAUGHTING_PRE_DEFINED_CURVE_FONT('continuous');
#380 = STYLED_ITEM('', (#376), #370);
#381 = PRESENTATION_STYLE_ASSIGNMENT((#382));
#382 = CURVE_STYLE('', #384, POSITIVE_LENGTH_MEASURE(1.E-6), #383);
#383 = COLOUR_RGB('', 0., 0., 1.);
#384 = DRAUGHTING_PRE_DEFINED_CURVE_FONT('continuous');
#385 = OVER_RIDING_STYLED_ITEM('', (#381), #341, #380);
#386 = PRESENTATION_STYLE_ASSIGNMENT((#387));
#387 = CURVE_STYLE('', #389, POSITIVE_LENGTH_MEASURE(1.E-6), #388);
#388 = COLOUR_RGB('', 0., 0., 1.);
#389 = DRAUGHTING_PRE_DEFINED_CURVE_FONT('continuous');
#390 = OVER_RIDING_STYLED_ITEM('', (#386), #348, #380);
#391 = PRESENTATION_STYLE_ASSIGNMENT((#392));
#392 = CURVE_STYLE('', #394, POSITIVE_LENGTH_MEASURE(1.E-6), #393);
#393 = COLOUR_RGB('', 0., 0., 1.);
#394 = DRAUGHTING_PRE_DEFINED_CURVE_FONT('continuous');
#395 = OVER_RIDING_STYLED_ITEM('', (#391), #355, #380);
#396 = PRESENTATION_STYLE_ASSIGNMENT((#397));
#397 = CURVE_STYLE('', #399, POSITIVE_LENGTH_MEASURE(1.E-6), #398);
#398 = COLOUR_RGB('', 0., 0., 1.);
#399 = DRAUGHTING_PRE_DEFINED_CURVE_FONT('continuous');
#400 = OVER_RIDING_STYLED_ITEM('', (#396), #363, #380);
#401 = AXIS2_PLACEMENT_3D('MCS', #402, #403, #404);
#402 = CARTESIAN_POINT('', (0., 0., -36.));
#403 = DIRECTION('', (0., 0., 1.));
#404 = DIRECTION('', (1., 0., 0.));
#405 = AXIS2_PLACEMENT_3D('PCS', #406, #407, #408);
#406 = CARTESIAN_POINT('', (0., 0., 0.));
#407 = DIRECTION('', (0., 0., 1.));
#408 = DIRECTION('', (1., 0., 0.));
#409 = AXIS2_PLACEMENT_3D('CIP', #410, #411, #412);
#410 = CARTESIAN_POINT('', (0., 0., -45.));
#411 = DIRECTION('', (0., 0., 1.));
#412 = DIRECTION('', (1., 0., 0.));
#413 = CARTESIAN_POINT('CRP', (1., 0., -45.));
#414 = (
   GEOMETRIC_REPRESENTATION_CONTEXT (3)
   GLOBAL_UNCERTAINTY_ASSIGNED_CONTEXT ((#416))
   GLOBAL_UNIT_ASSIGNED_CONTEXT ((#415, #417, #418))
   REPRESENTATION_CONTEXT ('', '3D')
);
#415 = (
   LENGTH_UNIT ()
   NAMED_UNIT (*)
   SI_UNIT (.MILLI., .METRE.)
);
#416 = UNCERTAINTY_MEASURE_WITH_UNIT(LENGTH_MEASURE(1.E-6), #415, 'DISTANCE_ACCURACY_VALUE', '');
#417 = (
   NAMED_UNIT (*)
   SI_UNIT ($, .STERADIAN.)
   SOLID_ANGLE_UNIT ()
);
#418 = (
   NAMED_UNIT (*)
   PLANE_ANGLE_UNIT ()
   SI_UNIT ($, .RADIAN.)
);
#419 = SHAPE_REPRESENTATION('', (), #414);
#420 = PRODUCT_DEFINITION_SHAPE('', '', #421);
#421 = PRODUCT_DEFINITION('', '', #424, #428);
#422 = APPLICATION_CONTEXT('configuration controlled 3D designs of mechanical parts and assemblies');
#423 = APPLICATION_PROTOCOL_DEFINITION('International Standard', 'automotive_design', 2002, #422);
#424 = PRODUCT_DEFINITION_FORMATION_WITH_SPECIFIED_SOURCE('', '', #425, .NOT_KNOWN.);
#425 = PRODUCT('R216.42-02030-EC20G 1700', 'R216.42-02030-EC20G 1700', '', (#426));
#426 = PRODUCT_CONTEXT('', #422, 'mechanical');
#427 = PRODUCT_RELATED_PRODUCT_CATEGORY('detail', '', (#425));
#428 = PRODUCT_DEFINITION_CONTEXT('part definition', #422, 'design');
#429 = SHAPE_DEFINITION_REPRESENTATION(#420, #419);
#430 = CONSTRUCTIVE_GEOMETRY_REPRESENTATION('supplemental geometry', (#401, #405, #409), #414);
#431 = CONSTRUCTIVE_GEOMETRY_REPRESENTATION_RELATIONSHIP('', '', #419, #430);
#432 = SHAPE_REPRESENTATION_RELATIONSHIP('', '', #419, #433);
#433 = SHAPE_REPRESENTATION('', (#375), #414);
#434 = SHAPE_REPRESENTATION_RELATIONSHIP('', '', #419, #435);
#435 = ADVANCED_BREP_SHAPE_REPRESENTATION('', (#1, #233), #414);
ENDSEC;
END-ISO-10303-21;
