ISO-10303-21;
HEADER;
FILE_DESCRIPTION(('STEP'), '1');
FILE_NAME('C:\\Users\\ds2002\\OneDrive - Sandvik\\HomeShare\\Documents\\Batchrepair\\CorSRT2\\NEW_MILBN_SLD\\Output2\\MOD000000000000000020084640600000.stp', '2018-11-23T12:39:26', (''), (''), 'Express v3.0.0.0', 'Express Tool', 'Unknown');
FILE_SCHEMA(('AUTOMOTIVE_DESIGN'));
ENDSEC;

DATA;
#1 = MANIFOLD_SOLID_BREP('NOCUT', #2);
#2 = CLOSED_SHELL('', (#3, #50, #97, #106, #137, #176));
#3 = ADVANCED_FACE('', (#4), #31, .T.);
#4 = FACE_OUTER_BOUND('', #5, .T.);
#5 = EDGE_LOOP('', (#6, #16, #23, #24));
#6 = ORIENTED_EDGE('', *, *, #7, .F.);
#7 = EDGE_CURVE('', #8, #10, #12, .T.);
#8 = VERTEX_POINT('', #9);
#9 = CARTESIAN_POINT('', (-3., 2.65748355414976E-15, -40.4));
#10 = VERTEX_POINT('', #11);
#11 = CARTESIAN_POINT('', (-0.75, 3.29123827270851E-15, -53.));
#12 = LINE('', #13, #14);
#13 = CARTESIAN_POINT('', (-3., 2.65748355414976E-15, -40.4));
#14 = VECTOR('', #15, 12.7993163879951);
#15 = DIRECTION('', (2.25, 6.3375471855875E-16, -12.6));
#16 = ORIENTED_EDGE('', *, *, #17, .T.);
#17 = EDGE_CURVE('', #8, #8, #18, .T.);
#18 = CIRCLE('', #19, 3.);
#19 = AXIS2_PLACEMENT_3D('', #20, #21, #22);
#20 = CARTESIAN_POINT('', (-4.9960036108132E-16, 3.33066907387547E-16, -40.4));
#21 = DIRECTION('', (0., 0., -1.));
#22 = DIRECTION('', (-1., 5.29876189091264E-16, 0.));
#23 = ORIENTED_EDGE('', *, *, #7, .T.);
#24 = ORIENTED_EDGE('', *, *, #25, .F.);
#25 = EDGE_CURVE('', #10, #10, #26, .T.);
#26 = CIRCLE('', #27, 0.75);
#27 = AXIS2_PLACEMENT_3D('', #28, #29, #30);
#28 = CARTESIAN_POINT('', (-5.20417042793042E-17, 2.94209101525666E-15, -53.));
#29 = DIRECTION('', (1.50109049376716E-29, 3.22447862985331E-14, -1.));
#30 = DIRECTION('', (-1., 4.6552967660246E-16, 0.));
#31 = (
   BOUNDED_SURFACE ()
   B_SPLINE_SURFACE (2, 1, ((#32, #33), (#34, #35), (#36, #37), (#38, #39), (#40, #41), (#42, #43), (#44, #45), (#46, #47), (#48, #49)), .UNSPECIFIED., .T., .F., .U.)
   B_SPLINE_SURFACE_WITH_KNOTS ((3, 2, 2, 2, 3), (2, 2), (0., 0.25, 0.5, 0.75, 1.), (0., 1.), .UNSPECIFIED.)
   GEOMETRIC_REPRESENTATION_ITEM ()
   RATIONAL_B_SPLINE_SURFACE (((1., 1.), (0.707106781186548, 0.707106781186548), (1., 1.), (0.707106781186548, 0.707106781186548), (1., 1.), (0.707106781186548, 0.707106781186548), (1., 1.), (0.707106781186548, 0.707106781186548), (1., 1.)))
   REPRESENTATION_ITEM ('')
   SURFACE ()
);
#32 = CARTESIAN_POINT('', (-3., 2.65748355414976E-15, -40.4));
#33 = CARTESIAN_POINT('', (-0.75, 3.27339499640656E-15, -53.));
#34 = CARTESIAN_POINT('', (-3., 3., -40.4));
#35 = CARTESIAN_POINT('', (-0.750000000000001, 0.750000000000004, -53.));
#36 = CARTESIAN_POINT('', (4.05996150913303E-16, 3., -40.4));
#37 = CARTESIAN_POINT('', (2.57624150566239E-16, 0.750000000000004, -53.));
#38 = CARTESIAN_POINT('', (3., 3., -40.4));
#39 = CARTESIAN_POINT('', (0.750000000000001, 0.750000000000004, -53.));
#40 = CARTESIAN_POINT('', (3., 2.26182488655759E-15, -40.4));
#41 = CARTESIAN_POINT('', (0.750000000000001, 3.17448032950852E-15, -53.));
#42 = CARTESIAN_POINT('', (3., -3., -40.4));
#43 = CARTESIAN_POINT('', (0.750000000000001, -0.749999999999997, -53.));
#44 = CARTESIAN_POINT('', (3.77731523065337E-16, -3., -40.4));
#45 = CARTESIAN_POINT('', (2.50557993604247E-16, -0.749999999999997, -53.));
#46 = CARTESIAN_POINT('', (-3., -3., -40.4));
#47 = CARTESIAN_POINT('', (-0.750000000000001, -0.749999999999998, -53.));
#48 = CARTESIAN_POINT('', (-3., 2.65748355414976E-15, -40.4));
#49 = CARTESIAN_POINT('', (-0.75, 3.27339499640656E-15, -53.));
#50 = ADVANCED_FACE('', (#51), #78, .T.);
#51 = FACE_OUTER_BOUND('', #52, .T.);
#52 = EDGE_LOOP('', (#53, #63, #70, #71));
#53 = ORIENTED_EDGE('', *, *, #54, .T.);
#54 = EDGE_CURVE('', #55, #57, #59, .T.);
#55 = VERTEX_POINT('', #56);
#56 = CARTESIAN_POINT('', (-3., 2.02066721859313E-16, -0.299999999999997));
#57 = VERTEX_POINT('', #58);
#58 = CARTESIAN_POINT('', (-2.7, 1.65327317884893E-16, 0.));
#59 = LINE('', #60, #61);
#60 = CARTESIAN_POINT('', (-3., 2.02066721859313E-16, -0.299999999999997));
#61 = VECTOR('', #62, 0.424264068711926);
#62 = DIRECTION('', (0.3, -3.673940397442E-17, 0.299999999999997));
#63 = ORIENTED_EDGE('', *, *, #64, .T.);
#64 = EDGE_CURVE('', #57, #57, #65, .T.);
#65 = CIRCLE('', #66, 2.7);
#66 = AXIS2_PLACEMENT_3D('', #67, #68, #69);
#67 = CARTESIAN_POINT('', (6.24500451351651E-17, -1.88737914186277E-15, -1.07852076885685E-31));
#68 = DIRECTION('', (6.60738625565492E-33, 6.12323399573678E-17, -1.));
#69 = DIRECTION('', (-1., 7.60261651758392E-16, 3.99452136613649E-32));
#70 = ORIENTED_EDGE('', *, *, #54, .F.);
#71 = ORIENTED_EDGE('', *, *, #72, .F.);
#72 = EDGE_CURVE('', #55, #55, #73, .T.);
#73 = CIRCLE('', #74, 3.);
#74 = AXIS2_PLACEMENT_3D('', #75, #76, #77);
#75 = CARTESIAN_POINT('', (-8.32667268468867E-16, 1.66533453693773E-16, -0.299999999999997));
#76 = DIRECTION('', (7.45939217764516E-34, 6.29780982393227E-17, -1.));
#77 = DIRECTION('', (-1., 1.18444227218465E-17, 0.));
#78 = (
   BOUNDED_SURFACE ()
   B_SPLINE_SURFACE (1, 2, ((#79, #80, #81, #82, #83, #84, #85, #86, #87), (#88, #89, #90, #91, #92, #93, #94, #95, #96)), .UNSPECIFIED., .F., .T., .U.)
   B_SPLINE_SURFACE_WITH_KNOTS ((2, 2), (3, 2, 2, 2, 3), (0., 1.), (0., 0.25, 0.5, 0.75, 1.), .UNSPECIFIED.)
   GEOMETRIC_REPRESENTATION_ITEM ()
   RATIONAL_B_SPLINE_SURFACE (((1., 0.707106781186548, 1., 0.707106781186548, 1., 0.707106781186548, 1., 0.707106781186548, 1.), (1., 0.707106781186548, 1., 0.707106781186548, 1., 0.707106781186548, 1., 0.707106781186548, 1.)))
   REPRESENTATION_ITEM ('')
   SURFACE ()
);
#79 = CARTESIAN_POINT('', (-3., 1.49129302665284E-15, -0.299999999999997));
#80 = CARTESIAN_POINT('', (-3., 3., -0.299999999999985));
#81 = CARTESIAN_POINT('', (2.34149119846292E-15, 3., -0.299999999999985));
#82 = CARTESIAN_POINT('', (3., 3., -0.299999999999985));
#83 = CARTESIAN_POINT('', (3., -1.34594359183367E-15, -0.299999999999997));
#84 = CARTESIAN_POINT('', (3., -3., -0.300000000000009));
#85 = CARTESIAN_POINT('', (-1.28351380279387E-16, -3., -0.300000000000009));
#86 = CARTESIAN_POINT('', (-3., -3., -0.300000000000009));
#87 = CARTESIAN_POINT('', (-3., 1.49129302665284E-15, -0.299999999999997));
#88 = CARTESIAN_POINT('', (-2.7, 1.65327317884893E-16, -2.18952885050753E-47));
#89 = CARTESIAN_POINT('', (-2.7, 2.7, 1.04916075827078E-14));
#90 = CARTESIAN_POINT('', (2.19962936753859E-15, 2.7, 1.04916075827078E-14));
#91 = CARTESIAN_POINT('', (2.7, 2.7, 1.04916075827078E-14));
#92 = CARTESIAN_POINT('', (2.7, -2.38818563875297E-15, 1.12461399303431E-30));
#93 = CARTESIAN_POINT('', (2.7, -2.7, -1.04916075827078E-14));
#94 = CARTESIAN_POINT('', (-2.32289533294833E-17, -2.7, -1.04916075827078E-14));
#95 = CARTESIAN_POINT('', (-2.7, -2.7, -1.04916075827078E-14));
#96 = CARTESIAN_POINT('', (-2.7, 1.65327317884893E-16, -2.18952885050753E-47));
#97 = ADVANCED_FACE('', (#98), #101, .T.);
#98 = FACE_OUTER_BOUND('', #99, .T.);
#99 = EDGE_LOOP('', (#100));
#100 = ORIENTED_EDGE('', *, *, #64, .F.);
#101 = B_SPLINE_SURFACE_WITH_KNOTS('', 1, 1, ((#102, #103), (#104, #105)), .UNSPECIFIED., .F., .F., .U., (2, 2), (2, 2), (1.50021428024809, 6.90021428024809), (1.50021428024809, 6.90021428024809), .UNSPECIFIED.);
#102 = CARTESIAN_POINT('', (2.7, -2.7, 6.94010003971609E-15));
#103 = CARTESIAN_POINT('', (-2.7, -2.7, -7.27075467548589E-15));
#104 = CARTESIAN_POINT('', (2.7, 2.7, 7.27075467548587E-15));
#105 = CARTESIAN_POINT('', (-2.7, 2.7, -6.9401000397161E-15));
#106 = ADVANCED_FACE('', (#107), #118, .T.);
#107 = FACE_OUTER_BOUND('', #108, .T.);
#108 = EDGE_LOOP('', (#109, #115, #116, #117));
#109 = ORIENTED_EDGE('', *, *, #110, .T.);
#110 = EDGE_CURVE('', #8, #55, #111, .T.);
#111 = LINE('', #112, #113);
#112 = CARTESIAN_POINT('', (-3., 2.65748355414976E-15, -40.4));
#113 = VECTOR('', #114, 40.1);
#114 = DIRECTION('', (0., -2.45541683229045E-15, 40.1));
#115 = ORIENTED_EDGE('', *, *, #72, .T.);
#116 = ORIENTED_EDGE('', *, *, #110, .F.);
#117 = ORIENTED_EDGE('', *, *, #17, .F.);
#118 = (
   BOUNDED_SURFACE ()
   B_SPLINE_SURFACE (1, 2, ((#119, #120, #121, #122, #123, #124, #125, #126, #127), (#128, #129, #130, #131, #132, #133, #134, #135, #136)), .UNSPECIFIED., .F., .T., .U.)
   B_SPLINE_SURFACE_WITH_KNOTS ((2, 2), (3, 2, 2, 2, 3), (0., 1.), (0., 4.7123889803847, 9.4247779607694, 14.1371669411541, 18.8495559215388), .UNSPECIFIED.)
   GEOMETRIC_REPRESENTATION_ITEM ()
   RATIONAL_B_SPLINE_SURFACE (((1., 0.707106781186548, 1., 0.707106781186548, 1., 0.707106781186548, 1., 0.707106781186548, 1.), (1., 0.707106781186548, 1., 0.707106781186548, 1., 0.707106781186548, 1., 0.707106781186548, 1.)))
   REPRESENTATION_ITEM ('')
   SURFACE ()
);
#119 = CARTESIAN_POINT('', (-3., 1.1457562927907E-15, -40.4));
#120 = CARTESIAN_POINT('', (-3., 3., -40.4));
#121 = CARTESIAN_POINT('', (2.50989520641683E-15, 3., -40.4));
#122 = CARTESIAN_POINT('', (3., 3., -40.4));
#123 = CARTESIAN_POINT('', (3., -2.66574139490926E-15, -40.4));
#124 = CARTESIAN_POINT('', (3., -3., -40.4));
#125 = CARTESIAN_POINT('', (-9.34208441538913E-16, -3., -40.4));
#126 = CARTESIAN_POINT('', (-3., -3., -40.4));
#127 = CARTESIAN_POINT('', (-3., 1.1457562927907E-15, -40.4));
#128 = CARTESIAN_POINT('', (-3., 2.02066721859312E-16, -0.299999999999997));
#129 = CARTESIAN_POINT('', (-3., 3., -0.299999999999997));
#130 = CARTESIAN_POINT('', (3.25189426120798E-15, 3., -0.299999999999997));
#131 = CARTESIAN_POINT('', (3., 3., -0.299999999999997));
#132 = CARTESIAN_POINT('', (3., -3.60943096584064E-15, -0.299999999999997));
#133 = CARTESIAN_POINT('', (3., -3., -0.299999999999997));
#134 = CARTESIAN_POINT('', (-1.92209386747767E-16, -3., -0.299999999999997));
#135 = CARTESIAN_POINT('', (-3., -3., -0.299999999999997));
#136 = CARTESIAN_POINT('', (-3., 2.02066721859312E-16, -0.299999999999997));
#137 = ADVANCED_FACE('', (#138), #157, .T.);
#138 = FACE_OUTER_BOUND('', #139, .T.);
#139 = EDGE_LOOP('', (#140, #149, #155, #156));
#140 = ORIENTED_EDGE('', *, *, #141, .F.);
#141 = EDGE_CURVE('', #142, #142, #144, .T.);
#142 = VERTEX_POINT('', #143);
#143 = CARTESIAN_POINT('', (-0.75, 3.41370295262325E-15, -55.));
#144 = CIRCLE('', #145, 0.75);
#145 = AXIS2_PLACEMENT_3D('', #146, #147, #148);
#146 = CARTESIAN_POINT('', (-5.20417042793042E-17, 3.06699110552699E-15, -55.));
#147 = DIRECTION('', (1.49061992223846E-29, 3.22447862985331E-14, -1.));
#148 = DIRECTION('', (-1., 4.62282462795007E-16, 0.));
#149 = ORIENTED_EDGE('', *, *, #150, .F.);
#150 = EDGE_CURVE('', #10, #142, #151, .T.);
#151 = LINE('', #152, #153);
#152 = CARTESIAN_POINT('', (-0.75, 3.29123827270851E-15, -53.));
#153 = VECTOR('', #154, 2.);
#154 = DIRECTION('', (0., 1.2246467991474E-16, -2.));
#155 = ORIENTED_EDGE('', *, *, #25, .T.);
#156 = ORIENTED_EDGE('', *, *, #150, .T.);
#157 = (
   BOUNDED_SURFACE ()
   B_SPLINE_SURFACE (2, 1, ((#158, #159), (#160, #161), (#162, #163), (#164, #165), (#166, #167), (#168, #169), (#170, #171), (#172, #173), (#174, #175)), .UNSPECIFIED., .T., .F., .U.)
   B_SPLINE_SURFACE_WITH_KNOTS ((3, 2, 2, 2, 3), (2, 2), (0., 1.17809724509617, 2.35619449019235, 3.53429173528852, 4.71238898038469), (0., 0.615384615384615), .UNSPECIFIED.)
   GEOMETRIC_REPRESENTATION_ITEM ()
   RATIONAL_B_SPLINE_SURFACE (((1., 1.), (0.707106781186548, 0.707106781186548), (1., 1.), (0.707106781186548, 0.707106781186548), (1., 1.), (0.707106781186548, 0.707106781186548), (1., 1.), (0.707106781186548, 0.707106781186548), (1., 1.)))
   REPRESENTATION_ITEM ('')
   SURFACE ()
);
#158 = CARTESIAN_POINT('', (-0.75, 3.29123827270851E-15, -53.));
#159 = CARTESIAN_POINT('', (-0.75, 3.43001615078665E-15, -55.));
#160 = CARTESIAN_POINT('', (-0.75, 0.750000000000003, -53.));
#161 = CARTESIAN_POINT('', (-0.75, 0.750000000000003, -55.));
#162 = CARTESIAN_POINT('', (-1.16580078702568E-16, 0.750000000000003, -53.));
#163 = CARTESIAN_POINT('', (-1.16580078702568E-16, 0.750000000000003, -55.));
#164 = CARTESIAN_POINT('', (0.75, 0.750000000000003, -53.));
#165 = CARTESIAN_POINT('', (0.75, 0.750000000000003, -55.));
#166 = CARTESIAN_POINT('', (0.75, 3.40643723374722E-15, -53.));
#167 = CARTESIAN_POINT('', (0.75, 3.54521511182537E-15, -55.));
#168 = CARTESIAN_POINT('', (0.75, -0.749999999999997, -53.));
#169 = CARTESIAN_POINT('', (0.75, -0.749999999999996, -55.));
#170 = CARTESIAN_POINT('', (9.04673922721966E-17, -0.749999999999997, -53.));
#171 = CARTESIAN_POINT('', (9.04673922721966E-17, -0.749999999999997, -55.));
#172 = CARTESIAN_POINT('', (-0.75, -0.749999999999997, -53.));
#173 = CARTESIAN_POINT('', (-0.75, -0.749999999999997, -55.));
#174 = CARTESIAN_POINT('', (-0.75, 3.29123827270851E-15, -53.));
#175 = CARTESIAN_POINT('', (-0.75, 3.43001615078665E-15, -55.));
#176 = ADVANCED_FACE('', (#177), #180, .T.);
#177 = FACE_OUTER_BOUND('', #178, .T.);
#178 = EDGE_LOOP('', (#179));
#179 = ORIENTED_EDGE('', *, *, #141, .T.);
#180 = B_SPLINE_SURFACE_WITH_KNOTS('', 1, 1, ((#181, #182), (#183, #184)), .UNSPECIFIED., .F., .F., .U., (2, 2), (2, 2), (59.6675973868008, 61.1675973868008), (54.0886464874473, 55.5886464874473), .UNSPECIFIED.);
#181 = CARTESIAN_POINT('', (-0.750000000000002, 0.75, -55.));
#182 = CARTESIAN_POINT('', (-0.750000000000002, -0.75, -55.));
#183 = CARTESIAN_POINT('', (0.749999999999998, 0.75, -55.));
#184 = CARTESIAN_POINT('', (0.749999999999998, -0.75, -55.));
#185 = DRAUGHTING_MODEL('', (#193, #301, #341, #346, #351, #356, #361), #375);
#186 = PRESENTATION_STYLE_ASSIGNMENT((#187));
#187 = SURFACE_STYLE_USAGE(.POSITIVE., #188);
#188 = SURFACE_SIDE_STYLE('', (#189));
#189 = SURFACE_STYLE_FILL_AREA(#190);
#190 = FILL_AREA_STYLE('', (#191));
#191 = FILL_AREA_STYLE_COLOUR('', #192);
#192 = COLOUR_RGB('', 0.50196078431373, 0.50196078431373, 0.50196078431373);
#193 = STYLED_ITEM('', (#186), #1);
#194 = MANIFOLD_SOLID_BREP('CUT', #195);
#195 = CLOSED_SHELL('', (#196, #213, #252));
#196 = ADVANCED_FACE('', (#197), #208, .T.);
#197 = FACE_OUTER_BOUND('', #198, .T.);
#198 = EDGE_LOOP('', (#199));
#199 = ORIENTED_EDGE('', *, *, #200, .F.);
#200 = EDGE_CURVE('', #201, #201, #203, .T.);
#201 = VERTEX_POINT('', #202);
#202 = CARTESIAN_POINT('', (-0.75, 3.41370295262325E-15, -55.));
#203 = CIRCLE('', #204, 0.75);
#204 = AXIS2_PLACEMENT_3D('', #205, #206, #207);
#205 = CARTESIAN_POINT('', (-5.20417042793042E-17, 3.06699110552699E-15, -55.));
#206 = DIRECTION('', (1.49061992223846E-29, 3.22447862985331E-14, -1.));
#207 = DIRECTION('', (-1., 4.62282462795007E-16, 0.));
#208 = B_SPLINE_SURFACE_WITH_KNOTS('', 1, 1, ((#209, #210), (#211, #212)), .UNSPECIFIED., .F., .F., .U., (2, 2), (2, 2), (54.0886464874473, 55.5886464874473), (59.6675973868008, 61.1675973868008), .UNSPECIFIED.);
#209 = CARTESIAN_POINT('', (-0.75, 0.75, -55.));
#210 = CARTESIAN_POINT('', (0.75, 0.75, -55.));
#211 = CARTESIAN_POINT('', (-0.75, -0.75, -55.));
#212 = CARTESIAN_POINT('', (0.75, -0.75, -55.));
#213 = ADVANCED_FACE('', (#214), #233, .T.);
#214 = FACE_OUTER_BOUND('', #215, .T.);
#215 = EDGE_LOOP('', (#216, #217, #225, #232));
#216 = ORIENTED_EDGE('', *, *, #200, .T.);
#217 = ORIENTED_EDGE('', *, *, #218, .T.);
#218 = EDGE_CURVE('', #201, #219, #221, .T.);
#219 = VERTEX_POINT('', #220);
#220 = CARTESIAN_POINT('', (-0.75, 3.49024337756996E-15, -56.25));
#221 = LINE('', #222, #223);
#222 = CARTESIAN_POINT('', (-0.75, 3.41370295262325E-15, -55.));
#223 = VECTOR('', #224, 1.25);
#224 = DIRECTION('', (0., 7.65404249467099E-17, -1.25));
#225 = ORIENTED_EDGE('', *, *, #226, .F.);
#226 = EDGE_CURVE('', #219, #219, #227, .T.);
#227 = CIRCLE('', #228, 0.75);
#228 = AXIS2_PLACEMENT_3D('', #229, #230, #231);
#229 = CARTESIAN_POINT('', (-1.73472347597681E-16, 3.10862446895044E-15, -56.25));
#230 = DIRECTION('', (0., 0., -1.));
#231 = DIRECTION('', (-1., 5.08825211492696E-16, 0.));
#232 = ORIENTED_EDGE('', *, *, #218, .F.);
#233 = (
   BOUNDED_SURFACE ()
   B_SPLINE_SURFACE (2, 1, ((#234, #235), (#236, #237), (#238, #239), (#240, #241), (#242, #243), (#244, #245), (#246, #247), (#248, #249), (#250, #251)), .UNSPECIFIED., .T., .F., .U.)
   B_SPLINE_SURFACE_WITH_KNOTS ((3, 2, 2, 2, 3), (2, 2), (0., 1.17809724509617, 2.35619449019235, 3.53429173528852, 4.71238898038469), (0.615384615384615, 1.), .UNSPECIFIED.)
   GEOMETRIC_REPRESENTATION_ITEM ()
   RATIONAL_B_SPLINE_SURFACE (((1., 1.), (0.707106781186548, 0.707106781186548), (1., 1.), (0.707106781186548, 0.707106781186548), (1., 1.), (0.707106781186548, 0.707106781186548), (1., 1.), (0.707106781186548, 0.707106781186548), (1., 1.)))
   REPRESENTATION_ITEM ('')
   SURFACE ()
);
#234 = CARTESIAN_POINT('', (-0.75, 3.41370295262325E-15, -55.));
#235 = CARTESIAN_POINT('', (-0.75, 3.45533631604669E-15, -56.25));
#236 = CARTESIAN_POINT('', (-0.75, 0.750000000000003, -55.));
#237 = CARTESIAN_POINT('', (-0.75, 0.750000000000003, -56.25));
#238 = CARTESIAN_POINT('', (-2.18709744034567E-17, 0.750000000000003, -55.));
#239 = CARTESIAN_POINT('', (-2.18709744034567E-17, 0.750000000000003, -56.25));
#240 = CARTESIAN_POINT('', (0.75, 0.750000000000003, -55.));
#241 = CARTESIAN_POINT('', (0.75, 0.750000000000003, -56.25));
#242 = CARTESIAN_POINT('', (0.75, 3.56152830998877E-15, -55.));
#243 = CARTESIAN_POINT('', (0.75, 3.60316167341222E-15, -56.25));
#244 = CARTESIAN_POINT('', (0.75, -0.749999999999996, -55.));
#245 = CARTESIAN_POINT('', (0.75, -0.749999999999996, -56.25));
#246 = CARTESIAN_POINT('', (2.17802892898117E-16, -0.749999999999997, -55.));
#247 = CARTESIAN_POINT('', (2.17802892898117E-16, -0.749999999999997, -56.25));
#248 = CARTESIAN_POINT('', (-0.75, -0.749999999999997, -55.));
#249 = CARTESIAN_POINT('', (-0.75, -0.749999999999997, -56.25));
#250 = CARTESIAN_POINT('', (-0.75, 3.41370295262325E-15, -55.));
#251 = CARTESIAN_POINT('', (-0.75, 3.45533631604669E-15, -56.25));
#252 = ADVANCED_FACE('', (#253), #266, .T.);
#253 = FACE_OUTER_BOUND('', #254, .T.);
#254 = EDGE_LOOP('', (#255, #264, #265));
#255 = ORIENTED_EDGE('', *, *, #256, .F.);
#256 = EDGE_CURVE('', #219, #257, #259, .T.);
#257 = VERTEX_POINT('', #258);
#258 = CARTESIAN_POINT('', (1.37772764904077E-16, 3.49024337756996E-15, -57.));
#259 = CIRCLE('', #260, 0.75);
#260 = AXIS2_PLACEMENT_3D('', #261, #262, #263);
#261 = CARTESIAN_POINT('', (8.88178419700125E-16, 3.44431912260194E-15, -56.25));
#262 = DIRECTION('', (-6.12323399573576E-17, -1., -6.12323399573573E-17));
#263 = DIRECTION('', (-1., 6.12323399573576E-17, 0.));
#264 = ORIENTED_EDGE('', *, *, #226, .T.);
#265 = ORIENTED_EDGE('', *, *, #256, .T.);
#266 = (
   BOUNDED_SURFACE ()
   B_SPLINE_SURFACE (2, 2, ((#267, #268, #269), (#270, #271, #272), (#273, #274, #275), (#276, #277, #278), (#279, #280, #281), (#282, #283, #284), (#285, #286, #287), (#288, #289, #290), (#291, #292, #293)), .UNSPECIFIED., .T., .F., .U.)
   B_SPLINE_SURFACE_WITH_KNOTS ((3, 2, 2, 2, 3), (3, 3), (0., 0.25, 0.5, 0.75, 1.), (0., 1.), .UNSPECIFIED.)
   GEOMETRIC_REPRESENTATION_ITEM ()
   RATIONAL_B_SPLINE_SURFACE (((1., 0.707106781186548, 1.), (0.707106781186548, 0.5, 0.707106781186548), (1., 0.707106781186548, 1.), (0.707106781186548, 0.5, 0.707106781186548), (1., 0.707106781186548, 1.), (0.707106781186548, 0.5, 0.707106781186548), (1., 0.707106781186548, 1.), (0.707106781186548, 0.5, 0.707106781186548), (1., 0.707106781186548, 1.)))
   REPRESENTATION_ITEM ('')
   SURFACE ()
);
#267 = CARTESIAN_POINT('', (-0.75, 3.49024337756996E-15, -56.25));
#268 = CARTESIAN_POINT('', (-0.75, 3.53616763253798E-15, -57.));
#269 = CARTESIAN_POINT('', (1.37772764904077E-16, 3.49024337756996E-15, -57.));
#270 = CARTESIAN_POINT('', (-0.75, 0.74999999999997, -56.25));
#271 = CARTESIAN_POINT('', (-0.749999999999977, 0.749999999999978, -57.));
#272 = CARTESIAN_POINT('', (1.37772764904077E-16, 3.49024337756996E-15, -57.));
#273 = CARTESIAN_POINT('', (-3.28626015289056E-14, 0.749999999999971, -56.25));
#274 = CARTESIAN_POINT('', (-2.59504534033061E-15, 0.749999999999955, -57.));
#275 = CARTESIAN_POINT('', (1.37772764904077E-16, 3.49024337756996E-15, -57.));
#276 = CARTESIAN_POINT('', (0.749999999999934, 0.74999999999997, -56.25));
#277 = CARTESIAN_POINT('', (0.749999999999972, 0.749999999999931, -57.));
#278 = CARTESIAN_POINT('', (1.37772764904077E-16, 3.49024337756996E-15, -57.));
#279 = CARTESIAN_POINT('', (0.749999999999934, 3.49024337757173E-15, -56.25));
#280 = CARTESIAN_POINT('', (0.749999999999948, -4.27880900294082E-14, -57.));
#281 = CARTESIAN_POINT('', (1.37772764904077E-16, 3.49024337756996E-15, -57.));
#282 = CARTESIAN_POINT('', (0.749999999999934, -0.749999999999964, -56.25));
#283 = CARTESIAN_POINT('', (0.749999999999926, -0.750000000000017, -57.));
#284 = CARTESIAN_POINT('', (1.37772764904077E-16, 3.49024337756996E-15, -57.));
#285 = CARTESIAN_POINT('', (-3.27707530189682E-14, -0.749999999999964, -56.25));
#286 = CARTESIAN_POINT('', (-4.88274544923412E-14, -0.749999999999994, -57.));
#287 = CARTESIAN_POINT('', (1.37772764904077E-16, 3.49024337756996E-15, -57.));
#288 = CARTESIAN_POINT('', (-0.75, -0.749999999999964, -56.25));
#289 = CARTESIAN_POINT('', (-0.750000000000023, -0.749999999999971, -57.));
#290 = CARTESIAN_POINT('', (1.37772764904077E-16, 3.49024337756996E-15, -57.));
#291 = CARTESIAN_POINT('', (-0.75, 3.49024337756996E-15, -56.25));
#292 = CARTESIAN_POINT('', (-0.75, 3.53616763253798E-15, -57.));
#293 = CARTESIAN_POINT('', (1.37772764904077E-16, 3.49024337756996E-15, -57.));
#294 = PRESENTATION_STYLE_ASSIGNMENT((#295));
#295 = SURFACE_STYLE_USAGE(.POSITIVE., #296);
#296 = SURFACE_SIDE_STYLE('', (#297));
#297 = SURFACE_STYLE_FILL_AREA(#298);
#298 = FILL_AREA_STYLE('', (#299));
#299 = FILL_AREA_STYLE_COLOUR('', #300);
#300 = COLOUR_RGB('', 0.8, 0.8, 0.8);
#301 = STYLED_ITEM('', (#294), #194);
#302 = TRIMMED_CURVE('cutting part line', #303, (#307), (#308), .T., .CARTESIAN.);
#303 = LINE('', #304, #305);
#304 = CARTESIAN_POINT('', (-6.18650910348016E-31, -3.36777869765522E-15, -55.));
#305 = VECTOR('', #306, 0.75);
#306 = DIRECTION('', (0.75, -1.37772764904081E-16, 0.));
#307 = CARTESIAN_POINT('', (-6.18650910348016E-31, -3.36777869765522E-15, -55.));
#308 = CARTESIAN_POINT('', (0.75, -3.5055514625593E-15, -55.));
#309 = TRIMMED_CURVE('cutting part line', #310, (#314), (#315), .T., .CARTESIAN.);
#310 = LINE('', #311, #312);
#311 = CARTESIAN_POINT('', (0.75, -3.5055514625593E-15, -55.));
#312 = VECTOR('', #313, 1.25);
#313 = DIRECTION('', (0., -7.65404249467103E-17, -1.25));
#314 = CARTESIAN_POINT('', (0.75, -3.5055514625593E-15, -55.));
#315 = CARTESIAN_POINT('', (0.75, -3.58209188750601E-15, -56.25));
#316 = TRIMMED_CURVE('cutting part line', #317, (#322), (#323), .T., .CARTESIAN.);
#317 = CIRCLE('', #318, 0.749999999999993);
#318 = AXIS2_PLACEMENT_3D('', #319, #320, #321);
#319 = CARTESIAN_POINT('', (3.99680288865056E-15, -3.44431912260194E-15, -56.25));
#320 = DIRECTION('', (1.83697019872096E-16, 1., -6.12323399573604E-17));
#321 = DIRECTION('', (1., -1.83697019872096E-16, 9.47390314346805E-15));
#322 = CARTESIAN_POINT('', (0.749999999999997, -3.58209188750601E-15, -56.25));
#323 = CARTESIAN_POINT('', (-1.76120349956928E-16, -3.49024337756996E-15, -57.));
#324 = TRIMMED_CURVE('cutting part line', #325, (#329), (#330), .T., .CARTESIAN.);
#325 = LINE('', #326, #327);
#326 = CARTESIAN_POINT('', (-6.41147307087945E-31, -3.49024337756996E-15, -57.));
#327 = VECTOR('', #328, 2.);
#328 = DIRECTION('', (2.24963967399291E-32, 1.2246467991474E-16, 2.));
#329 = CARTESIAN_POINT('', (-6.41147307087945E-31, -3.49024337756996E-15, -57.));
#330 = CARTESIAN_POINT('', (-6.18650910348016E-31, -3.36777869765522E-15, -55.));
#331 = COMPOSITE_CURVE('cutting part line', (#332, #333, #334, #335), .U.);
#332 = COMPOSITE_CURVE_SEGMENT(.CONTINUOUS., .T., #302);
#333 = COMPOSITE_CURVE_SEGMENT(.CONTINUOUS., .T., #309);
#334 = COMPOSITE_CURVE_SEGMENT(.CONTINUOUS., .T., #316);
#335 = COMPOSITE_CURVE_SEGMENT(.CONTINUOUS., .T., #324);
#336 = GEOMETRIC_SET('', (#331, #374));
#337 = PRESENTATION_STYLE_ASSIGNMENT((#338));
#338 = CURVE_STYLE('', #340, POSITIVE_LENGTH_MEASURE(1.E-6), #339);
#339 = COLOUR_RGB('', 0., 0., 1.);
#340 = DRAUGHTING_PRE_DEFINED_CURVE_FONT('continuous');
#341 = STYLED_ITEM('', (#337), #331);
#342 = PRESENTATION_STYLE_ASSIGNMENT((#343));
#343 = CURVE_STYLE('', #345, POSITIVE_LENGTH_MEASURE(1.E-6), #344);
#344 = COLOUR_RGB('', 0., 0., 1.);
#345 = DRAUGHTING_PRE_DEFINED_CURVE_FONT('continuous');
#346 = OVER_RIDING_STYLED_ITEM('', (#342), #302, #341);
#347 = PRESENTATION_STYLE_ASSIGNMENT((#348));
#348 = CURVE_STYLE('', #350, POSITIVE_LENGTH_MEASURE(1.E-6), #349);
#349 = COLOUR_RGB('', 0., 0., 1.);
#350 = DRAUGHTING_PRE_DEFINED_CURVE_FONT('continuous');
#351 = OVER_RIDING_STYLED_ITEM('', (#347), #309, #341);
#352 = PRESENTATION_STYLE_ASSIGNMENT((#353));
#353 = CURVE_STYLE('', #355, POSITIVE_LENGTH_MEASURE(1.E-6), #354);
#354 = COLOUR_RGB('', 0., 0., 1.);
#355 = DRAUGHTING_PRE_DEFINED_CURVE_FONT('continuous');
#356 = OVER_RIDING_STYLED_ITEM('', (#352), #316, #341);
#357 = PRESENTATION_STYLE_ASSIGNMENT((#358));
#358 = CURVE_STYLE('', #360, POSITIVE_LENGTH_MEASURE(1.E-6), #359);
#359 = COLOUR_RGB('', 0., 0., 1.);
#360 = DRAUGHTING_PRE_DEFINED_CURVE_FONT('continuous');
#361 = OVER_RIDING_STYLED_ITEM('', (#357), #324, #341);
#362 = AXIS2_PLACEMENT_3D('CIP', #363, #364, #365);
#363 = CARTESIAN_POINT('', (2.13715769029315E-31, 3.49024337756996E-15, -57.));
#364 = DIRECTION('', (-3.74939945665465E-33, -6.12323399573677E-17, 1.));
#365 = DIRECTION('', (1., -6.12323399573677E-17, 0.));
#366 = AXIS2_PLACEMENT_3D('MCS', #367, #368, #369);
#367 = CARTESIAN_POINT('', (1.34978380439567E-31, 2.20436423846524E-15, -36.));
#368 = DIRECTION('', (-3.74939945665465E-33, -6.12323399573677E-17, 1.));
#369 = DIRECTION('', (1., -6.12323399573677E-17, 0.));
#370 = AXIS2_PLACEMENT_3D('PCS', #371, #372, #373);
#371 = CARTESIAN_POINT('', (0., 0., 0.));
#372 = DIRECTION('', (0., 0., 1.));
#373 = DIRECTION('', (1., 0., 0.));
#374 = CARTESIAN_POINT('CRP', (0.75, 0., -57.));
#375 = (
   GEOMETRIC_REPRESENTATION_CONTEXT (3)
   GLOBAL_UNCERTAINTY_ASSIGNED_CONTEXT ((#377))
   GLOBAL_UNIT_ASSIGNED_CONTEXT ((#376, #378, #379))
   REPRESENTATION_CONTEXT ('', '3D')
);
#376 = (
   LENGTH_UNIT ()
   NAMED_UNIT (*)
   SI_UNIT (.MILLI., .METRE.)
);
#377 = UNCERTAINTY_MEASURE_WITH_UNIT(LENGTH_MEASURE(1.E-6), #376, 'DISTANCE_ACCURACY_VALUE', '');
#378 = (
   NAMED_UNIT (*)
   SI_UNIT ($, .STERADIAN.)
   SOLID_ANGLE_UNIT ()
);
#379 = (
   NAMED_UNIT (*)
   PLANE_ANGLE_UNIT ()
   SI_UNIT ($, .RADIAN.)
);
#380 = SHAPE_REPRESENTATION('', (), #375);
#381 = PRODUCT_DEFINITION_SHAPE('', '', #382);
#382 = PRODUCT_DEFINITION('', '', #385, #389);
#383 = APPLICATION_CONTEXT('configuration controlled 3D designs of mechanical parts and assemblies');
#384 = APPLICATION_PROTOCOL_DEFINITION('International Standard', 'automotive_design', 2002, #383);
#385 = PRODUCT_DEFINITION_FORMATION_WITH_SPECIFIED_SOURCE('', '', #386, .NOT_KNOWN.);
#386 = PRODUCT('EmptyName', 'EmptyName', '', (#387));
#387 = PRODUCT_CONTEXT('', #383, 'mechanical');
#388 = PRODUCT_RELATED_PRODUCT_CATEGORY('detail', '', (#386));
#389 = PRODUCT_DEFINITION_CONTEXT('part definition', #383, 'design');
#390 = SHAPE_DEFINITION_REPRESENTATION(#381, #380);
#391 = CONSTRUCTIVE_GEOMETRY_REPRESENTATION('supplemental geometry', (#362, #366, #370), #375);
#392 = CONSTRUCTIVE_GEOMETRY_REPRESENTATION_RELATIONSHIP('', '', #380, #391);
#393 = SHAPE_REPRESENTATION_RELATIONSHIP('', '', #380, #394);
#394 = SHAPE_REPRESENTATION('', (#336), #375);
#395 = SHAPE_REPRESENTATION_RELATIONSHIP('', '', #380, #396);
#396 = ADVANCED_BREP_SHAPE_REPRESENTATION('', (#1, #194), #375);
ENDSEC;
END-ISO-10303-21;
