ISO-10303-21;
HEADER;
FILE_DESCRIPTION(('STEP'), '1');
FILE_NAME('C:\\Users\\ds2002\\OneDrive - Sandvik\\HomeShare\\Documents\\Batchrepair\\CorSRT2\\NEW_MILBN_SLD\\Output2\\MOD000000000000000020084639900000.stp', '2018-11-23T12:39:35', (''), (''), 'Express v3.0.0.0', 'Express Tool', 'Unknown');
FILE_SCHEMA(('AUTOMOTIVE_DESIGN'));
ENDSEC;

DATA;
#1 = MANIFOLD_SOLID_BREP('NOCUT', #2);
#2 = CLOSED_SHELL('', (#3, #50, #97, #106, #137, #176));
#3 = ADVANCED_FACE('', (#4), #31, .T.);
#4 = FACE_OUTER_BOUND('', #5, .T.);
#5 = EDGE_LOOP('', (#6, #16, #23, #24));
#6 = ORIENTED_EDGE('', *, *, #7, .F.);
#7 = EDGE_CURVE('', #8, #10, #12, .T.);
#8 = VERTEX_POINT('', #9);
#9 = CARTESIAN_POINT('', (-3., 1.84554272631506E-15, -27.14));
#10 = VERTEX_POINT('', #11);
#11 = CARTESIAN_POINT('', (-0.5, 2.41867742831602E-15, -39.));
#12 = LINE('', #13, #14);
#13 = CARTESIAN_POINT('', (-3., 1.84554272631506E-15, -27.14));
#14 = VECTOR('', #15, 12.1206270464857);
#15 = DIRECTION('', (2.5, 5.7313470200096E-16, -11.86));
#16 = ORIENTED_EDGE('', *, *, #17, .T.);
#17 = EDGE_CURVE('', #8, #8, #18, .T.);
#18 = CIRCLE('', #19, 3.);
#19 = AXIS2_PLACEMENT_3D('', #20, #21, #22);
#20 = CARTESIAN_POINT('', (-2.35922392732846E-16, 3.33066907387547E-16, -27.14));
#21 = DIRECTION('', (-2.03206081512569E-30, -4.03059828731664E-15, -1.));
#22 = DIRECTION('', (-1., 5.04158606309171E-16, 0.));
#23 = ORIENTED_EDGE('', *, *, #7, .T.);
#24 = ORIENTED_EDGE('', *, *, #25, .F.);
#25 = EDGE_CURVE('', #10, #10, #26, .T.);
#26 = CIRCLE('', #27, 0.5);
#27 = AXIS2_PLACEMENT_3D('', #28, #29, #30);
#28 = CARTESIAN_POINT('', (1.31838984174237E-16, 1.97064586870965E-15, -39.));
#29 = DIRECTION('', (0., 0., -1.));
#30 = DIRECTION('', (-1., 8.96063119212734E-16, 0.));
#31 = (
   BOUNDED_SURFACE ()
   B_SPLINE_SURFACE (2, 1, ((#32, #33), (#34, #35), (#36, #37), (#38, #39), (#40, #41), (#42, #43), (#44, #45), (#46, #47), (#48, #49)), .UNSPECIFIED., .T., .F., .U.)
   B_SPLINE_SURFACE_WITH_KNOTS ((3, 2, 2, 2, 3), (2, 2), (0., 0.25, 0.5, 0.75, 1.), (0., 1.), .UNSPECIFIED.)
   GEOMETRIC_REPRESENTATION_ITEM ()
   RATIONAL_B_SPLINE_SURFACE (((1., 1.), (0.707106781186548, 0.707106781186548), (1., 1.), (0.707106781186548, 0.707106781186548), (1., 1.), (0.707106781186548, 0.707106781186548), (1., 1.), (0.707106781186548, 0.707106781186548), (1., 1.)))
   REPRESENTATION_ITEM ('')
   SURFACE ()
);
#32 = CARTESIAN_POINT('', (-3., 1.84554272631506E-15, -27.14));
#33 = CARTESIAN_POINT('', (-0.500000000000013, 2.26435853528768E-15, -39.));
#34 = CARTESIAN_POINT('', (-3., 3., -27.14));
#35 = CARTESIAN_POINT('', (-0.500000000000013, 0.500000000000002, -39.));
#36 = CARTESIAN_POINT('', (8.84689589205348E-16, 3., -27.14));
#37 = CARTESIAN_POINT('', (-1.32962423403185E-14, 0.500000000000002, -39.));
#38 = CARTESIAN_POINT('', (3., 3., -27.14));
#39 = CARTESIAN_POINT('', (0.499999999999986, 0.500000000000002, -39.));
#40 = CARTESIAN_POINT('', (3., 1.51945347991707E-15, -27.14));
#41 = CARTESIAN_POINT('', (0.499999999999986, 2.21001032755468E-15, -39.));
#42 = CARTESIAN_POINT('', (3., -3., -27.14));
#43 = CARTESIAN_POINT('', (0.499999999999986, -0.499999999999997, -39.));
#44 = CARTESIAN_POINT('', (9.25994382551562E-16, -3., -27.14));
#45 = CARTESIAN_POINT('', (-1.32893582080941E-14, -0.499999999999997, -39.));
#46 = CARTESIAN_POINT('', (-3., -3., -27.14));
#47 = CARTESIAN_POINT('', (-0.500000000000013, -0.499999999999997, -39.));
#48 = CARTESIAN_POINT('', (-3., 1.84554272631506E-15, -27.14));
#49 = CARTESIAN_POINT('', (-0.500000000000013, 2.26435853528768E-15, -39.));
#50 = ADVANCED_FACE('', (#51), #78, .T.);
#51 = FACE_OUTER_BOUND('', #52, .T.);
#52 = EDGE_LOOP('', (#53, #63, #70, #71));
#53 = ORIENTED_EDGE('', *, *, #54, .T.);
#54 = EDGE_CURVE('', #55, #57, #59, .T.);
#55 = VERTEX_POINT('', #56);
#56 = CARTESIAN_POINT('', (-3., 2.02066721859313E-16, -0.300000000000001));
#57 = VERTEX_POINT('', #58);
#58 = CARTESIAN_POINT('', (-2.7, 1.65327317884893E-16, 0.));
#59 = LINE('', #60, #61);
#60 = CARTESIAN_POINT('', (-3., 2.02066721859313E-16, -0.300000000000001));
#61 = VECTOR('', #62, 0.424264068711929);
#62 = DIRECTION('', (0.3, -3.673940397442E-17, 0.300000000000001));
#63 = ORIENTED_EDGE('', *, *, #64, .T.);
#64 = EDGE_CURVE('', #57, #57, #65, .T.);
#65 = CIRCLE('', #66, 2.7);
#66 = AXIS2_PLACEMENT_3D('', #67, #68, #69);
#67 = CARTESIAN_POINT('', (6.24500451351651E-17, -1.88737914186277E-15, -1.07852076885685E-31));
#68 = DIRECTION('', (6.60738625565492E-33, 6.12323399573678E-17, -1.));
#69 = DIRECTION('', (-1., 7.60261651758392E-16, 3.99452136613649E-32));
#70 = ORIENTED_EDGE('', *, *, #54, .F.);
#71 = ORIENTED_EDGE('', *, *, #72, .F.);
#72 = EDGE_CURVE('', #55, #55, #73, .T.);
#73 = CIRCLE('', #74, 3.);
#74 = AXIS2_PLACEMENT_3D('', #75, #76, #77);
#75 = CARTESIAN_POINT('', (-6.10622663543836E-16, -1.0547118733939E-15, -0.300000000000001));
#76 = DIRECTION('', (0., 0., -1.));
#77 = DIRECTION('', (-1., 1.73996838588267E-16, 0.));
#78 = (
   BOUNDED_SURFACE ()
   B_SPLINE_SURFACE (1, 2, ((#79, #80, #81, #82, #83, #84, #85, #86, #87), (#88, #89, #90, #91, #92, #93, #94, #95, #96)), .UNSPECIFIED., .F., .T., .U.)
   B_SPLINE_SURFACE_WITH_KNOTS ((2, 2), (3, 2, 2, 2, 3), (0., 1.), (0., 0.25, 0.5, 0.75, 1.), .UNSPECIFIED.)
   GEOMETRIC_REPRESENTATION_ITEM ()
   RATIONAL_B_SPLINE_SURFACE (((1., 0.707106781186548, 1., 0.707106781186548, 1., 0.707106781186548, 1., 0.707106781186548, 1.), (1., 0.707106781186548, 1., 0.707106781186548, 1., 0.707106781186548, 1., 0.707106781186548, 1.)))
   REPRESENTATION_ITEM ('')
   SURFACE ()
);
#79 = CARTESIAN_POINT('', (-3., 1.49129302665284E-15, -0.300000000000001));
#80 = CARTESIAN_POINT('', (-3., 3., -0.299999999999989));
#81 = CARTESIAN_POINT('', (2.34149119846292E-15, 3., -0.299999999999989));
#82 = CARTESIAN_POINT('', (3., 3., -0.299999999999989));
#83 = CARTESIAN_POINT('', (3., -1.34594359183367E-15, -0.300000000000001));
#84 = CARTESIAN_POINT('', (3., -3., -0.300000000000013));
#85 = CARTESIAN_POINT('', (-1.28351380279387E-16, -3., -0.300000000000013));
#86 = CARTESIAN_POINT('', (-3., -3., -0.300000000000013));
#87 = CARTESIAN_POINT('', (-3., 1.49129302665284E-15, -0.300000000000001));
#88 = CARTESIAN_POINT('', (-2.7, 1.65327317884893E-16, -2.18952885050753E-47));
#89 = CARTESIAN_POINT('', (-2.7, 2.7, 1.04916075827077E-14));
#90 = CARTESIAN_POINT('', (2.19962936753859E-15, 2.7, 1.04916075827077E-14));
#91 = CARTESIAN_POINT('', (2.7, 2.7, 1.04916075827077E-14));
#92 = CARTESIAN_POINT('', (2.7, -2.38818563875297E-15, 1.12461399303429E-30));
#93 = CARTESIAN_POINT('', (2.7, -2.7, -1.04916075827077E-14));
#94 = CARTESIAN_POINT('', (-2.32289533294833E-17, -2.7, -1.04916075827077E-14));
#95 = CARTESIAN_POINT('', (-2.7, -2.7, -1.04916075827077E-14));
#96 = CARTESIAN_POINT('', (-2.7, 1.65327317884893E-16, -2.18952885050753E-47));
#97 = ADVANCED_FACE('', (#98), #101, .T.);
#98 = FACE_OUTER_BOUND('', #99, .T.);
#99 = EDGE_LOOP('', (#100));
#100 = ORIENTED_EDGE('', *, *, #64, .F.);
#101 = B_SPLINE_SURFACE_WITH_KNOTS('', 1, 1, ((#102, #103), (#104, #105)), .UNSPECIFIED., .F., .F., .U., (2, 2), (2, 2), (1.50021428024809, 6.90021428024809), (1.50021428024809, 6.90021428024809), .UNSPECIFIED.);
#102 = CARTESIAN_POINT('', (2.7, -2.7, -3.7180409966854E-15));
#103 = CARTESIAN_POINT('', (-2.7, -2.7, 3.38738636091559E-15));
#104 = CARTESIAN_POINT('', (2.7, 2.7, -3.38738636091562E-15));
#105 = CARTESIAN_POINT('', (-2.7, 2.7, 3.71804099668537E-15));
#106 = ADVANCED_FACE('', (#107), #118, .T.);
#107 = FACE_OUTER_BOUND('', #108, .T.);
#108 = EDGE_LOOP('', (#109, #115, #116, #117));
#109 = ORIENTED_EDGE('', *, *, #110, .T.);
#110 = EDGE_CURVE('', #8, #55, #111, .T.);
#111 = LINE('', #112, #113);
#112 = CARTESIAN_POINT('', (-3., 1.84554272631506E-15, -27.14));
#113 = VECTOR('', #114, 26.84);
#114 = DIRECTION('', (0., -1.64347600445575E-15, 26.84));
#115 = ORIENTED_EDGE('', *, *, #72, .T.);
#116 = ORIENTED_EDGE('', *, *, #110, .F.);
#117 = ORIENTED_EDGE('', *, *, #17, .F.);
#118 = (
   BOUNDED_SURFACE ()
   B_SPLINE_SURFACE (1, 2, ((#119, #120, #121, #122, #123, #124, #125, #126, #127), (#128, #129, #130, #131, #132, #133, #134, #135, #136)), .UNSPECIFIED., .F., .T., .U.)
   B_SPLINE_SURFACE_WITH_KNOTS ((2, 2), (3, 2, 2, 2, 3), (0., 1.), (0., 4.7123889803847, 9.4247779607694, 14.1371669411541, 18.8495559215388), .UNSPECIFIED.)
   GEOMETRIC_REPRESENTATION_ITEM ()
   RATIONAL_B_SPLINE_SURFACE (((1., 0.707106781186548, 1., 0.707106781186548, 1., 0.707106781186548, 1., 0.707106781186548, 1.), (1., 0.707106781186548, 1., 0.707106781186548, 1., 0.707106781186548, 1., 0.707106781186548, 1.)))
   REPRESENTATION_ITEM ('')
   SURFACE ()
);
#119 = CARTESIAN_POINT('', (-3., 1.75637895633453E-15, -27.14));
#120 = CARTESIAN_POINT('', (-3., 3., -27.14));
#121 = CARTESIAN_POINT('', (3.25189426120798E-15, 3., -27.14));
#122 = CARTESIAN_POINT('', (3., 3., -27.14));
#123 = CARTESIAN_POINT('', (3., -2.05511873136542E-15, -27.14));
#124 = CARTESIAN_POINT('', (3., -3., -27.14));
#125 = CARTESIAN_POINT('', (-1.92209386747767E-16, -3., -27.14));
#126 = CARTESIAN_POINT('', (-3., -3., -27.14));
#127 = CARTESIAN_POINT('', (-3., 1.75637895633453E-15, -27.14));
#128 = CARTESIAN_POINT('', (-3., 2.02066721859313E-16, -0.300000000000001));
#129 = CARTESIAN_POINT('', (-3., 3., -0.300000000000001));
#130 = CARTESIAN_POINT('', (3.25189426120798E-15, 3., -0.300000000000001));
#131 = CARTESIAN_POINT('', (3., 3., -0.300000000000001));
#132 = CARTESIAN_POINT('', (3., -3.60943096584064E-15, -0.300000000000001));
#133 = CARTESIAN_POINT('', (3., -3., -0.300000000000001));
#134 = CARTESIAN_POINT('', (-1.92209386747768E-16, -3., -0.300000000000001));
#135 = CARTESIAN_POINT('', (-3., -3., -0.300000000000001));
#136 = CARTESIAN_POINT('', (-3., 2.02066721859313E-16, -0.300000000000001));
#137 = ADVANCED_FACE('', (#138), #157, .T.);
#138 = FACE_OUTER_BOUND('', #139, .T.);
#139 = EDGE_LOOP('', (#140, #149, #155, #156));
#140 = ORIENTED_EDGE('', *, *, #141, .F.);
#141 = EDGE_CURVE('', #142, #142, #144, .T.);
#142 = VERTEX_POINT('', #143);
#143 = CARTESIAN_POINT('', (-0.5, 2.73708559609433E-15, -44.2));
#144 = CIRCLE('', #145, 0.5);
#145 = AXIS2_PLACEMENT_3D('', #146, #147, #148);
#146 = CARTESIAN_POINT('', (-8.15320033709099E-17, 2.80331313717852E-15, -44.2));
#147 = DIRECTION('', (-6.40647872801114E-30, 4.83671794477999E-14, -1.));
#148 = DIRECTION('', (-1., -1.32455082168381E-16, 0.));
#149 = ORIENTED_EDGE('', *, *, #150, .F.);
#150 = EDGE_CURVE('', #10, #142, #151, .T.);
#151 = LINE('', #152, #153);
#152 = CARTESIAN_POINT('', (-0.5, 2.41867742831602E-15, -39.));
#153 = VECTOR('', #154, 5.2);
#154 = DIRECTION('', (0., 3.1840816777831E-16, -5.2));
#155 = ORIENTED_EDGE('', *, *, #25, .T.);
#156 = ORIENTED_EDGE('', *, *, #150, .T.);
#157 = (
   BOUNDED_SURFACE ()
   B_SPLINE_SURFACE (2, 1, ((#158, #159), (#160, #161), (#162, #163), (#164, #165), (#166, #167), (#168, #169), (#170, #171), (#172, #173), (#174, #175)), .UNSPECIFIED., .T., .F., .U.)
   B_SPLINE_SURFACE_WITH_KNOTS ((3, 2, 2, 2, 3), (2, 2), (0., 0.785398163397447, 1.5707963267949, 2.35619449019234, 3.14159265358979), (0., 0.945454545454545), .UNSPECIFIED.)
   GEOMETRIC_REPRESENTATION_ITEM ()
   RATIONAL_B_SPLINE_SURFACE (((1., 1.), (0.707106781186548, 0.707106781186548), (1., 1.), (0.707106781186548, 0.707106781186548), (1., 1.), (0.707106781186548, 0.707106781186548), (1., 1.), (0.707106781186548, 0.707106781186548), (1., 1.)))
   REPRESENTATION_ITEM ('')
   SURFACE ()
);
#158 = CARTESIAN_POINT('', (-0.5, 2.41867742831602E-15, -39.));
#159 = CARTESIAN_POINT('', (-0.5, 3.2652224845927E-15, -44.2));
#160 = CARTESIAN_POINT('', (-0.5, 0.500000000000002, -39.));
#161 = CARTESIAN_POINT('', (-0.5, 0.500000000000003, -44.2));
#162 = CARTESIAN_POINT('', (3.74047302728263E-16, 0.500000000000002, -39.));
#163 = CARTESIAN_POINT('', (3.74047302728264E-16, 0.500000000000003, -44.2));
#164 = CARTESIAN_POINT('', (0.5, 0.500000000000002, -39.));
#165 = CARTESIAN_POINT('', (0.5, 0.500000000000003, -44.2));
#166 = CARTESIAN_POINT('', (0.5, 1.94466913206383E-15, -39.));
#167 = CARTESIAN_POINT('', (0.5, 2.79121418834051E-15, -44.2));
#168 = CARTESIAN_POINT('', (0.5, -0.499999999999998, -39.));
#169 = CARTESIAN_POINT('', (0.5, -0.499999999999997, -44.2));
#170 = CARTESIAN_POINT('', (-3.87286535665599E-17, -0.499999999999998, -39.));
#171 = CARTESIAN_POINT('', (-3.87286535665595E-17, -0.499999999999997, -44.2));
#172 = CARTESIAN_POINT('', (-0.5, -0.499999999999998, -39.));
#173 = CARTESIAN_POINT('', (-0.5, -0.499999999999997, -44.2));
#174 = CARTESIAN_POINT('', (-0.5, 2.41867742831602E-15, -39.));
#175 = CARTESIAN_POINT('', (-0.5, 3.2652224845927E-15, -44.2));
#176 = ADVANCED_FACE('', (#177), #180, .T.);
#177 = FACE_OUTER_BOUND('', #178, .T.);
#178 = EDGE_LOOP('', (#179));
#179 = ORIENTED_EDGE('', *, *, #141, .T.);
#180 = B_SPLINE_SURFACE_WITH_KNOTS('', 1, 1, ((#181, #182), (#183, #184)), .UNSPECIFIED., .F., .F., .U., (2, 2), (2, 2), (48.1863516996643, 49.1863516996643), (42.3996814276645, 43.3996814276645), .UNSPECIFIED.);
#181 = CARTESIAN_POINT('', (-0.499999999999998, 0.5, -44.2));
#182 = CARTESIAN_POINT('', (-0.499999999999998, -0.5, -44.2));
#183 = CARTESIAN_POINT('', (0.500000000000002, 0.5, -44.2));
#184 = CARTESIAN_POINT('', (0.500000000000002, -0.5, -44.2));
#185 = DRAUGHTING_MODEL('', (#193, #301, #341, #346, #351, #356, #361), #375);
#186 = PRESENTATION_STYLE_ASSIGNMENT((#187));
#187 = SURFACE_STYLE_USAGE(.POSITIVE., #188);
#188 = SURFACE_SIDE_STYLE('', (#189));
#189 = SURFACE_STYLE_FILL_AREA(#190);
#190 = FILL_AREA_STYLE('', (#191));
#191 = FILL_AREA_STYLE_COLOUR('', #192);
#192 = COLOUR_RGB('', 0.50196078431373, 0.50196078431373, 0.50196078431373);
#193 = STYLED_ITEM('', (#186), #1);
#194 = MANIFOLD_SOLID_BREP('CUT', #195);
#195 = CLOSED_SHELL('', (#196, #213, #252));
#196 = ADVANCED_FACE('', (#197), #208, .T.);
#197 = FACE_OUTER_BOUND('', #198, .T.);
#198 = EDGE_LOOP('', (#199));
#199 = ORIENTED_EDGE('', *, *, #200, .F.);
#200 = EDGE_CURVE('', #201, #201, #203, .T.);
#201 = VERTEX_POINT('', #202);
#202 = CARTESIAN_POINT('', (-0.5, 2.73708559609433E-15, -44.2));
#203 = CIRCLE('', #204, 0.5);
#204 = AXIS2_PLACEMENT_3D('', #205, #206, #207);
#205 = CARTESIAN_POINT('', (-8.15320033709099E-17, 2.80331313717852E-15, -44.2));
#206 = DIRECTION('', (-6.40647872801114E-30, 4.83671794477999E-14, -1.));
#207 = DIRECTION('', (-1., -1.32455082168381E-16, 0.));
#208 = B_SPLINE_SURFACE_WITH_KNOTS('', 1, 1, ((#209, #210), (#211, #212)), .UNSPECIFIED., .F., .F., .U., (2, 2), (2, 2), (42.3996814276645, 43.3996814276645), (48.1863516996643, 49.1863516996643), .UNSPECIFIED.);
#209 = CARTESIAN_POINT('', (-0.5, 0.499999999999997, -44.2));
#210 = CARTESIAN_POINT('', (0.5, 0.499999999999997, -44.2));
#211 = CARTESIAN_POINT('', (-0.5, -0.500000000000003, -44.2));
#212 = CARTESIAN_POINT('', (0.5, -0.500000000000003, -44.2));
#213 = ADVANCED_FACE('', (#214), #233, .T.);
#214 = FACE_OUTER_BOUND('', #215, .T.);
#215 = EDGE_LOOP('', (#216, #217, #225, #232));
#216 = ORIENTED_EDGE('', *, *, #200, .T.);
#217 = ORIENTED_EDGE('', *, *, #218, .T.);
#218 = EDGE_CURVE('', #201, #219, #221, .T.);
#219 = VERTEX_POINT('', #220);
#220 = CARTESIAN_POINT('', (-0.5, 2.75545529808154E-15, -44.5));
#221 = LINE('', #222, #223);
#222 = CARTESIAN_POINT('', (-0.5, 2.73708559609433E-15, -44.2));
#223 = VECTOR('', #224, 0.299999999999997);
#224 = DIRECTION('', (0., 1.836970198721E-17, -0.299999999999997));
#225 = ORIENTED_EDGE('', *, *, #226, .F.);
#226 = EDGE_CURVE('', #219, #219, #227, .T.);
#227 = CIRCLE('', #228, 0.5);
#228 = AXIS2_PLACEMENT_3D('', #229, #230, #231);
#229 = CARTESIAN_POINT('', (-8.15320033709099E-17, 2.85882428840978E-15, -44.5));
#230 = DIRECTION('', (0., 0., -1.));
#231 = DIRECTION('', (-1., -2.06737980656476E-16, 0.));
#232 = ORIENTED_EDGE('', *, *, #218, .F.);
#233 = (
   BOUNDED_SURFACE ()
   B_SPLINE_SURFACE (2, 1, ((#234, #235), (#236, #237), (#238, #239), (#240, #241), (#242, #243), (#244, #245), (#246, #247), (#248, #249), (#250, #251)), .UNSPECIFIED., .T., .F., .U.)
   B_SPLINE_SURFACE_WITH_KNOTS ((3, 2, 2, 2, 3), (2, 2), (0., 0.785398163397448, 1.5707963267949, 2.35619449019234, 3.14159265358979), (0.945454545454545, 1.), .UNSPECIFIED.)
   GEOMETRIC_REPRESENTATION_ITEM ()
   RATIONAL_B_SPLINE_SURFACE (((1., 1.), (0.707106781186548, 0.707106781186548), (1., 1.), (0.707106781186548, 0.707106781186548), (1., 1.), (0.707106781186548, 0.707106781186548), (1., 1.), (0.707106781186548, 0.707106781186548), (1., 1.)))
   REPRESENTATION_ITEM ('')
   SURFACE ()
);
#234 = CARTESIAN_POINT('', (-0.5, 2.73708559609433E-15, -44.2));
#235 = CARTESIAN_POINT('', (-0.5, 2.44565205213023E-15, -44.5));
#236 = CARTESIAN_POINT('', (-0.5, 0.500000000000003, -44.2));
#237 = CARTESIAN_POINT('', (-0.5, 0.500000000000002, -44.5));
#238 = CARTESIAN_POINT('', (-2.0786601352539E-16, 0.500000000000003, -44.2));
#239 = CARTESIAN_POINT('', (-2.0786601352539E-16, 0.500000000000003, -44.5));
#240 = CARTESIAN_POINT('', (0.5, 0.500000000000003, -44.2));
#241 = CARTESIAN_POINT('', (0.5, 0.500000000000003, -44.5));
#242 = CARTESIAN_POINT('', (0.5, 3.31935107683888E-15, -44.2));
#243 = CARTESIAN_POINT('', (0.5, 3.02791753287478E-15, -44.5));
#244 = CARTESIAN_POINT('', (0.5, -0.499999999999997, -44.2));
#245 = CARTESIAN_POINT('', (0.5, -0.499999999999997, -44.5));
#246 = CARTESIAN_POINT('', (4.35631807176531E-16, -0.499999999999997, -44.2));
#247 = CARTESIAN_POINT('', (4.35631807176531E-16, -0.499999999999997, -44.5));
#248 = CARTESIAN_POINT('', (-0.5, -0.499999999999997, -44.2));
#249 = CARTESIAN_POINT('', (-0.5, -0.499999999999998, -44.5));
#250 = CARTESIAN_POINT('', (-0.5, 2.73708559609433E-15, -44.2));
#251 = CARTESIAN_POINT('', (-0.5, 2.44565205213023E-15, -44.5));
#252 = ADVANCED_FACE('', (#253), #266, .T.);
#253 = FACE_OUTER_BOUND('', #254, .T.);
#254 = EDGE_LOOP('', (#255, #264, #265));
#255 = ORIENTED_EDGE('', *, *, #256, .F.);
#256 = EDGE_CURVE('', #219, #257, #259, .T.);
#257 = VERTEX_POINT('', #258);
#258 = CARTESIAN_POINT('', (1.4735966116731E-16, 2.75545529808154E-15, -45.));
#259 = CIRCLE('', #260, 0.499999999999991);
#260 = AXIS2_PLACEMENT_3D('', #261, #262, #263);
#261 = CARTESIAN_POINT('', (-6.82787160144471E-15, 2.72483912810285E-15, -44.5));
#262 = DIRECTION('', (-6.12323399573798E-17, -1., -6.12323399573791E-17));
#263 = DIRECTION('', (-1., 6.12323399573789E-17, 1.42108547152023E-14));
#264 = ORIENTED_EDGE('', *, *, #226, .T.);
#265 = ORIENTED_EDGE('', *, *, #256, .T.);
#266 = (
   BOUNDED_SURFACE ()
   B_SPLINE_SURFACE (2, 2, ((#267, #268, #269), (#270, #271, #272), (#273, #274, #275), (#276, #277, #278), (#279, #280, #281), (#282, #283, #284), (#285, #286, #287), (#288, #289, #290), (#291, #292, #293)), .UNSPECIFIED., .T., .F., .U.)
   B_SPLINE_SURFACE_WITH_KNOTS ((3, 2, 2, 2, 3), (3, 3), (0., 0.25, 0.5, 0.75, 1.), (0., 1.), .UNSPECIFIED.)
   GEOMETRIC_REPRESENTATION_ITEM ()
   RATIONAL_B_SPLINE_SURFACE (((1., 0.707106781186548, 1.), (0.707106781186548, 0.5, 0.707106781186548), (1., 0.707106781186548, 1.), (0.707106781186548, 0.5, 0.707106781186548), (1., 0.707106781186548, 1.), (0.707106781186548, 0.5, 0.707106781186548), (1., 0.707106781186548, 1.), (0.707106781186548, 0.5, 0.707106781186548), (1., 0.707106781186548, 1.)))
   REPRESENTATION_ITEM ('')
   SURFACE ()
);
#267 = CARTESIAN_POINT('', (-0.5, 2.75545529808154E-15, -44.5));
#268 = CARTESIAN_POINT('', (-0.5, 2.78607146806023E-15, -45.));
#269 = CARTESIAN_POINT('', (1.4735966116731E-16, 2.75545529808154E-15, -45.));
#270 = CARTESIAN_POINT('', (-0.5, 0.499999999999995, -44.5));
#271 = CARTESIAN_POINT('', (-0.5, 0.499999999999995, -45.));
#272 = CARTESIAN_POINT('', (1.4735966116731E-16, 2.75545529808154E-15, -45.));
#273 = CARTESIAN_POINT('', (-7.71605002114483E-15, 0.499999999999995, -44.5));
#274 = CARTESIAN_POINT('', (-7.68543385116614E-15, 0.499999999999995, -45.));
#275 = CARTESIAN_POINT('', (1.4735966116731E-16, 2.75545529808154E-15, -45.));
#276 = CARTESIAN_POINT('', (0.499999999999985, 0.499999999999995, -44.5));
#277 = CARTESIAN_POINT('', (0.499999999999985, 0.499999999999995, -45.));
#278 = CARTESIAN_POINT('', (1.4735966116731E-16, 2.75545529808154E-15, -45.));
#279 = CARTESIAN_POINT('', (0.499999999999985, 2.75545529808153E-15, -44.5));
#280 = CARTESIAN_POINT('', (0.499999999999985, 2.72483912810284E-15, -45.));
#281 = CARTESIAN_POINT('', (1.4735966116731E-16, 2.75545529808154E-15, -45.));
#282 = CARTESIAN_POINT('', (0.499999999999985, -0.499999999999989, -44.5));
#283 = CARTESIAN_POINT('', (0.499999999999985, -0.499999999999989, -45.));
#284 = CARTESIAN_POINT('', (1.4735966116731E-16, 2.75545529808154E-15, -45.));
#285 = CARTESIAN_POINT('', (-7.65481768118748E-15, -0.49999999999999, -44.5));
#286 = CARTESIAN_POINT('', (-7.68543385116617E-15, -0.49999999999999, -45.));
#287 = CARTESIAN_POINT('', (1.4735966116731E-16, 2.75545529808154E-15, -45.));
#288 = CARTESIAN_POINT('', (-0.5, -0.49999999999999, -44.5));
#289 = CARTESIAN_POINT('', (-0.5, -0.49999999999999, -45.));
#290 = CARTESIAN_POINT('', (1.4735966116731E-16, 2.75545529808154E-15, -45.));
#291 = CARTESIAN_POINT('', (-0.5, 2.75545529808154E-15, -44.5));
#292 = CARTESIAN_POINT('', (-0.5, 2.78607146806023E-15, -45.));
#293 = CARTESIAN_POINT('', (1.4735966116731E-16, 2.75545529808154E-15, -45.));
#294 = PRESENTATION_STYLE_ASSIGNMENT((#295));
#295 = SURFACE_STYLE_USAGE(.POSITIVE., #296);
#296 = SURFACE_SIDE_STYLE('', (#297));
#297 = SURFACE_STYLE_FILL_AREA(#298);
#298 = FILL_AREA_STYLE('', (#299));
#299 = FILL_AREA_STYLE_COLOUR('', #300);
#300 = COLOUR_RGB('', 0.8, 0.8, 0.8);
#301 = STYLED_ITEM('', (#294), #194);
#302 = TRIMMED_CURVE('cutting part line', #303, (#307), (#308), .T., .CARTESIAN.);
#303 = LINE('', #304, #305);
#304 = CARTESIAN_POINT('', (-4.97170367952405E-31, -2.70646942611565E-15, -44.2));
#305 = VECTOR('', #306, 0.5);
#306 = DIRECTION('', (0.5, -9.18485099360474E-17, 0.));
#307 = CARTESIAN_POINT('', (-4.97170367952405E-31, -2.70646942611565E-15, -44.2));
#308 = CARTESIAN_POINT('', (0.5, -2.7983179360517E-15, -44.2));
#309 = TRIMMED_CURVE('cutting part line', #310, (#314), (#315), .T., .CARTESIAN.);
#310 = LINE('', #311, #312);
#311 = CARTESIAN_POINT('', (0.5, -2.7983179360517E-15, -44.2));
#312 = VECTOR('', #313, 0.299999999999997);
#313 = DIRECTION('', (0., -1.836970198721E-17, -0.299999999999997));
#314 = CARTESIAN_POINT('', (0.5, -2.7983179360517E-15, -44.2));
#315 = CARTESIAN_POINT('', (0.5, -2.81668763803891E-15, -44.5));
#316 = TRIMMED_CURVE('cutting part line', #317, (#322), (#323), .T., .CARTESIAN.);
#317 = CIRCLE('', #318, 0.500000000000003);
#318 = AXIS2_PLACEMENT_3D('', #319, #320, #321);
#319 = CARTESIAN_POINT('', (-6.93889390390723E-15, -2.72483912810285E-15, -44.5));
#320 = DIRECTION('', (1.83697019872118E-16, 1., -6.12323399573816E-17));
#321 = DIRECTION('', (1., -1.83697019872118E-16, 0.));
#322 = CARTESIAN_POINT('', (0.499999999999996, -2.81668763803891E-15, -44.5));
#323 = CARTESIAN_POINT('', (-3.57961888640078E-16, -2.75545529808154E-15, -45.));
#324 = TRIMMED_CURVE('cutting part line', #325, (#329), (#330), .T., .CARTESIAN.);
#325 = LINE('', #326, #327);
#326 = CARTESIAN_POINT('', (-5.06168926648376E-31, -2.75545529808154E-15, -45.));
#327 = VECTOR('', #328, 0.799999999999997);
#328 = DIRECTION('', (8.99855869597099E-33, 4.89858719658899E-17, 0.799999999999997));
#329 = CARTESIAN_POINT('', (-5.06168926648376E-31, -2.75545529808154E-15, -45.));
#330 = CARTESIAN_POINT('', (-4.97170367952405E-31, -2.70646942611565E-15, -44.2));
#331 = COMPOSITE_CURVE('cutting part line', (#332, #333, #334, #335), .U.);
#332 = COMPOSITE_CURVE_SEGMENT(.CONTINUOUS., .T., #302);
#333 = COMPOSITE_CURVE_SEGMENT(.CONTINUOUS., .T., #309);
#334 = COMPOSITE_CURVE_SEGMENT(.CONTINUOUS., .T., #316);
#335 = COMPOSITE_CURVE_SEGMENT(.CONTINUOUS., .T., #324);
#336 = GEOMETRIC_SET('', (#331, #374));
#337 = PRESENTATION_STYLE_ASSIGNMENT((#338));
#338 = CURVE_STYLE('', #340, POSITIVE_LENGTH_MEASURE(1.E-6), #339);
#339 = COLOUR_RGB('', 0., 0., 1.);
#340 = DRAUGHTING_PRE_DEFINED_CURVE_FONT('continuous');
#341 = STYLED_ITEM('', (#337), #331);
#342 = PRESENTATION_STYLE_ASSIGNMENT((#343));
#343 = CURVE_STYLE('', #345, POSITIVE_LENGTH_MEASURE(1.E-6), #344);
#344 = COLOUR_RGB('', 0., 0., 1.);
#345 = DRAUGHTING_PRE_DEFINED_CURVE_FONT('continuous');
#346 = OVER_RIDING_STYLED_ITEM('', (#342), #302, #341);
#347 = PRESENTATION_STYLE_ASSIGNMENT((#348));
#348 = CURVE_STYLE('', #350, POSITIVE_LENGTH_MEASURE(1.E-6), #349);
#349 = COLOUR_RGB('', 0., 0., 1.);
#350 = DRAUGHTING_PRE_DEFINED_CURVE_FONT('continuous');
#351 = OVER_RIDING_STYLED_ITEM('', (#347), #309, #341);
#352 = PRESENTATION_STYLE_ASSIGNMENT((#353));
#353 = CURVE_STYLE('', #355, POSITIVE_LENGTH_MEASURE(1.E-6), #354);
#354 = COLOUR_RGB('', 0., 0., 1.);
#355 = DRAUGHTING_PRE_DEFINED_CURVE_FONT('continuous');
#356 = OVER_RIDING_STYLED_ITEM('', (#352), #316, #341);
#357 = PRESENTATION_STYLE_ASSIGNMENT((#358));
#358 = CURVE_STYLE('', #360, POSITIVE_LENGTH_MEASURE(1.E-6), #359);
#359 = COLOUR_RGB('', 0., 0., 1.);
#360 = DRAUGHTING_PRE_DEFINED_CURVE_FONT('continuous');
#361 = OVER_RIDING_STYLED_ITEM('', (#357), #324, #341);
#362 = AXIS2_PLACEMENT_3D('CIP', #363, #364, #365);
#363 = CARTESIAN_POINT('', (1.68722975549459E-31, 2.75545529808154E-15, -45.));
#364 = DIRECTION('', (-3.74939945665465E-33, -6.12323399573677E-17, 1.));
#365 = DIRECTION('', (1., -6.12323399573677E-17, 0.));
#366 = AXIS2_PLACEMENT_3D('MCS', #367, #368, #369);
#367 = CARTESIAN_POINT('', (1.01758701253607E-31, 1.66184570644296E-15, -27.14));
#368 = DIRECTION('', (-3.74939945665465E-33, -6.12323399573677E-17, 1.));
#369 = DIRECTION('', (1., -6.12323399573677E-17, 0.));
#370 = AXIS2_PLACEMENT_3D('PCS', #371, #372, #373);
#371 = CARTESIAN_POINT('', (0., 0., 0.));
#372 = DIRECTION('', (0., 0., 1.));
#373 = DIRECTION('', (1., 0., 0.));
#374 = CARTESIAN_POINT('CRP', (0.5, 0., -45.));
#375 = (
   GEOMETRIC_REPRESENTATION_CONTEXT (3)
   GLOBAL_UNCERTAINTY_ASSIGNED_CONTEXT ((#377))
   GLOBAL_UNIT_ASSIGNED_CONTEXT ((#376, #378, #379))
   REPRESENTATION_CONTEXT ('', '3D')
);
#376 = (
   LENGTH_UNIT ()
   NAMED_UNIT (*)
   SI_UNIT (.MILLI., .METRE.)
);
#377 = UNCERTAINTY_MEASURE_WITH_UNIT(LENGTH_MEASURE(1.E-6), #376, 'DISTANCE_ACCURACY_VALUE', '');
#378 = (
   NAMED_UNIT (*)
   SI_UNIT ($, .STERADIAN.)
   SOLID_ANGLE_UNIT ()
);
#379 = (
   NAMED_UNIT (*)
   PLANE_ANGLE_UNIT ()
   SI_UNIT ($, .RADIAN.)
);
#380 = SHAPE_REPRESENTATION('', (), #375);
#381 = PRODUCT_DEFINITION_SHAPE('', '', #382);
#382 = PRODUCT_DEFINITION('', '', #385, #389);
#383 = APPLICATION_CONTEXT('configuration controlled 3D designs of mechanical parts and assemblies');
#384 = APPLICATION_PROTOCOL_DEFINITION('International Standard', 'automotive_design', 2002, #383);
#385 = PRODUCT_DEFINITION_FORMATION_WITH_SPECIFIED_SOURCE('', '', #386, .NOT_KNOWN.);
#386 = PRODUCT('NONE', 'R216.42-01030-HC10G 1700', '', (#387));
#387 = PRODUCT_CONTEXT('', #383, 'mechanical');
#388 = PRODUCT_RELATED_PRODUCT_CATEGORY('detail', '', (#386));
#389 = PRODUCT_DEFINITION_CONTEXT('part definition', #383, 'design');
#390 = SHAPE_DEFINITION_REPRESENTATION(#381, #380);
#391 = CONSTRUCTIVE_GEOMETRY_REPRESENTATION('supplemental geometry', (#362, #366, #370), #375);
#392 = CONSTRUCTIVE_GEOMETRY_REPRESENTATION_RELATIONSHIP('', '', #380, #391);
#393 = SHAPE_REPRESENTATION_RELATIONSHIP('', '', #380, #394);
#394 = SHAPE_REPRESENTATION('', (#336), #375);
#395 = SHAPE_REPRESENTATION_RELATIONSHIP('', '', #380, #396);
#396 = ADVANCED_BREP_SHAPE_REPRESENTATION('', (#1, #194), #375);
ENDSEC;
END-ISO-10303-21;
