ISO-10303-21;
HEADER;
FILE_DESCRIPTION(('STEP'), '1');
FILE_NAME('C:\\Users\\ds2002\\OneDrive - Sandvik\\HomeShare\\Documents\\Batchrepair\\CorSRT2\\NEW_MILBN_SLD\\Output2\\MOD000000000000000020084638400000.stp', '2018-11-23T12:39:32', (''), (''), 'Express v3.0.0.0', 'Express Tool', 'Unknown');
FILE_SCHEMA(('AUTOMOTIVE_DESIGN'));
ENDSEC;

DATA;
#1 = MANIFOLD_SOLID_BREP('NOCUT', #2);
#2 = CLOSED_SHELL('', (#3, #50, #97, #106, #137, #176));
#3 = ADVANCED_FACE('', (#4), #31, .T.);
#4 = FACE_OUTER_BOUND('', #5, .T.);
#5 = EDGE_LOOP('', (#6, #16, #23, #24));
#6 = ORIENTED_EDGE('', *, *, #7, .F.);
#7 = EDGE_CURVE('', #8, #10, #12, .T.);
#8 = VERTEX_POINT('', #9);
#9 = CARTESIAN_POINT('', (-2., 2.33907538637144E-15, -36.2));
#10 = VERTEX_POINT('', #11);
#11 = CARTESIAN_POINT('', (-0.4, 2.70646942611565E-15, -43.8));
#12 = LINE('', #13, #14);
#13 = CARTESIAN_POINT('', (-2., 2.33907538637144E-15, -36.2));
#14 = VECTOR('', #15, 7.76659513557903);
#15 = DIRECTION('', (1.6, 3.6739403974421E-16, -7.59999999999999));
#16 = ORIENTED_EDGE('', *, *, #17, .T.);
#17 = EDGE_CURVE('', #8, #8, #18, .T.);
#18 = CIRCLE('', #19, 2.);
#19 = AXIS2_PLACEMENT_3D('', #20, #21, #22);
#20 = CARTESIAN_POINT('', (5.20417042793042E-16, 4.9960036108132E-16, -36.2));
#21 = DIRECTION('', (3.55271367880049E-15, -1.15581022880031E-14, -1.));
#22 = DIRECTION('', (-1., 9.1973751264506E-16, -3.5527136788005E-15));
#23 = ORIENTED_EDGE('', *, *, #7, .T.);
#24 = ORIENTED_EDGE('', *, *, #25, .F.);
#25 = EDGE_CURVE('', #10, #10, #26, .T.);
#26 = CIRCLE('', #27, 0.399999999999996);
#27 = AXIS2_PLACEMENT_3D('', #28, #29, #30);
#28 = CARTESIAN_POINT('', (-4.33680868994202E-17, 2.81025203108243E-15, -43.8));
#29 = DIRECTION('', (0., 0., -1.));
#30 = DIRECTION('', (-1., -2.59456512416946E-16, 0.));
#31 = (
   BOUNDED_SURFACE ()
   B_SPLINE_SURFACE (2, 1, ((#32, #33), (#34, #35), (#36, #37), (#38, #39), (#40, #41), (#42, #43), (#44, #45), (#46, #47), (#48, #49)), .UNSPECIFIED., .T., .F., .U.)
   B_SPLINE_SURFACE_WITH_KNOTS ((3, 2, 2, 2, 3), (2, 2), (0., 0.25, 0.5, 0.75, 1.), (0., 1.), .UNSPECIFIED.)
   GEOMETRIC_REPRESENTATION_ITEM ()
   RATIONAL_B_SPLINE_SURFACE (((1., 1.), (0.707106781186548, 0.707106781186548), (1., 1.), (0.707106781186548, 0.707106781186548), (1., 1.), (0.707106781186548, 0.707106781186548), (1., 1.), (0.707106781186548, 0.707106781186548), (1., 1.)))
   REPRESENTATION_ITEM ('')
   SURFACE ()
);
#32 = CARTESIAN_POINT('', (-2., 2.33907538637144E-15, -36.2));
#33 = CARTESIAN_POINT('', (-0.4, 2.96165354633855E-15, -43.8));
#34 = CARTESIAN_POINT('', (-2., 2., -36.2));
#35 = CARTESIAN_POINT('', (-0.4, 0.400000000000003, -43.8));
#36 = CARTESIAN_POINT('', (8.28831925675259E-16, 2., -36.2));
#37 = CARTESIAN_POINT('', (2.10175306120059E-16, 0.400000000000003, -43.8));
#38 = CARTESIAN_POINT('', (2., 2., -36.2));
#39 = CARTESIAN_POINT('', (0.4, 0.400000000000003, -43.8));
#40 = CARTESIAN_POINT('', (2., 7.92433837483438E-16, -36.2));
#41 = CARTESIAN_POINT('', (0.4, 2.65232523656095E-15, -43.8));
#42 = CARTESIAN_POINT('', (2., -2., -36.2));
#43 = CARTESIAN_POINT('', (0.4, -0.399999999999997, -43.8));
#44 = CARTESIAN_POINT('', (-4.72880263383273E-16, -2., -36.2));
#45 = CARTESIAN_POINT('', (-5.01671316916478E-17, -0.399999999999997, -43.8));
#46 = CARTESIAN_POINT('', (-2., -2., -36.2));
#47 = CARTESIAN_POINT('', (-0.4, -0.399999999999997, -43.8));
#48 = CARTESIAN_POINT('', (-2., 2.33907538637144E-15, -36.2));
#49 = CARTESIAN_POINT('', (-0.4, 2.96165354633855E-15, -43.8));
#50 = ADVANCED_FACE('', (#51), #78, .T.);
#51 = FACE_OUTER_BOUND('', #52, .T.);
#52 = EDGE_LOOP('', (#53, #63, #70, #71));
#53 = ORIENTED_EDGE('', *, *, #54, .T.);
#54 = EDGE_CURVE('', #55, #57, #59, .T.);
#55 = VERTEX_POINT('', #56);
#56 = CARTESIAN_POINT('', (-2., 1.34711147906209E-16, -0.200000000000003));
#57 = VERTEX_POINT('', #58);
#58 = CARTESIAN_POINT('', (-1.8, 1.10218211923262E-16, 0.));
#59 = LINE('', #60, #61);
#60 = CARTESIAN_POINT('', (-2., 1.34711147906209E-16, -0.200000000000003));
#61 = VECTOR('', #62, 0.282842712474621);
#62 = DIRECTION('', (0.2, -2.4492935982947E-17, 0.200000000000003));
#63 = ORIENTED_EDGE('', *, *, #64, .T.);
#64 = EDGE_CURVE('', #57, #57, #65, .T.);
#65 = CIRCLE('', #66, 1.8);
#66 = AXIS2_PLACEMENT_3D('', #67, #68, #69);
#67 = CARTESIAN_POINT('', (-3.60822483003176E-16, -1.11022302462516E-15, -7.39557098644699E-32));
#68 = DIRECTION('', (4.30423794362901E-34, 6.12323399573678E-17, -1.));
#69 = DIRECTION('', (-1., 6.78022909193566E-16, 4.1086505480261E-32));
#70 = ORIENTED_EDGE('', *, *, #54, .F.);
#71 = ORIENTED_EDGE('', *, *, #72, .F.);
#72 = EDGE_CURVE('', #55, #55, #73, .T.);
#73 = CIRCLE('', #74, 2.);
#74 = AXIS2_PLACEMENT_3D('', #75, #76, #77);
#75 = CARTESIAN_POINT('', (2.84494650060196E-16, 5.55111512312578E-17, -0.200000000000003));
#76 = DIRECTION('', (1.38777878078145E-17, -4.5148837062514E-17, -1.));
#77 = DIRECTION('', (-1., -2.05329361491995E-16, -1.38777878078145E-17));
#78 = (
   BOUNDED_SURFACE ()
   B_SPLINE_SURFACE (1, 2, ((#79, #80, #81, #82, #83, #84, #85, #86, #87), (#88, #89, #90, #91, #92, #93, #94, #95, #96)), .UNSPECIFIED., .F., .T., .U.)
   B_SPLINE_SURFACE_WITH_KNOTS ((2, 2), (3, 2, 2, 2, 3), (0., 1.), (0., 0.25, 0.5, 0.75, 1.), .UNSPECIFIED.)
   GEOMETRIC_REPRESENTATION_ITEM ()
   RATIONAL_B_SPLINE_SURFACE (((1., 0.707106781186548, 1., 0.707106781186548, 1., 0.707106781186548, 1., 0.707106781186548, 1.), (1., 0.707106781186548, 1., 0.707106781186548, 1., 0.707106781186548, 1., 0.707106781186548, 1.)))
   REPRESENTATION_ITEM ('')
   SURFACE ()
);
#79 = CARTESIAN_POINT('', (-2., -1.02476577886459E-15, -0.200000000000003));
#80 = CARTESIAN_POINT('', (-2., 2., -0.200000000000015));
#81 = CARTESIAN_POINT('', (1.64220489059138E-16, 2., -0.200000000000015));
#82 = CARTESIAN_POINT('', (2., 2., -0.200000000000015));
#83 = CARTESIAN_POINT('', (2., -1.39484012040631E-15, -0.200000000000003));
#84 = CARTESIAN_POINT('', (2., -2., -0.199999999999991));
#85 = CARTESIAN_POINT('', (3.90755073468892E-17, -2., -0.199999999999991));
#86 = CARTESIAN_POINT('', (-2., -2., -0.199999999999991));
#87 = CARTESIAN_POINT('', (-2., -1.02476577886459E-15, -0.200000000000003));
#88 = CARTESIAN_POINT('', (-1.8, 1.10218211923262E-16, 0.));
#89 = CARTESIAN_POINT('', (-1.8, 1.8, -1.04916075827076E-14));
#90 = CARTESIAN_POINT('', (1.45716771982052E-16, 1.8, -1.04916075827076E-14));
#91 = CARTESIAN_POINT('', (1.8, 1.8, -1.04916075827076E-14));
#92 = CARTESIAN_POINT('', (1.8, -2.22848695464285E-16, -1.30334029187341E-30));
#93 = CARTESIAN_POINT('', (1.8, -1.8, 1.04916075827076E-14));
#94 = CARTESIAN_POINT('', (3.30862884410282E-17, -1.8, 1.04916075827076E-14));
#95 = CARTESIAN_POINT('', (-1.8, -1.8, 1.04916075827076E-14));
#96 = CARTESIAN_POINT('', (-1.8, 1.10218211923262E-16, 0.));
#97 = ADVANCED_FACE('', (#98), #101, .T.);
#98 = FACE_OUTER_BOUND('', #99, .T.);
#99 = EDGE_LOOP('', (#100));
#100 = ORIENTED_EDGE('', *, *, #64, .F.);
#101 = B_SPLINE_SURFACE_WITH_KNOTS('', 1, 1, ((#102, #103), (#104, #105)), .UNSPECIFIED., .F., .F., .U., (2, 2), (2, 2), (1.00014285349873, 4.60014285349873), (1.00014285349873, 4.60014285349873), .UNSPECIFIED.);
#102 = CARTESIAN_POINT('', (1.8, -1.8, 2.12060638608797E-14));
#103 = CARTESIAN_POINT('', (-1.8, -1.8, -7.21564556952433E-15));
#104 = CARTESIAN_POINT('', (1.8, 1.8, 2.14265002847262E-14));
#105 = CARTESIAN_POINT('', (-1.8, 1.8, -6.99520914567781E-15));
#106 = ADVANCED_FACE('', (#107), #118, .T.);
#107 = FACE_OUTER_BOUND('', #108, .T.);
#108 = EDGE_LOOP('', (#109, #115, #116, #117));
#109 = ORIENTED_EDGE('', *, *, #110, .T.);
#110 = EDGE_CURVE('', #8, #55, #111, .T.);
#111 = LINE('', #112, #113);
#112 = CARTESIAN_POINT('', (-2., 2.33907538637144E-15, -36.2));
#113 = VECTOR('', #114, 36.);
#114 = DIRECTION('', (0., -2.20436423846523E-15, 36.));
#115 = ORIENTED_EDGE('', *, *, #72, .T.);
#116 = ORIENTED_EDGE('', *, *, #110, .F.);
#117 = ORIENTED_EDGE('', *, *, #17, .F.);
#118 = (
   BOUNDED_SURFACE ()
   B_SPLINE_SURFACE (1, 2, ((#119, #120, #121, #122, #123, #124, #125, #126, #127), (#128, #129, #130, #131, #132, #133, #134, #135, #136)), .UNSPECIFIED., .F., .T., .U.)
   B_SPLINE_SURFACE_WITH_KNOTS ((2, 2), (3, 2, 2, 2, 3), (0., 1.), (0., 3.1415926535898, 6.2831853071796, 9.4247779607694, 12.5663706143592), .UNSPECIFIED.)
   GEOMETRIC_REPRESENTATION_ITEM ()
   RATIONAL_B_SPLINE_SURFACE (((1., 0.707106781186548, 1., 0.707106781186548, 1., 0.707106781186548, 1., 0.707106781186548, 1.), (1., 0.707106781186548, 1., 0.707106781186548, 1., 0.707106781186548, 1., 0.707106781186548, 1.)))
   REPRESENTATION_ITEM ('')
   SURFACE ()
);
#119 = CARTESIAN_POINT('', (-2., 6.89822660218787E-16, -36.2));
#120 = CARTESIAN_POINT('', (-2., 2., -36.2));
#121 = CARTESIAN_POINT('', (1.07389723528928E-15, 2., -36.2));
#122 = CARTESIAN_POINT('', (2., 2., -36.2));
#123 = CARTESIAN_POINT('', (2., -6.66937905314348E-16, -36.2));
#124 = CARTESIAN_POINT('', (2., -2., -36.2));
#125 = CARTESIAN_POINT('', (-3.79339704143848E-17, -2., -36.2));
#126 = CARTESIAN_POINT('', (-2., -2., -36.2));
#127 = CARTESIAN_POINT('', (-2., 6.89822660218787E-16, -36.2));
#128 = CARTESIAN_POINT('', (-2., 1.34711147906209E-16, -0.200000000000003));
#129 = CARTESIAN_POINT('', (-2., 2., -0.200000000000003));
#130 = CARTESIAN_POINT('', (5.74296874207959E-16, 2., -0.200000000000003));
#131 = CARTESIAN_POINT('', (2., 2., -0.200000000000003));
#132 = CARTESIAN_POINT('', (2., -1.22204941762693E-15, -0.200000000000003));
#133 = CARTESIAN_POINT('', (2., -2., -0.200000000000003));
#134 = CARTESIAN_POINT('', (-5.37534331495705E-16, -2., -0.200000000000003));
#135 = CARTESIAN_POINT('', (-2., -2., -0.200000000000003));
#136 = CARTESIAN_POINT('', (-2., 1.34711147906209E-16, -0.200000000000003));
#137 = ADVANCED_FACE('', (#138), #157, .T.);
#138 = FACE_OUTER_BOUND('', #139, .T.);
#139 = EDGE_LOOP('', (#140, #149, #155, #156));
#140 = ORIENTED_EDGE('', *, *, #141, .F.);
#141 = EDGE_CURVE('', #142, #142, #144, .T.);
#142 = VERTEX_POINT('', #143);
#143 = CARTESIAN_POINT('', (-0.4, 2.74933206408581E-15, -44.5));
#144 = CIRCLE('', #145, 0.399999999999996);
#145 = AXIS2_PLACEMENT_3D('', #146, #147, #148);
#146 = CARTESIAN_POINT('', (-4.5102810375397E-17, 2.84494650060196E-15, -44.5));
#147 = DIRECTION('', (0., 0., -1.));
#148 = DIRECTION('', (-1., -2.39036091290386E-16, 0.));
#149 = ORIENTED_EDGE('', *, *, #150, .F.);
#150 = EDGE_CURVE('', #10, #142, #151, .T.);
#151 = LINE('', #152, #153);
#152 = CARTESIAN_POINT('', (-0.4, 2.70646942611565E-15, -43.8));
#153 = VECTOR('', #154, 0.700000000000003);
#154 = DIRECTION('', (0., 4.28626379701599E-17, -0.700000000000003));
#155 = ORIENTED_EDGE('', *, *, #25, .T.);
#156 = ORIENTED_EDGE('', *, *, #150, .T.);
#157 = (
   BOUNDED_SURFACE ()
   B_SPLINE_SURFACE (2, 1, ((#158, #159), (#160, #161), (#162, #163), (#164, #165), (#166, #167), (#168, #169), (#170, #171), (#172, #173), (#174, #175)), .UNSPECIFIED., .T., .F., .U.)
   B_SPLINE_SURFACE_WITH_KNOTS ((3, 2, 2, 2, 3), (2, 2), (0., 0.62831853071796, 1.25663706143592, 1.88495559215388, 2.51327412287184), (0., 0.874999999999998), .UNSPECIFIED.)
   GEOMETRIC_REPRESENTATION_ITEM ()
   RATIONAL_B_SPLINE_SURFACE (((1., 1.), (0.707106781186548, 0.707106781186548), (1., 1.), (0.707106781186548, 0.707106781186548), (1., 1.), (0.707106781186548, 0.707106781186548), (1., 1.), (0.707106781186548, 0.707106781186548), (1., 1.)))
   REPRESENTATION_ITEM ('')
   SURFACE ()
);
#158 = CARTESIAN_POINT('', (-0.4, 2.70646942611565E-15, -43.8));
#159 = CARTESIAN_POINT('', (-0.4, 2.74116389563519E-15, -44.5));
#160 = CARTESIAN_POINT('', (-0.4, 0.400000000000003, -43.8));
#161 = CARTESIAN_POINT('', (-0.4, 0.400000000000003, -44.5));
#162 = CARTESIAN_POINT('', (-1.89879619631855E-17, 0.400000000000003, -43.8));
#163 = CARTESIAN_POINT('', (-1.89879619631855E-17, 0.400000000000003, -44.5));
#164 = CARTESIAN_POINT('', (0.4, 0.400000000000003, -43.8));
#165 = CARTESIAN_POINT('', (0.4, 0.400000000000003, -44.5));
#166 = CARTESIAN_POINT('', (0.4, 3.03240944705417E-15, -43.8));
#167 = CARTESIAN_POINT('', (0.4, 3.06710391657371E-15, -44.5));
#168 = CARTESIAN_POINT('', (0.4, -0.399999999999997, -43.8));
#169 = CARTESIAN_POINT('', (0.4, -0.399999999999997, -44.5));
#170 = CARTESIAN_POINT('', (3.5593793094123E-16, -0.399999999999997, -43.8));
#171 = CARTESIAN_POINT('', (3.5593793094123E-16, -0.399999999999997, -44.5));
#172 = CARTESIAN_POINT('', (-0.4, -0.399999999999997, -43.8));
#173 = CARTESIAN_POINT('', (-0.4, -0.399999999999997, -44.5));
#174 = CARTESIAN_POINT('', (-0.4, 2.70646942611565E-15, -43.8));
#175 = CARTESIAN_POINT('', (-0.4, 2.74116389563519E-15, -44.5));
#176 = ADVANCED_FACE('', (#177), #180, .T.);
#177 = FACE_OUTER_BOUND('', #178, .T.);
#178 = EDGE_LOOP('', (#179));
#179 = ORIENTED_EDGE('', *, *, #141, .T.);
#180 = B_SPLINE_SURFACE_WITH_KNOTS('', 1, 1, ((#181, #182), (#183, #184)), .UNSPECIFIED., .F., .F., .U., (2, 2), (2, 2), (46.9097229891114, 47.7097229891114), (42.9986081387412, 43.7986081387412), .UNSPECIFIED.);
#181 = CARTESIAN_POINT('', (-0.399999999999999, 0.399999999999999, -44.5));
#182 = CARTESIAN_POINT('', (-0.399999999999999, -0.399999999999991, -44.5));
#183 = CARTESIAN_POINT('', (0.399999999999999, 0.399999999999999, -44.5));
#184 = CARTESIAN_POINT('', (0.399999999999999, -0.399999999999991, -44.5));
#185 = DRAUGHTING_MODEL('', (#193, #301, #341, #346, #351, #356, #361), #375);
#186 = PRESENTATION_STYLE_ASSIGNMENT((#187));
#187 = SURFACE_STYLE_USAGE(.POSITIVE., #188);
#188 = SURFACE_SIDE_STYLE('', (#189));
#189 = SURFACE_STYLE_FILL_AREA(#190);
#190 = FILL_AREA_STYLE('', (#191));
#191 = FILL_AREA_STYLE_COLOUR('', #192);
#192 = COLOUR_RGB('', 0.50196078431373, 0.50196078431373, 0.50196078431373);
#193 = STYLED_ITEM('', (#186), #1);
#194 = MANIFOLD_SOLID_BREP('CUT', #195);
#195 = CLOSED_SHELL('', (#196, #213, #252));
#196 = ADVANCED_FACE('', (#197), #208, .T.);
#197 = FACE_OUTER_BOUND('', #198, .T.);
#198 = EDGE_LOOP('', (#199));
#199 = ORIENTED_EDGE('', *, *, #200, .F.);
#200 = EDGE_CURVE('', #201, #201, #203, .T.);
#201 = VERTEX_POINT('', #202);
#202 = CARTESIAN_POINT('', (-0.4, 2.74933206408581E-15, -44.5));
#203 = CIRCLE('', #204, 0.399999999999996);
#204 = AXIS2_PLACEMENT_3D('', #205, #206, #207);
#205 = CARTESIAN_POINT('', (-4.5102810375397E-17, 2.84494650060196E-15, -44.5));
#206 = DIRECTION('', (0., 0., -1.));
#207 = DIRECTION('', (-1., -2.39036091290386E-16, 0.));
#208 = B_SPLINE_SURFACE_WITH_KNOTS('', 1, 1, ((#209, #210), (#211, #212)), .UNSPECIFIED., .F., .F., .U., (2, 2), (2, 2), (42.9986081387412, 43.7986081387412), (46.9097229891114, 47.7097229891114), .UNSPECIFIED.);
#209 = CARTESIAN_POINT('', (-0.399999999999999, 0.399999999999999, -44.5));
#210 = CARTESIAN_POINT('', (0.399999999999999, 0.399999999999999, -44.5));
#211 = CARTESIAN_POINT('', (-0.399999999999999, -0.399999999999991, -44.5));
#212 = CARTESIAN_POINT('', (0.399999999999999, -0.399999999999991, -44.5));
#213 = ADVANCED_FACE('', (#214), #233, .T.);
#214 = FACE_OUTER_BOUND('', #215, .T.);
#215 = EDGE_LOOP('', (#216, #217, #225, #232));
#216 = ORIENTED_EDGE('', *, *, #200, .T.);
#217 = ORIENTED_EDGE('', *, *, #218, .T.);
#218 = EDGE_CURVE('', #201, #219, #221, .T.);
#219 = VERTEX_POINT('', #220);
#220 = CARTESIAN_POINT('', (-0.4, 2.75545529808154E-15, -44.6));
#221 = LINE('', #222, #223);
#222 = CARTESIAN_POINT('', (-0.4, 2.74933206408581E-15, -44.5));
#223 = VECTOR('', #224, 0.100000000000001);
#224 = DIRECTION('', (0., 6.12323399572997E-18, -0.100000000000001));
#225 = ORIENTED_EDGE('', *, *, #226, .F.);
#226 = EDGE_CURVE('', #219, #219, #227, .T.);
#227 = CIRCLE('', #228, 0.399999999999996);
#228 = AXIS2_PLACEMENT_3D('', #229, #230, #231);
#229 = CARTESIAN_POINT('', (-4.5102810375397E-17, 2.85188539450587E-15, -44.6));
#230 = DIRECTION('', (-1.45751618060136E-29, 6.04589743097506E-14, -1.));
#231 = DIRECTION('', (-1., -2.41075241060829E-16, 0.));
#232 = ORIENTED_EDGE('', *, *, #218, .F.);
#233 = (
   BOUNDED_SURFACE ()
   B_SPLINE_SURFACE (2, 1, ((#234, #235), (#236, #237), (#238, #239), (#240, #241), (#242, #243), (#244, #245), (#246, #247), (#248, #249), (#250, #251)), .UNSPECIFIED., .T., .F., .U.)
   B_SPLINE_SURFACE_WITH_KNOTS ((3, 2, 2, 2, 3), (2, 2), (0., 0.62831853071796, 1.25663706143592, 1.88495559215388, 2.51327412287184), (0.874999999999998, 1.), .UNSPECIFIED.)
   GEOMETRIC_REPRESENTATION_ITEM ()
   RATIONAL_B_SPLINE_SURFACE (((1., 1.), (0.707106781186548, 0.707106781186548), (1., 1.), (0.707106781186548, 0.707106781186548), (1., 1.), (0.707106781186548, 0.707106781186548), (1., 1.), (0.707106781186548, 0.707106781186548), (1., 1.)))
   REPRESENTATION_ITEM ('')
   SURFACE ()
);
#234 = CARTESIAN_POINT('', (-0.4, 2.74933206408581E-15, -44.5));
#235 = CARTESIAN_POINT('', (-0.4, 2.74933206408581E-15, -44.6));
#236 = CARTESIAN_POINT('', (-0.4, 0.400000000000003, -44.5));
#237 = CARTESIAN_POINT('', (-0.4, 0.400000000000003, -44.6));
#238 = CARTESIAN_POINT('', (-1.25545169885386E-17, 0.400000000000003, -44.5));
#239 = CARTESIAN_POINT('', (-1.25545169885386E-17, 0.400000000000003, -44.6));
#240 = CARTESIAN_POINT('', (0.4, 0.400000000000003, -44.5));
#241 = CARTESIAN_POINT('', (0.4, 0.400000000000003, -44.6));
#242 = CARTESIAN_POINT('', (0.4, 3.05893574812308E-15, -44.5));
#243 = CARTESIAN_POINT('', (0.4, 3.05893574812308E-15, -44.6));
#244 = CARTESIAN_POINT('', (0.4, -0.399999999999997, -44.5));
#245 = CARTESIAN_POINT('', (0.4, -0.399999999999997, -44.6));
#246 = CARTESIAN_POINT('', (3.46035039014629E-16, -0.399999999999997, -44.5));
#247 = CARTESIAN_POINT('', (3.46035039014629E-16, -0.399999999999997, -44.6));
#248 = CARTESIAN_POINT('', (-0.4, -0.399999999999997, -44.5));
#249 = CARTESIAN_POINT('', (-0.4, -0.399999999999997, -44.6));
#250 = CARTESIAN_POINT('', (-0.4, 2.74933206408581E-15, -44.5));
#251 = CARTESIAN_POINT('', (-0.4, 2.74933206408581E-15, -44.6));
#252 = ADVANCED_FACE('', (#253), #266, .T.);
#253 = FACE_OUTER_BOUND('', #254, .T.);
#254 = EDGE_LOOP('', (#255, #264, #265));
#255 = ORIENTED_EDGE('', *, *, #256, .F.);
#256 = EDGE_CURVE('', #219, #257, #259, .T.);
#257 = VERTEX_POINT('', #258);
#258 = CARTESIAN_POINT('', (-1.15259106237434E-16, 2.75545529808155E-15, -45.));
#259 = CIRCLE('', #260, 0.399999999999974);
#260 = AXIS2_PLACEMENT_3D('', #261, #262, #263);
#261 = CARTESIAN_POINT('', (-2.03725925018716E-14, 2.73096236209861E-15, -44.6));
#262 = DIRECTION('', (-6.12323399573444E-17, -1., -6.12323399573697E-17));
#263 = DIRECTION('', (-1., 6.12323399573411E-17, 5.32907051820109E-14));
#264 = ORIENTED_EDGE('', *, *, #226, .T.);
#265 = ORIENTED_EDGE('', *, *, #256, .T.);
#266 = (
   BOUNDED_SURFACE ()
   B_SPLINE_SURFACE (2, 2, ((#267, #268, #269), (#270, #271, #272), (#273, #274, #275), (#276, #277, #278), (#279, #280, #281), (#282, #283, #284), (#285, #286, #287), (#288, #289, #290), (#291, #292, #293)), .UNSPECIFIED., .T., .F., .U.)
   B_SPLINE_SURFACE_WITH_KNOTS ((3, 2, 2, 2, 3), (3, 3), (0., 0.25, 0.5, 0.75, 1.), (0., 1.), .UNSPECIFIED.)
   GEOMETRIC_REPRESENTATION_ITEM ()
   RATIONAL_B_SPLINE_SURFACE (((1., 0.707106781186546, 1.), (0.707106781186548, 0.499999999999999, 0.707106781186548), (1., 0.707106781186546, 1.), (0.707106781186548, 0.499999999999999, 0.707106781186548), (1., 0.707106781186546, 1.), (0.707106781186548, 0.499999999999999, 0.707106781186548), (1., 0.707106781186546, 1.), (0.707106781186548, 0.499999999999999, 0.707106781186548), (1., 0.707106781186546, 1.)))
   REPRESENTATION_ITEM ('')
   SURFACE ()
);
#267 = CARTESIAN_POINT('', (-0.4, 2.75545529808154E-15, -44.6));
#268 = CARTESIAN_POINT('', (-0.400000000000002, 2.77994823406449E-15, -45.));
#269 = CARTESIAN_POINT('', (-1.15259106237434E-16, 2.75545529808155E-15, -45.));
#270 = CARTESIAN_POINT('', (-0.4, 0.400000000000032, -44.6));
#271 = CARTESIAN_POINT('', (-0.400000000000026, 0.400000000000034, -45.));
#272 = CARTESIAN_POINT('', (-1.15259106237434E-16, 2.75545529808155E-15, -45.));
#273 = CARTESIAN_POINT('', (2.93653990013341E-14, 0.400000000000032, -44.6));
#274 = CARTESIAN_POINT('', (5.20630221341746E-15, 0.400000000000058, -45.));
#275 = CARTESIAN_POINT('', (-1.15259106237434E-16, 2.75545529808155E-15, -45.));
#276 = CARTESIAN_POINT('', (0.400000000000059, 0.400000000000032, -44.6));
#277 = CARTESIAN_POINT('', (0.400000000000037, 0.400000000000082, -45.));
#278 = CARTESIAN_POINT('', (-1.15259106237434E-16, 2.75545529808155E-15, -45.));
#279 = CARTESIAN_POINT('', (0.400000000000059, 2.75545529808412E-15, -44.6));
#280 = CARTESIAN_POINT('', (0.400000000000061, 5.10981418099003E-14, -45.));
#281 = CARTESIAN_POINT('', (-1.15259106237434E-16, 2.75545529808155E-15, -45.));
#282 = CARTESIAN_POINT('', (0.400000000000059, -0.400000000000027, -44.6));
#283 = CARTESIAN_POINT('', (0.400000000000085, -0.39999999999998, -45.));
#284 = CARTESIAN_POINT('', (-1.15259106237434E-16, 2.75545529808155E-15, -45.));
#285 = CARTESIAN_POINT('', (2.94143848733026E-14, -0.400000000000027, -44.6));
#286 = CARTESIAN_POINT('', (5.35734816612192E-14, -0.400000000000004, -45.));
#287 = CARTESIAN_POINT('', (-1.15259106237434E-16, 2.75545529808155E-15, -45.));
#288 = CARTESIAN_POINT('', (-0.4, -0.400000000000027, -44.6));
#289 = CARTESIAN_POINT('', (-0.399999999999978, -0.400000000000029, -45.));
#290 = CARTESIAN_POINT('', (-1.15259106237434E-16, 2.75545529808155E-15, -45.));
#291 = CARTESIAN_POINT('', (-0.4, 2.75545529808154E-15, -44.6));
#292 = CARTESIAN_POINT('', (-0.400000000000002, 2.77994823406449E-15, -45.));
#293 = CARTESIAN_POINT('', (-1.15259106237434E-16, 2.75545529808155E-15, -45.));
#294 = PRESENTATION_STYLE_ASSIGNMENT((#295));
#295 = SURFACE_STYLE_USAGE(.POSITIVE., #296);
#296 = SURFACE_SIDE_STYLE('', (#297));
#297 = SURFACE_STYLE_FILL_AREA(#298);
#298 = FILL_AREA_STYLE('', (#299));
#299 = FILL_AREA_STYLE_COLOUR('', #300);
#300 = COLOUR_RGB('', 0.8, 0.8, 0.8);
#301 = STYLED_ITEM('', (#294), #194);
#302 = TRIMMED_CURVE('cutting part line', #303, (#307), (#308), .T., .CARTESIAN.);
#303 = LINE('', #304, #305);
#304 = CARTESIAN_POINT('', (-5.00544827463395E-31, -2.72483912810286E-15, -44.5));
#305 = VECTOR('', #306, 0.4);
#306 = DIRECTION('', (0.4, -7.34788079488445E-17, 0.));
#307 = CARTESIAN_POINT('', (-5.00544827463395E-31, -2.72483912810286E-15, -44.5));
#308 = CARTESIAN_POINT('', (0.4, -2.7983179360517E-15, -44.5));
#309 = TRIMMED_CURVE('cutting part line', #310, (#314), (#315), .T., .CARTESIAN.);
#310 = LINE('', #311, #312);
#311 = CARTESIAN_POINT('', (0.4, -2.7983179360517E-15, -44.5));
#312 = VECTOR('', #313, 0.100000000000001);
#313 = DIRECTION('', (0., -6.12323399572997E-18, -0.100000000000001));
#314 = CARTESIAN_POINT('', (0.4, -2.7983179360517E-15, -44.5));
#315 = CARTESIAN_POINT('', (0.4, -2.80444117004743E-15, -44.6));
#316 = TRIMMED_CURVE('cutting part line', #317, (#322), (#323), .T., .CARTESIAN.);
#317 = CIRCLE('', #318, 0.399999999999999);
#318 = AXIS2_PLACEMENT_3D('', #319, #320, #321);
#319 = CARTESIAN_POINT('', (5.16253706450698E-15, -2.7309623620986E-15, -44.6));
#320 = DIRECTION('', (1.83697019872082E-16, 1., -6.12323399573717E-17));
#321 = DIRECTION('', (1., -1.83697019872082E-16, 0.));
#322 = CARTESIAN_POINT('', (0.400000000000004, -2.80444117004744E-15, -44.6));
#323 = CARTESIAN_POINT('', (1.24413008199226E-16, -2.75545529808155E-15, -45.));
#324 = TRIMMED_CURVE('cutting part line', #325, (#329), (#330), .T., .CARTESIAN.);
#325 = LINE('', #326, #327);
#326 = CARTESIAN_POINT('', (-5.06168926648376E-31, -2.75545529808154E-15, -45.));
#327 = VECTOR('', #328, 0.5);
#328 = DIRECTION('', (5.62409918498128E-33, 3.06161699786802E-17, 0.5));
#329 = CARTESIAN_POINT('', (-5.06168926648376E-31, -2.75545529808154E-15, -45.));
#330 = CARTESIAN_POINT('', (-5.00544827463395E-31, -2.72483912810286E-15, -44.5));
#331 = COMPOSITE_CURVE('cutting part line', (#332, #333, #334, #335), .U.);
#332 = COMPOSITE_CURVE_SEGMENT(.CONTINUOUS., .T., #302);
#333 = COMPOSITE_CURVE_SEGMENT(.CONTINUOUS., .T., #309);
#334 = COMPOSITE_CURVE_SEGMENT(.CONTINUOUS., .T., #316);
#335 = COMPOSITE_CURVE_SEGMENT(.CONTINUOUS., .T., #324);
#336 = GEOMETRIC_SET('', (#331, #374));
#337 = PRESENTATION_STYLE_ASSIGNMENT((#338));
#338 = CURVE_STYLE('', #340, POSITIVE_LENGTH_MEASURE(1.E-6), #339);
#339 = COLOUR_RGB('', 0., 0., 1.);
#340 = DRAUGHTING_PRE_DEFINED_CURVE_FONT('continuous');
#341 = STYLED_ITEM('', (#337), #331);
#342 = PRESENTATION_STYLE_ASSIGNMENT((#343));
#343 = CURVE_STYLE('', #345, POSITIVE_LENGTH_MEASURE(1.E-6), #344);
#344 = COLOUR_RGB('', 0., 0., 1.);
#345 = DRAUGHTING_PRE_DEFINED_CURVE_FONT('continuous');
#346 = OVER_RIDING_STYLED_ITEM('', (#342), #302, #341);
#347 = PRESENTATION_STYLE_ASSIGNMENT((#348));
#348 = CURVE_STYLE('', #350, POSITIVE_LENGTH_MEASURE(1.E-6), #349);
#349 = COLOUR_RGB('', 0., 0., 1.);
#350 = DRAUGHTING_PRE_DEFINED_CURVE_FONT('continuous');
#351 = OVER_RIDING_STYLED_ITEM('', (#347), #309, #341);
#352 = PRESENTATION_STYLE_ASSIGNMENT((#353));
#353 = CURVE_STYLE('', #355, POSITIVE_LENGTH_MEASURE(1.E-6), #354);
#354 = COLOUR_RGB('', 0., 0., 1.);
#355 = DRAUGHTING_PRE_DEFINED_CURVE_FONT('continuous');
#356 = OVER_RIDING_STYLED_ITEM('', (#352), #316, #341);
#357 = PRESENTATION_STYLE_ASSIGNMENT((#358));
#358 = CURVE_STYLE('', #360, POSITIVE_LENGTH_MEASURE(1.E-6), #359);
#359 = COLOUR_RGB('', 0., 0., 1.);
#360 = DRAUGHTING_PRE_DEFINED_CURVE_FONT('continuous');
#361 = OVER_RIDING_STYLED_ITEM('', (#357), #324, #341);
#362 = AXIS2_PLACEMENT_3D('CIP', #363, #364, #365);
#363 = CARTESIAN_POINT('', (1.68722975549459E-31, 2.75545529808155E-15, -45.));
#364 = DIRECTION('', (-3.74939945665465E-33, -6.12323399573677E-17, 1.));
#365 = DIRECTION('', (1., -6.12323399573677E-17, 0.));
#366 = AXIS2_PLACEMENT_3D('MCS', #367, #368, #369);
#367 = CARTESIAN_POINT('', (1.35728260330898E-31, 2.21661070645671E-15, -36.2));
#368 = DIRECTION('', (-3.74939945665465E-33, -6.12323399573677E-17, 1.));
#369 = DIRECTION('', (1., -6.12323399573677E-17, 0.));
#370 = AXIS2_PLACEMENT_3D('PCS', #371, #372, #373);
#371 = CARTESIAN_POINT('', (0., 0., 0.));
#372 = DIRECTION('', (0., 0., 1.));
#373 = DIRECTION('', (1., 0., 0.));
#374 = CARTESIAN_POINT('CRP', (0.400000000000004, 0., -45.));
#375 = (
   GEOMETRIC_REPRESENTATION_CONTEXT (3)
   GLOBAL_UNCERTAINTY_ASSIGNED_CONTEXT ((#377))
   GLOBAL_UNIT_ASSIGNED_CONTEXT ((#376, #378, #379))
   REPRESENTATION_CONTEXT ('', '3D')
);
#376 = (
   LENGTH_UNIT ()
   NAMED_UNIT (*)
   SI_UNIT (.MILLI., .METRE.)
);
#377 = UNCERTAINTY_MEASURE_WITH_UNIT(LENGTH_MEASURE(1.E-6), #376, 'DISTANCE_ACCURACY_VALUE', '');
#378 = (
   NAMED_UNIT (*)
   SI_UNIT ($, .STERADIAN.)
   SOLID_ANGLE_UNIT ()
);
#379 = (
   NAMED_UNIT (*)
   PLANE_ANGLE_UNIT ()
   SI_UNIT ($, .RADIAN.)
);
#380 = SHAPE_REPRESENTATION('', (), #375);
#381 = PRODUCT_DEFINITION_SHAPE('', '', #382);
#382 = PRODUCT_DEFINITION('', '', #385, #389);
#383 = APPLICATION_CONTEXT('configuration controlled 3D designs of mechanical parts and assemblies');
#384 = APPLICATION_PROTOCOL_DEFINITION('International Standard', 'automotive_design', 2002, #383);
#385 = PRODUCT_DEFINITION_FORMATION_WITH_SPECIFIED_SOURCE('', '', #386, .NOT_KNOWN.);
#386 = PRODUCT('NONE', 'R216.42-00830-EC08G 1700', '', (#387));
#387 = PRODUCT_CONTEXT('', #383, 'mechanical');
#388 = PRODUCT_RELATED_PRODUCT_CATEGORY('detail', '', (#386));
#389 = PRODUCT_DEFINITION_CONTEXT('part definition', #383, 'design');
#390 = SHAPE_DEFINITION_REPRESENTATION(#381, #380);
#391 = CONSTRUCTIVE_GEOMETRY_REPRESENTATION('supplemental geometry', (#362, #366, #370), #375);
#392 = CONSTRUCTIVE_GEOMETRY_REPRESENTATION_RELATIONSHIP('', '', #380, #391);
#393 = SHAPE_REPRESENTATION_RELATIONSHIP('', '', #380, #394);
#394 = SHAPE_REPRESENTATION('', (#336), #375);
#395 = SHAPE_REPRESENTATION_RELATIONSHIP('', '', #380, #396);
#396 = ADVANCED_BREP_SHAPE_REPRESENTATION('', (#1, #194), #375);
ENDSEC;
END-ISO-10303-21;
