ISO-10303-21;
HEADER;
FILE_DESCRIPTION(('STEP'), '1');
FILE_NAME('C:\\Users\\ds2002\\OneDrive - Sandvik\\HomeShare\\Documents\\Batchrepair\\CorSRT2\\NEW_MILBN_SLD\\Output2\\MOD000000000000000020084637300000.stp', '2018-11-23T12:39:43', (''), (''), 'Express v3.0.0.0', 'Express Tool', 'Unknown');
FILE_SCHEMA(('AUTOMOTIVE_DESIGN'));
ENDSEC;

DATA;
#1 = MANIFOLD_SOLID_BREP('NOCUT', #2);
#2 = CLOSED_SHELL('', (#3, #50, #89, #136, #145, #176));
#3 = ADVANCED_FACE('', (#4), #31, .T.);
#4 = FACE_OUTER_BOUND('', #5, .T.);
#5 = EDGE_LOOP('', (#6, #16, #23, #24));
#6 = ORIENTED_EDGE('', *, *, #7, .F.);
#7 = EDGE_CURVE('', #8, #10, #12, .T.);
#8 = VERTEX_POINT('', #9);
#9 = CARTESIAN_POINT('', (-1.5, 2.88404321199202E-15, -45.6));
#10 = VERTEX_POINT('', #11);
#11 = CARTESIAN_POINT('', (-0.3, 3.28817665571064E-15, -53.4));
#12 = LINE('', #13, #14);
#13 = CARTESIAN_POINT('', (-1.5, 2.88404321199202E-15, -45.6));
#14 = VECTOR('', #15, 7.89176786277954);
#15 = DIRECTION('', (1.2, 4.0413344371862E-16, -7.8));
#16 = ORIENTED_EDGE('', *, *, #17, .T.);
#17 = EDGE_CURVE('', #8, #8, #18, .T.);
#18 = CIRCLE('', #19, 1.5);
#19 = AXIS2_PLACEMENT_3D('', #20, #21, #22);
#20 = CARTESIAN_POINT('', (-1.38777878078145E-17, 8.32667268468867E-16, -45.6));
#21 = DIRECTION('', (4.73695157173398E-15, -1.54108030506707E-14, -1.));
#22 = DIRECTION('', (-1., 1.36758396234877E-15, -4.736951571734E-15));
#23 = ORIENTED_EDGE('', *, *, #7, .T.);
#24 = ORIENTED_EDGE('', *, *, #25, .F.);
#25 = EDGE_CURVE('', #10, #10, #26, .T.);
#26 = CIRCLE('', #27, 0.300000000000006);
#27 = AXIS2_PLACEMENT_3D('', #28, #29, #30);
#28 = CARTESIAN_POINT('', (-1.05818132034585E-16, 3.58046925441613E-15, -53.4));
#29 = DIRECTION('', (0., 0., -1.));
#30 = DIRECTION('', (-1., -9.74308662351613E-16, 0.));
#31 = (
   BOUNDED_SURFACE ()
   B_SPLINE_SURFACE (2, 1, ((#32, #33), (#34, #35), (#36, #37), (#38, #39), (#40, #41), (#42, #43), (#44, #45), (#46, #47), (#48, #49)), .UNSPECIFIED., .T., .F., .U.)
   B_SPLINE_SURFACE_WITH_KNOTS ((3, 2, 2, 2, 3), (2, 2), (0., 0.25, 0.5, 0.75, 1.), (0., 1.), .UNSPECIFIED.)
   GEOMETRIC_REPRESENTATION_ITEM ()
   RATIONAL_B_SPLINE_SURFACE (((1., 1.), (0.707106781186548, 0.707106781186548), (1., 1.), (0.707106781186548, 0.707106781186548), (1., 1.), (0.707106781186548, 0.707106781186548), (1., 1.), (0.707106781186548, 0.707106781186548), (1., 1.)))
   REPRESENTATION_ITEM ('')
   SURFACE ()
);
#32 = CARTESIAN_POINT('', (-1.5, 2.88404321199202E-15, -45.6));
#33 = CARTESIAN_POINT('', (-0.300000000000037, 3.39677512494634E-15, -53.4));
#34 = CARTESIAN_POINT('', (-1.5, 1.5, -45.6));
#35 = CARTESIAN_POINT('', (-0.300000000000036, 0.300000000000003, -53.4));
#36 = CARTESIAN_POINT('', (1.73054393475816E-15, 1.5, -45.6));
#37 = CARTESIAN_POINT('', (-3.64078244432642E-14, 0.300000000000003, -53.4));
#38 = CARTESIAN_POINT('', (1.5, 1.5, -45.6));
#39 = CARTESIAN_POINT('', (0.299999999999964, 0.300000000000003, -53.4));
#40 = CARTESIAN_POINT('', (1.5, -9.13220842507989E-17, -45.6));
#41 = CARTESIAN_POINT('', (0.299999999999963, 2.80170206569778E-15, -53.4));
#42 = CARTESIAN_POINT('', (1.5, -1.5, -45.6));
#43 = CARTESIAN_POINT('', (0.299999999999963, -0.299999999999997, -53.4));
#44 = CARTESIAN_POINT('', (-1.06112434161255E-15, -1.5, -45.6));
#45 = CARTESIAN_POINT('', (-3.69661580985383E-14, -0.299999999999997, -53.4));
#46 = CARTESIAN_POINT('', (-1.5, -1.5, -45.6));
#47 = CARTESIAN_POINT('', (-0.300000000000037, -0.299999999999997, -53.4));
#48 = CARTESIAN_POINT('', (-1.5, 2.88404321199202E-15, -45.6));
#49 = CARTESIAN_POINT('', (-0.300000000000037, 3.39677512494634E-15, -53.4));
#50 = ADVANCED_FACE('', (#51), #70, .T.);
#51 = FACE_OUTER_BOUND('', #52, .T.);
#52 = EDGE_LOOP('', (#53, #61, #68, #69));
#53 = ORIENTED_EDGE('', *, *, #54, .F.);
#54 = EDGE_CURVE('', #55, #8, #57, .T.);
#55 = VERTEX_POINT('', #56);
#56 = CARTESIAN_POINT('', (-3., 2.81668763803891E-15, -43.));
#57 = LINE('', #58, #59);
#58 = CARTESIAN_POINT('', (-3., 2.81668763803891E-15, -43.));
#59 = VECTOR('', #60, 3.00166620396073);
#60 = DIRECTION('', (1.5, 6.73555739531102E-17, -2.6));
#61 = ORIENTED_EDGE('', *, *, #62, .T.);
#62 = EDGE_CURVE('', #55, #55, #63, .T.);
#63 = CIRCLE('', #64, 3.);
#64 = AXIS2_PLACEMENT_3D('', #65, #66, #67);
#65 = CARTESIAN_POINT('', (-5.27355936696949E-16, 3.33066907387547E-16, -43.));
#66 = DIRECTION('', (0., 0., -1.));
#67 = DIRECTION('', (-1., 5.82944217054318E-16, 0.));
#68 = ORIENTED_EDGE('', *, *, #54, .T.);
#69 = ORIENTED_EDGE('', *, *, #17, .F.);
#70 = (
   BOUNDED_SURFACE ()
   B_SPLINE_SURFACE (2, 1, ((#71, #72), (#73, #74), (#75, #76), (#77, #78), (#79, #80), (#81, #82), (#83, #84), (#85, #86), (#87, #88)), .UNSPECIFIED., .T., .F., .U.)
   B_SPLINE_SURFACE_WITH_KNOTS ((3, 2, 2, 2, 3), (2, 2), (0., 0.25, 0.5, 0.75, 1.), (0., 1.), .UNSPECIFIED.)
   GEOMETRIC_REPRESENTATION_ITEM ()
   RATIONAL_B_SPLINE_SURFACE (((1., 1.), (0.707106781186548, 0.707106781186548), (1., 1.), (0.707106781186548, 0.707106781186548), (1., 1.), (0.707106781186548, 0.707106781186548), (1., 1.), (0.707106781186548, 0.707106781186548), (1., 1.)))
   REPRESENTATION_ITEM ('')
   SURFACE ()
);
#71 = CARTESIAN_POINT('', (-3., 2.81668763803891E-15, -43.));
#72 = CARTESIAN_POINT('', (-1.5, 1.49161054586634E-15, -45.6));
#73 = CARTESIAN_POINT('', (-3., 3., -43.));
#74 = CARTESIAN_POINT('', (-1.5, 1.5, -45.6));
#75 = CARTESIAN_POINT('', (3.98666781108679E-16, 3., -43.));
#76 = CARTESIAN_POINT('', (3.03416799112948E-16, 1.5, -45.6));
#77 = CARTESIAN_POINT('', (3., 3., -43.));
#78 = CARTESIAN_POINT('', (1.5, 1.5, -45.6));
#79 = CARTESIAN_POINT('', (3., 2.43568771005598E-15, -43.));
#80 = CARTESIAN_POINT('', (1.5, 1.30111058187488E-15, -45.6));
#81 = CARTESIAN_POINT('', (3., -3., -43.));
#82 = CARTESIAN_POINT('', (1.5, -1.5, -45.6));
#83 = CARTESIAN_POINT('', (3.8506089286996E-16, -3., -43.));
#84 = CARTESIAN_POINT('', (2.96613854993588E-16, -1.5, -45.6));
#85 = CARTESIAN_POINT('', (-3., -3., -43.));
#86 = CARTESIAN_POINT('', (-1.5, -1.5, -45.6));
#87 = CARTESIAN_POINT('', (-3., 2.81668763803891E-15, -43.));
#88 = CARTESIAN_POINT('', (-1.5, 1.49161054586634E-15, -45.6));
#89 = ADVANCED_FACE('', (#90), #117, .T.);
#90 = FACE_OUTER_BOUND('', #91, .T.);
#91 = EDGE_LOOP('', (#92, #102, #109, #110));
#92 = ORIENTED_EDGE('', *, *, #93, .T.);
#93 = EDGE_CURVE('', #94, #96, #98, .T.);
#94 = VERTEX_POINT('', #95);
#95 = CARTESIAN_POINT('', (-3., 2.02066721859313E-16, -0.299999999999997));
#96 = VERTEX_POINT('', #97);
#97 = CARTESIAN_POINT('', (-2.7, 1.65327317884893E-16, 0.));
#98 = LINE('', #99, #100);
#99 = CARTESIAN_POINT('', (-3., 2.02066721859313E-16, -0.299999999999997));
#100 = VECTOR('', #101, 0.424264068711926);
#101 = DIRECTION('', (0.3, -3.673940397442E-17, 0.299999999999997));
#102 = ORIENTED_EDGE('', *, *, #103, .T.);
#103 = EDGE_CURVE('', #96, #96, #104, .T.);
#104 = CIRCLE('', #105, 2.7);
#105 = AXIS2_PLACEMENT_3D('', #106, #107, #108);
#106 = CARTESIAN_POINT('', (6.24500451351651E-17, -1.88737914186277E-15, -1.07852076885685E-31));
#107 = DIRECTION('', (6.60738625565492E-33, 6.12323399573678E-17, -1.));
#108 = DIRECTION('', (-1., 7.60261651758392E-16, 3.99452136613649E-32));
#109 = ORIENTED_EDGE('', *, *, #93, .F.);
#110 = ORIENTED_EDGE('', *, *, #111, .F.);
#111 = EDGE_CURVE('', #94, #94, #112, .T.);
#112 = CIRCLE('', #113, 3.);
#113 = AXIS2_PLACEMENT_3D('', #114, #115, #116);
#114 = CARTESIAN_POINT('', (-8.32667268468867E-16, 1.66533453693773E-16, -0.299999999999997));
#115 = DIRECTION('', (7.45939217764516E-34, 6.29780982393227E-17, -1.));
#116 = DIRECTION('', (-1., 1.18444227218465E-17, 0.));
#117 = (
   BOUNDED_SURFACE ()
   B_SPLINE_SURFACE (1, 2, ((#118, #119, #120, #121, #122, #123, #124, #125, #126), (#127, #128, #129, #130, #131, #132, #133, #134, #135)), .UNSPECIFIED., .F., .T., .U.)
   B_SPLINE_SURFACE_WITH_KNOTS ((2, 2), (3, 2, 2, 2, 3), (0., 1.), (0., 0.25, 0.5, 0.75, 1.), .UNSPECIFIED.)
   GEOMETRIC_REPRESENTATION_ITEM ()
   RATIONAL_B_SPLINE_SURFACE (((1., 0.707106781186548, 1., 0.707106781186548, 1., 0.707106781186548, 1., 0.707106781186548, 1.), (1., 0.707106781186548, 1., 0.707106781186548, 1., 0.707106781186548, 1., 0.707106781186548, 1.)))
   REPRESENTATION_ITEM ('')
   SURFACE ()
);
#118 = CARTESIAN_POINT('', (-3., 1.49129302665284E-15, -0.299999999999997));
#119 = CARTESIAN_POINT('', (-3., 3., -0.299999999999985));
#120 = CARTESIAN_POINT('', (2.34149119846292E-15, 3., -0.299999999999985));
#121 = CARTESIAN_POINT('', (3., 3., -0.299999999999985));
#122 = CARTESIAN_POINT('', (3., -1.34594359183367E-15, -0.299999999999997));
#123 = CARTESIAN_POINT('', (3., -3., -0.300000000000009));
#124 = CARTESIAN_POINT('', (-1.28351380279387E-16, -3., -0.300000000000009));
#125 = CARTESIAN_POINT('', (-3., -3., -0.300000000000009));
#126 = CARTESIAN_POINT('', (-3., 1.49129302665284E-15, -0.299999999999997));
#127 = CARTESIAN_POINT('', (-2.7, 1.65327317884893E-16, -2.18952885050753E-47));
#128 = CARTESIAN_POINT('', (-2.7, 2.7, 1.04916075827078E-14));
#129 = CARTESIAN_POINT('', (2.19962936753859E-15, 2.7, 1.04916075827078E-14));
#130 = CARTESIAN_POINT('', (2.7, 2.7, 1.04916075827078E-14));
#131 = CARTESIAN_POINT('', (2.7, -2.38818563875297E-15, 1.12461399303431E-30));
#132 = CARTESIAN_POINT('', (2.7, -2.7, -1.04916075827078E-14));
#133 = CARTESIAN_POINT('', (-2.32289533294833E-17, -2.7, -1.04916075827078E-14));
#134 = CARTESIAN_POINT('', (-2.7, -2.7, -1.04916075827078E-14));
#135 = CARTESIAN_POINT('', (-2.7, 1.65327317884893E-16, -2.18952885050753E-47));
#136 = ADVANCED_FACE('', (#137), #140, .T.);
#137 = FACE_OUTER_BOUND('', #138, .T.);
#138 = EDGE_LOOP('', (#139));
#139 = ORIENTED_EDGE('', *, *, #103, .F.);
#140 = B_SPLINE_SURFACE_WITH_KNOTS('', 1, 1, ((#141, #142), (#143, #144)), .UNSPECIFIED., .F., .F., .U., (2, 2), (2, 2), (1.50021428024809, 6.90021428024809), (1.50021428024809, 6.90021428024809), .UNSPECIFIED.);
#141 = CARTESIAN_POINT('', (2.7, -2.7, 6.94010003971609E-15));
#142 = CARTESIAN_POINT('', (-2.7, -2.7, -7.27075467548589E-15));
#143 = CARTESIAN_POINT('', (2.7, 2.7, 7.27075467548587E-15));
#144 = CARTESIAN_POINT('', (-2.7, 2.7, -6.9401000397161E-15));
#145 = ADVANCED_FACE('', (#146), #157, .T.);
#146 = FACE_OUTER_BOUND('', #147, .T.);
#147 = EDGE_LOOP('', (#148, #154, #155, #156));
#148 = ORIENTED_EDGE('', *, *, #149, .T.);
#149 = EDGE_CURVE('', #55, #94, #150, .T.);
#150 = LINE('', #151, #152);
#151 = CARTESIAN_POINT('', (-3., 2.81668763803891E-15, -43.));
#152 = VECTOR('', #153, 42.7);
#153 = DIRECTION('', (0., -2.6146209161796E-15, 42.7));
#154 = ORIENTED_EDGE('', *, *, #111, .T.);
#155 = ORIENTED_EDGE('', *, *, #149, .F.);
#156 = ORIENTED_EDGE('', *, *, #62, .F.);
#157 = (
   BOUNDED_SURFACE ()
   B_SPLINE_SURFACE (1, 2, ((#158, #159, #160, #161, #162, #163, #164, #165, #166), (#167, #168, #169, #170, #171, #172, #173, #174, #175)), .UNSPECIFIED., .F., .T., .U.)
   B_SPLINE_SURFACE_WITH_KNOTS ((2, 2), (3, 2, 2, 2, 3), (0., 1.), (0., 4.7123889803847, 9.4247779607694, 14.1371669411541, 18.8495559215388), .UNSPECIFIED.)
   GEOMETRIC_REPRESENTATION_ITEM ()
   RATIONAL_B_SPLINE_SURFACE (((1., 0.707106781186548, 1., 0.707106781186548, 1., 0.707106781186548, 1., 0.707106781186548, 1.), (1., 0.707106781186548, 1., 0.707106781186548, 1., 0.707106781186548, 1., 0.707106781186548, 1.)))
   REPRESENTATION_ITEM ('')
   SURFACE ()
);
#158 = CARTESIAN_POINT('', (-3., 2.53353507357214E-15, -43.));
#159 = CARTESIAN_POINT('', (-3., 3., -43.));
#160 = CARTESIAN_POINT('', (2.46178554201641E-15, 3., -43.));
#161 = CARTESIAN_POINT('', (3., 3., -43.));
#162 = CARTESIAN_POINT('', (3., -1.27796261412781E-15, -43.));
#163 = CARTESIAN_POINT('', (3., -3., -43.));
#164 = CARTESIAN_POINT('', (-9.82318105939335E-16, -3., -43.));
#165 = CARTESIAN_POINT('', (-3., -3., -43.));
#166 = CARTESIAN_POINT('', (-3., 2.53353507357214E-15, -43.));
#167 = CARTESIAN_POINT('', (-3., 2.02066721859312E-16, -0.299999999999997));
#168 = CARTESIAN_POINT('', (-3., 3., -0.299999999999997));
#169 = CARTESIAN_POINT('', (3.25189426120798E-15, 3., -0.299999999999997));
#170 = CARTESIAN_POINT('', (3., 3., -0.299999999999997));
#171 = CARTESIAN_POINT('', (3., -3.60943096584064E-15, -0.299999999999997));
#172 = CARTESIAN_POINT('', (3., -3., -0.299999999999997));
#173 = CARTESIAN_POINT('', (-1.92209386747767E-16, -3., -0.299999999999997));
#174 = CARTESIAN_POINT('', (-3., -3., -0.299999999999997));
#175 = CARTESIAN_POINT('', (-3., 2.02066721859312E-16, -0.299999999999997));
#176 = ADVANCED_FACE('', (#177), #180, .T.);
#177 = FACE_OUTER_BOUND('', #178, .T.);
#178 = EDGE_LOOP('', (#179));
#179 = ORIENTED_EDGE('', *, *, #25, .T.);
#180 = B_SPLINE_SURFACE_WITH_KNOTS('', 1, 1, ((#181, #182), (#183, #184)), .UNSPECIFIED., .F., .F., .U., (2, 2), (2, 2), (57.2959404980965, 57.8959404980965), (51.4292701351337, 52.0292701351337), .UNSPECIFIED.);
#181 = CARTESIAN_POINT('', (-0.300000000000004, 0.300000000000011, -53.4));
#182 = CARTESIAN_POINT('', (-0.300000000000004, -0.300000000000004, -53.4));
#183 = CARTESIAN_POINT('', (0.300000000000004, 0.300000000000011, -53.4));
#184 = CARTESIAN_POINT('', (0.300000000000004, -0.300000000000004, -53.4));
#185 = DRAUGHTING_MODEL('', (#193, #301, #341, #346, #351, #356, #361), #375);
#186 = PRESENTATION_STYLE_ASSIGNMENT((#187));
#187 = SURFACE_STYLE_USAGE(.POSITIVE., #188);
#188 = SURFACE_SIDE_STYLE('', (#189));
#189 = SURFACE_STYLE_FILL_AREA(#190);
#190 = FILL_AREA_STYLE('', (#191));
#191 = FILL_AREA_STYLE_COLOUR('', #192);
#192 = COLOUR_RGB('', 0.50196078431373, 0.50196078431373, 0.50196078431373);
#193 = STYLED_ITEM('', (#186), #1);
#194 = MANIFOLD_SOLID_BREP('CUT', #195);
#195 = CLOSED_SHELL('', (#196, #213, #252));
#196 = ADVANCED_FACE('', (#197), #208, .T.);
#197 = FACE_OUTER_BOUND('', #198, .T.);
#198 = EDGE_LOOP('', (#199));
#199 = ORIENTED_EDGE('', *, *, #200, .F.);
#200 = EDGE_CURVE('', #201, #201, #203, .T.);
#201 = VERTEX_POINT('', #202);
#202 = CARTESIAN_POINT('', (-0.3, 3.28817665571064E-15, -53.4));
#203 = CIRCLE('', #204, 0.300000000000006);
#204 = AXIS2_PLACEMENT_3D('', #205, #206, #207);
#205 = CARTESIAN_POINT('', (-1.05818132034585E-16, 3.58046925441613E-15, -53.4));
#206 = DIRECTION('', (0., 0., -1.));
#207 = DIRECTION('', (-1., -9.74308662351613E-16, 0.));
#208 = B_SPLINE_SURFACE_WITH_KNOTS('', 1, 1, ((#209, #210), (#211, #212)), .UNSPECIFIED., .F., .F., .U., (2, 2), (2, 2), (51.4292701351337, 52.0292701351337), (57.2959404980965, 57.8959404980965), .UNSPECIFIED.);
#209 = CARTESIAN_POINT('', (-0.300000000000004, 0.300000000000011, -53.4));
#210 = CARTESIAN_POINT('', (0.300000000000004, 0.300000000000011, -53.4));
#211 = CARTESIAN_POINT('', (-0.300000000000004, -0.300000000000004, -53.4));
#212 = CARTESIAN_POINT('', (0.300000000000004, -0.300000000000004, -53.4));
#213 = ADVANCED_FACE('', (#214), #233, .T.);
#214 = FACE_OUTER_BOUND('', #215, .T.);
#215 = EDGE_LOOP('', (#216, #224, #225, #226));
#216 = ORIENTED_EDGE('', *, *, #217, .F.);
#217 = EDGE_CURVE('', #201, #218, #220, .T.);
#218 = VERTEX_POINT('', #219);
#219 = CARTESIAN_POINT('', (-0.3, 3.30654635769785E-15, -53.7));
#220 = LINE('', #221, #222);
#221 = CARTESIAN_POINT('', (-0.3, 3.28817665571064E-15, -53.4));
#222 = VECTOR('', #223, 0.300000000000004);
#223 = DIRECTION('', (0., 1.836970198721E-17, -0.300000000000004));
#224 = ORIENTED_EDGE('', *, *, #200, .T.);
#225 = ORIENTED_EDGE('', *, *, #217, .T.);
#226 = ORIENTED_EDGE('', *, *, #227, .F.);
#227 = EDGE_CURVE('', #218, #218, #228, .T.);
#228 = CIRCLE('', #229, 0.300000000000006);
#229 = AXIS2_PLACEMENT_3D('', #230, #231, #232);
#230 = CARTESIAN_POINT('', (-5.29090660172926E-17, 3.60822483003176E-15, -53.7));
#231 = DIRECTION('', (8.10629822606212E-29, -8.06119657463321E-14, -1.));
#232 = DIRECTION('', (-1., -1.00559490777968E-15, 0.));
#233 = (
   BOUNDED_SURFACE ()
   B_SPLINE_SURFACE (2, 1, ((#234, #235), (#236, #237), (#238, #239), (#240, #241), (#242, #243), (#244, #245), (#246, #247), (#248, #249), (#250, #251)), .UNSPECIFIED., .T., .F., .U.)
   B_SPLINE_SURFACE_WITH_KNOTS ((3, 2, 2, 2, 3), (2, 2), (0., 0.47123889803847, 0.94247779607694, 1.41371669411541, 1.88495559215388), (0., 1.), .UNSPECIFIED.)
   GEOMETRIC_REPRESENTATION_ITEM ()
   RATIONAL_B_SPLINE_SURFACE (((1., 1.), (0.707106781186548, 0.707106781186548), (1., 1.), (0.707106781186548, 0.707106781186548), (1., 1.), (0.707106781186548, 0.707106781186548), (1., 1.), (0.707106781186548, 0.707106781186548), (1., 1.)))
   REPRESENTATION_ITEM ('')
   SURFACE ()
);
#234 = CARTESIAN_POINT('', (-0.3, 3.28817665571064E-15, -53.4));
#235 = CARTESIAN_POINT('', (-0.3, 3.30205444351845E-15, -53.7));
#236 = CARTESIAN_POINT('', (-0.3, 0.300000000000003, -53.4));
#237 = CARTESIAN_POINT('', (-0.3, 0.300000000000003, -53.7));
#238 = CARTESIAN_POINT('', (1.49906782179142E-16, 0.300000000000003, -53.4));
#239 = CARTESIAN_POINT('', (1.49906782179142E-16, 0.300000000000003, -53.7));
#240 = CARTESIAN_POINT('', (0.3, 0.300000000000003, -53.4));
#241 = CARTESIAN_POINT('', (0.3, 0.300000000000003, -53.7));
#242 = CARTESIAN_POINT('', (0.3, 3.1045895642428E-15, -53.4));
#243 = CARTESIAN_POINT('', (0.3, 3.11846735205062E-15, -53.7));
#244 = CARTESIAN_POINT('', (0.3, -0.299999999999997, -53.4));
#245 = CARTESIAN_POINT('', (0.3, -0.299999999999997, -53.7));
#246 = CARTESIAN_POINT('', (3.05909468572436E-18, -0.299999999999997, -53.4));
#247 = CARTESIAN_POINT('', (3.05909468572436E-18, -0.299999999999997, -53.7));
#248 = CARTESIAN_POINT('', (-0.3, -0.299999999999997, -53.4));
#249 = CARTESIAN_POINT('', (-0.3, -0.299999999999997, -53.7));
#250 = CARTESIAN_POINT('', (-0.3, 3.28817665571064E-15, -53.4));
#251 = CARTESIAN_POINT('', (-0.3, 3.30205444351845E-15, -53.7));
#252 = ADVANCED_FACE('', (#253), #266, .T.);
#253 = FACE_OUTER_BOUND('', #254, .T.);
#254 = EDGE_LOOP('', (#255, #264, #265));
#255 = ORIENTED_EDGE('', *, *, #256, .F.);
#256 = EDGE_CURVE('', #218, #257, #259, .T.);
#257 = VERTEX_POINT('', #258);
#258 = CARTESIAN_POINT('', (-8.92198872396398E-17, 3.30654635769785E-15, -54.));
#259 = CIRCLE('', #260, 0.300000000000007);
#260 = AXIS2_PLACEMENT_3D('', #261, #262, #263);
#261 = CARTESIAN_POINT('', (8.1601392309949E-15, 3.28817665571063E-15, -53.7));
#262 = DIRECTION('', (-6.12323399573978E-17, -1., -6.12323399573986E-17));
#263 = DIRECTION('', (-1., 6.12323399573993E-17, -2.36847578586694E-14));
#264 = ORIENTED_EDGE('', *, *, #227, .T.);
#265 = ORIENTED_EDGE('', *, *, #256, .T.);
#266 = (
   BOUNDED_SURFACE ()
   B_SPLINE_SURFACE (2, 2, ((#267, #268, #269), (#270, #271, #272), (#273, #274, #275), (#276, #277, #278), (#279, #280, #281), (#282, #283, #284), (#285, #286, #287), (#288, #289, #290), (#291, #292, #293)), .UNSPECIFIED., .T., .F., .U.)
   B_SPLINE_SURFACE_WITH_KNOTS ((3, 2, 2, 2, 3), (3, 3), (0., 0.25, 0.5, 0.75, 1.), (0., 1.), .UNSPECIFIED.)
   GEOMETRIC_REPRESENTATION_ITEM ()
   RATIONAL_B_SPLINE_SURFACE (((1., 0.707106781186548, 1.), (0.707106781186548, 0.5, 0.707106781186548), (1., 0.707106781186548, 1.), (0.707106781186548, 0.5, 0.707106781186548), (1., 0.707106781186548, 1.), (0.707106781186548, 0.5, 0.707106781186548), (1., 0.707106781186548, 1.), (0.707106781186548, 0.5, 0.707106781186548), (1., 0.707106781186548, 1.)))
   REPRESENTATION_ITEM ('')
   SURFACE ()
);
#267 = CARTESIAN_POINT('', (-0.3, 3.30654635769785E-15, -53.7));
#268 = CARTESIAN_POINT('', (-0.3, 3.32491605968506E-15, -54.));
#269 = CARTESIAN_POINT('', (-8.92198872396398E-17, 3.30654635769785E-15, -54.));
#270 = CARTESIAN_POINT('', (-0.3, 0.299999999999973, -53.7));
#271 = CARTESIAN_POINT('', (-0.299999999999976, 0.299999999999973, -54.));
#272 = CARTESIAN_POINT('', (-8.92198872396398E-17, 3.30654635769785E-15, -54.));
#273 = CARTESIAN_POINT('', (-3.04756220259617E-14, 0.299999999999973, -53.7));
#274 = CARTESIAN_POINT('', (-6.27366260007516E-15, 0.299999999999949, -54.));
#275 = CARTESIAN_POINT('', (-8.92198872396398E-17, 3.30654635769785E-15, -54.));
#276 = CARTESIAN_POINT('', (0.299999999999939, 0.299999999999973, -53.7));
#277 = CARTESIAN_POINT('', (0.299999999999963, 0.299999999999924, -54.));
#278 = CARTESIAN_POINT('', (-8.92198872396398E-17, 3.30654635769785E-15, -54.));
#279 = CARTESIAN_POINT('', (0.299999999999939, 3.30654635770015E-15, -53.7));
#280 = CARTESIAN_POINT('', (0.299999999999939, -4.50790027920857E-14, -54.));
#281 = CARTESIAN_POINT('', (-8.92198872396398E-17, 3.30654635769785E-15, -54.));
#282 = CARTESIAN_POINT('', (0.299999999999939, -0.299999999999966, -53.7));
#283 = CARTESIAN_POINT('', (0.299999999999915, -0.300000000000015, -54.));
#284 = CARTESIAN_POINT('', (-8.92198872396398E-17, 3.30654635769785E-15, -54.));
#285 = CARTESIAN_POINT('', (-3.0438882621985E-14, -0.299999999999966, -53.7));
#286 = CARTESIAN_POINT('', (-5.46408420478716E-14, -0.29999999999999, -54.));
#287 = CARTESIAN_POINT('', (-8.92198872396398E-17, 3.30654635769785E-15, -54.));
#288 = CARTESIAN_POINT('', (-0.3, -0.299999999999966, -53.7));
#289 = CARTESIAN_POINT('', (-0.300000000000024, -0.299999999999966, -54.));
#290 = CARTESIAN_POINT('', (-8.92198872396398E-17, 3.30654635769785E-15, -54.));
#291 = CARTESIAN_POINT('', (-0.3, 3.30654635769785E-15, -53.7));
#292 = CARTESIAN_POINT('', (-0.3, 3.32491605968506E-15, -54.));
#293 = CARTESIAN_POINT('', (-8.92198872396398E-17, 3.30654635769785E-15, -54.));
#294 = PRESENTATION_STYLE_ASSIGNMENT((#295));
#295 = SURFACE_STYLE_USAGE(.POSITIVE., #296);
#296 = SURFACE_SIDE_STYLE('', (#297));
#297 = SURFACE_STYLE_FILL_AREA(#298);
#298 = FILL_AREA_STYLE('', (#299));
#299 = FILL_AREA_STYLE_COLOUR('', #300);
#300 = COLOUR_RGB('', 0.8, 0.8, 0.8);
#301 = STYLED_ITEM('', (#294), #194);
#302 = TRIMMED_CURVE('cutting part line', #303, (#307), (#308), .T., .CARTESIAN.);
#303 = LINE('', #304, #305);
#304 = CARTESIAN_POINT('', (-6.00653792956074E-31, -3.26980695372343E-15, -53.4));
#305 = VECTOR('', #306, 0.3);
#306 = DIRECTION('', (0.3, -5.51091059616305E-17, 0.));
#307 = CARTESIAN_POINT('', (-6.00653792956074E-31, -3.26980695372343E-15, -53.4));
#308 = CARTESIAN_POINT('', (0.3, -3.32491605968506E-15, -53.4));
#309 = TRIMMED_CURVE('cutting part line', #310, (#314), (#315), .T., .CARTESIAN.);
#310 = LINE('', #311, #312);
#311 = CARTESIAN_POINT('', (0.3, -3.32491605968506E-15, -53.4));
#312 = VECTOR('', #313, 0.300000000000004);
#313 = DIRECTION('', (0., -1.836970198721E-17, -0.300000000000004));
#314 = CARTESIAN_POINT('', (0.3, -3.32491605968506E-15, -53.4));
#315 = CARTESIAN_POINT('', (0.3, -3.34328576167227E-15, -53.7));
#316 = TRIMMED_CURVE('cutting part line', #317, (#322), (#323), .T., .CARTESIAN.);
#317 = CIRCLE('', #318, 0.299999999999975);
#318 = AXIS2_PLACEMENT_3D('', #319, #320, #321);
#319 = CARTESIAN_POINT('', (1.94844140821715E-14, -3.28817665571064E-15, -53.7));
#320 = DIRECTION('', (1.83697019872102E-16, 1., -6.12323399573665E-17));
#321 = DIRECTION('', (1., -1.83697019872098E-16, 7.10542735760146E-14));
#322 = CARTESIAN_POINT('', (0.299999999999995, -3.34328576167227E-15, -53.7));
#323 = CARTESIAN_POINT('', (-8.15503702260479E-17, -3.30654635769785E-15, -54.));
#324 = TRIMMED_CURVE('cutting part line', #325, (#329), (#330), .T., .CARTESIAN.);
#325 = LINE('', #326, #327);
#326 = CARTESIAN_POINT('', (-6.07402711978052E-31, -3.30654635769785E-15, -54.));
#327 = VECTOR('', #328, 0.600000000000001);
#328 = DIRECTION('', (6.74891902197846E-33, 3.67394039744201E-17, 0.600000000000001));
#329 = CARTESIAN_POINT('', (-6.07402711978052E-31, -3.30654635769785E-15, -54.));
#330 = CARTESIAN_POINT('', (-6.00653792956074E-31, -3.26980695372343E-15, -53.4));
#331 = COMPOSITE_CURVE('cutting part line', (#332, #333, #334, #335), .U.);
#332 = COMPOSITE_CURVE_SEGMENT(.CONTINUOUS., .T., #302);
#333 = COMPOSITE_CURVE_SEGMENT(.CONTINUOUS., .T., #309);
#334 = COMPOSITE_CURVE_SEGMENT(.CONTINUOUS., .T., #316);
#335 = COMPOSITE_CURVE_SEGMENT(.CONTINUOUS., .T., #324);
#336 = GEOMETRIC_SET('', (#331, #374));
#337 = PRESENTATION_STYLE_ASSIGNMENT((#338));
#338 = CURVE_STYLE('', #340, POSITIVE_LENGTH_MEASURE(1.E-6), #339);
#339 = COLOUR_RGB('', 0., 0., 1.);
#340 = DRAUGHTING_PRE_DEFINED_CURVE_FONT('continuous');
#341 = STYLED_ITEM('', (#337), #331);
#342 = PRESENTATION_STYLE_ASSIGNMENT((#343));
#343 = CURVE_STYLE('', #345, POSITIVE_LENGTH_MEASURE(1.E-6), #344);
#344 = COLOUR_RGB('', 0., 0., 1.);
#345 = DRAUGHTING_PRE_DEFINED_CURVE_FONT('continuous');
#346 = OVER_RIDING_STYLED_ITEM('', (#342), #302, #341);
#347 = PRESENTATION_STYLE_ASSIGNMENT((#348));
#348 = CURVE_STYLE('', #350, POSITIVE_LENGTH_MEASURE(1.E-6), #349);
#349 = COLOUR_RGB('', 0., 0., 1.);
#350 = DRAUGHTING_PRE_DEFINED_CURVE_FONT('continuous');
#351 = OVER_RIDING_STYLED_ITEM('', (#347), #309, #341);
#352 = PRESENTATION_STYLE_ASSIGNMENT((#353));
#353 = CURVE_STYLE('', #355, POSITIVE_LENGTH_MEASURE(1.E-6), #354);
#354 = COLOUR_RGB('', 0., 0., 1.);
#355 = DRAUGHTING_PRE_DEFINED_CURVE_FONT('continuous');
#356 = OVER_RIDING_STYLED_ITEM('', (#352), #316, #341);
#357 = PRESENTATION_STYLE_ASSIGNMENT((#358));
#358 = CURVE_STYLE('', #360, POSITIVE_LENGTH_MEASURE(1.E-6), #359);
#359 = COLOUR_RGB('', 0., 0., 1.);
#360 = DRAUGHTING_PRE_DEFINED_CURVE_FONT('continuous');
#361 = OVER_RIDING_STYLED_ITEM('', (#357), #324, #341);
#362 = AXIS2_PLACEMENT_3D('CIP', #363, #364, #365);
#363 = CARTESIAN_POINT('', (2.02467570659351E-31, 3.30654635769785E-15, -54.));
#364 = DIRECTION('', (-3.74939945665465E-33, -6.12323399573677E-17, 1.));
#365 = DIRECTION('', (1., -6.12323399573677E-17, 0.));
#366 = AXIS2_PLACEMENT_3D('MCS', #367, #368, #369);
#367 = CARTESIAN_POINT('', (1.34978380439567E-31, 2.20436423846524E-15, -36.));
#368 = DIRECTION('', (-3.74939945665465E-33, -6.12323399573677E-17, 1.));
#369 = DIRECTION('', (1., -6.12323399573677E-17, 0.));
#370 = AXIS2_PLACEMENT_3D('PCS', #371, #372, #373);
#371 = CARTESIAN_POINT('', (0., 0., 0.));
#372 = DIRECTION('', (0., 0., 1.));
#373 = DIRECTION('', (1., 0., 0.));
#374 = CARTESIAN_POINT('CRP', (0.300000000000002, 0., -54.));
#375 = (
   GEOMETRIC_REPRESENTATION_CONTEXT (3)
   GLOBAL_UNCERTAINTY_ASSIGNED_CONTEXT ((#377))
   GLOBAL_UNIT_ASSIGNED_CONTEXT ((#376, #378, #379))
   REPRESENTATION_CONTEXT ('', '3D')
);
#376 = (
   LENGTH_UNIT ()
   NAMED_UNIT (*)
   SI_UNIT (.MILLI., .METRE.)
);
#377 = UNCERTAINTY_MEASURE_WITH_UNIT(LENGTH_MEASURE(1.E-6), #376, 'DISTANCE_ACCURACY_VALUE', '');
#378 = (
   NAMED_UNIT (*)
   SI_UNIT ($, .STERADIAN.)
   SOLID_ANGLE_UNIT ()
);
#379 = (
   NAMED_UNIT (*)
   PLANE_ANGLE_UNIT ()
   SI_UNIT ($, .RADIAN.)
);
#380 = SHAPE_REPRESENTATION('', (), #375);
#381 = PRODUCT_DEFINITION_SHAPE('', '', #382);
#382 = PRODUCT_DEFINITION('', '', #385, #389);
#383 = APPLICATION_CONTEXT('configuration controlled 3D designs of mechanical parts and assemblies');
#384 = APPLICATION_PROTOCOL_DEFINITION('International Standard', 'automotive_design', 2002, #383);
#385 = PRODUCT_DEFINITION_FORMATION_WITH_SPECIFIED_SOURCE('', '', #386, .NOT_KNOWN.);
#386 = PRODUCT('EmptyName', 'EmptyName', '', (#387));
#387 = PRODUCT_CONTEXT('', #383, 'mechanical');
#388 = PRODUCT_RELATED_PRODUCT_CATEGORY('detail', '', (#386));
#389 = PRODUCT_DEFINITION_CONTEXT('part definition', #383, 'design');
#390 = SHAPE_DEFINITION_REPRESENTATION(#381, #380);
#391 = CONSTRUCTIVE_GEOMETRY_REPRESENTATION('supplemental geometry', (#362, #366, #370), #375);
#392 = CONSTRUCTIVE_GEOMETRY_REPRESENTATION_RELATIONSHIP('', '', #380, #391);
#393 = SHAPE_REPRESENTATION_RELATIONSHIP('', '', #380, #394);
#394 = SHAPE_REPRESENTATION('', (#336), #375);
#395 = SHAPE_REPRESENTATION_RELATIONSHIP('', '', #380, #396);
#396 = ADVANCED_BREP_SHAPE_REPRESENTATION('', (#1, #194), #375);
ENDSEC;
END-ISO-10303-21;
