ISO-10303-21;
HEADER;
FILE_DESCRIPTION(('STEP'), '1');
FILE_NAME('C:\\Users\\ds2002\\OneDrive - Sandvik\\HomeShare\\Documents\\Batchrepair\\CorSRT2\\NEW_MILBN_SLD\\Output2\\MOD000000000000000020084637000000.stp', '2018-11-23T12:39:27', (''), (''), 'Express v3.0.0.0', 'Express Tool', 'Unknown');
FILE_SCHEMA(('AUTOMOTIVE_DESIGN'));
ENDSEC;

DATA;
#1 = MANIFOLD_SOLID_BREP('NOCUT', #2);
#2 = CLOSED_SHELL('', (#3, #50, #97, #106, #137, #176));
#3 = ADVANCED_FACE('', (#4), #31, .T.);
#4 = FACE_OUTER_BOUND('', #5, .T.);
#5 = EDGE_LOOP('', (#6, #16, #23, #24));
#6 = ORIENTED_EDGE('', *, *, #7, .F.);
#7 = EDGE_CURVE('', #8, #10, #12, .T.);
#8 = VERTEX_POINT('', #9);
#9 = CARTESIAN_POINT('', (-2., 2.27784304641408E-15, -35.2));
#10 = VERTEX_POINT('', #11);
#11 = CARTESIAN_POINT('', (-0.25, 2.67891487313484E-15, -43.5));
#12 = LINE('', #13, #14);
#13 = CARTESIAN_POINT('', (-2., 2.27784304641408E-15, -35.2));
#14 = VECTOR('', #15, 8.48248194810929);
#15 = DIRECTION('', (1.75, 4.0107182672076E-16, -8.3));
#16 = ORIENTED_EDGE('', *, *, #17, .T.);
#17 = EDGE_CURVE('', #8, #8, #18, .T.);
#18 = CIRCLE('', #19, 2.);
#19 = AXIS2_PLACEMENT_3D('', #20, #21, #22);
#20 = CARTESIAN_POINT('', (5.20417042793042E-16, 4.44089209850063E-16, -35.2));
#21 = DIRECTION('', (0., 0., -1.));
#22 = DIRECTION('', (-1., 9.16876918282008E-16, 0.));
#23 = ORIENTED_EDGE('', *, *, #7, .T.);
#24 = ORIENTED_EDGE('', *, *, #25, .F.);
#25 = EDGE_CURVE('', #10, #10, #26, .T.);
#26 = CIRCLE('', #27, 0.25);
#27 = AXIS2_PLACEMENT_3D('', #28, #29, #30);
#28 = CARTESIAN_POINT('', (3.20923843055709E-17, 2.67147415300428E-15, -43.5));
#29 = DIRECTION('', (0., 0., -1.));
#30 = DIRECTION('', (-1., 2.97628805222285E-17, 0.));
#31 = (
   BOUNDED_SURFACE ()
   B_SPLINE_SURFACE (2, 1, ((#32, #33), (#34, #35), (#36, #37), (#38, #39), (#40, #41), (#42, #43), (#44, #45), (#46, #47), (#48, #49)), .UNSPECIFIED., .T., .F., .U.)
   B_SPLINE_SURFACE_WITH_KNOTS ((3, 2, 2, 2, 3), (2, 2), (0., 0.25, 0.5, 0.75, 1.), (0., 1.), .UNSPECIFIED.)
   GEOMETRIC_REPRESENTATION_ITEM ()
   RATIONAL_B_SPLINE_SURFACE (((1., 1.), (0.707106781186548, 0.707106781186548), (1., 1.), (0.707106781186548, 0.707106781186548), (1., 1.), (0.707106781186548, 0.707106781186548), (1., 1.), (0.707106781186548, 0.707106781186548), (1., 1.)))
   REPRESENTATION_ITEM ('')
   SURFACE ()
);
#32 = CARTESIAN_POINT('', (-2., 2.27784304641408E-15, -35.2));
#33 = CARTESIAN_POINT('', (-0.25, 2.81048776182399E-15, -43.5));
#34 = CARTESIAN_POINT('', (-2., 2., -35.2));
#35 = CARTESIAN_POINT('', (-0.25, 0.250000000000003, -43.5));
#36 = CARTESIAN_POINT('', (8.23110736949157E-16, 2., -35.2));
#37 = CARTESIAN_POINT('', (1.51461099445995E-16, 0.250000000000003, -43.5));
#38 = CARTESIAN_POINT('', (2., 2., -35.2));
#39 = CARTESIAN_POINT('', (0.25, 0.250000000000003, -43.5));
#40 = CARTESIAN_POINT('', (2., 7.42643874978282E-16, -35.2));
#41 = CARTESIAN_POINT('', (0.25, 2.61858786539452E-15, -43.5));
#42 = CARTESIAN_POINT('', (2., -2., -35.2));
#43 = CARTESIAN_POINT('', (0.25, -0.249999999999997, -43.5));
#44 = CARTESIAN_POINT('', (-4.6715907465717E-16, -2., -35.2));
#45 = CARTESIAN_POINT('', (-9.82262700479482E-18, -0.249999999999997, -43.5));
#46 = CARTESIAN_POINT('', (-2., -2., -35.2));
#47 = CARTESIAN_POINT('', (-0.25, -0.249999999999997, -43.5));
#48 = CARTESIAN_POINT('', (-2., 2.27784304641408E-15, -35.2));
#49 = CARTESIAN_POINT('', (-0.25, 2.81048776182399E-15, -43.5));
#50 = ADVANCED_FACE('', (#51), #78, .T.);
#51 = FACE_OUTER_BOUND('', #52, .T.);
#52 = EDGE_LOOP('', (#53, #63, #70, #71));
#53 = ORIENTED_EDGE('', *, *, #54, .T.);
#54 = EDGE_CURVE('', #55, #57, #59, .T.);
#55 = VERTEX_POINT('', #56);
#56 = CARTESIAN_POINT('', (-2., 1.34711147906209E-16, -0.200000000000003));
#57 = VERTEX_POINT('', #58);
#58 = CARTESIAN_POINT('', (-1.8, 1.10218211923262E-16, 0.));
#59 = LINE('', #60, #61);
#60 = CARTESIAN_POINT('', (-2., 1.34711147906209E-16, -0.200000000000003));
#61 = VECTOR('', #62, 0.282842712474621);
#62 = DIRECTION('', (0.2, -2.4492935982947E-17, 0.200000000000003));
#63 = ORIENTED_EDGE('', *, *, #64, .T.);
#64 = EDGE_CURVE('', #57, #57, #65, .T.);
#65 = CIRCLE('', #66, 1.8);
#66 = AXIS2_PLACEMENT_3D('', #67, #68, #69);
#67 = CARTESIAN_POINT('', (3.95516952522712E-16, -1.66533453693773E-16, -1.23259516440783E-32));
#68 = DIRECTION('', (2.56677801597317E-33, 6.12323399573678E-17, -1.));
#69 = DIRECTION('', (-1., -9.1178434486673E-17, -8.14984691324171E-33));
#70 = ORIENTED_EDGE('', *, *, #54, .F.);
#71 = ORIENTED_EDGE('', *, *, #72, .F.);
#72 = EDGE_CURVE('', #55, #55, #73, .T.);
#73 = CIRCLE('', #74, 2.);
#74 = AXIS2_PLACEMENT_3D('', #75, #76, #77);
#75 = CARTESIAN_POINT('', (2.84494650060196E-16, 5.55111512312578E-17, -0.200000000000003));
#76 = DIRECTION('', (1.38777878078145E-17, -4.5148837062514E-17, -1.));
#77 = DIRECTION('', (-1., -2.05329361491995E-16, -1.38777878078145E-17));
#78 = (
   BOUNDED_SURFACE ()
   B_SPLINE_SURFACE (1, 2, ((#79, #80, #81, #82, #83, #84, #85, #86, #87), (#88, #89, #90, #91, #92, #93, #94, #95, #96)), .UNSPECIFIED., .F., .T., .U.)
   B_SPLINE_SURFACE_WITH_KNOTS ((2, 2), (3, 2, 2, 2, 3), (0., 1.), (0., 0.25, 0.5, 0.75, 1.), .UNSPECIFIED.)
   GEOMETRIC_REPRESENTATION_ITEM ()
   RATIONAL_B_SPLINE_SURFACE (((1., 0.707106781186548, 1., 0.707106781186548, 1., 0.707106781186548, 1., 0.707106781186548, 1.), (1., 0.707106781186548, 1., 0.707106781186548, 1., 0.707106781186548, 1., 0.707106781186548, 1.)))
   REPRESENTATION_ITEM ('')
   SURFACE ()
);
#79 = CARTESIAN_POINT('', (-2., -1.02476577886459E-15, -0.200000000000003));
#80 = CARTESIAN_POINT('', (-2., 2., -0.200000000000015));
#81 = CARTESIAN_POINT('', (1.64220489059138E-16, 2., -0.200000000000015));
#82 = CARTESIAN_POINT('', (2., 2., -0.200000000000015));
#83 = CARTESIAN_POINT('', (2., -1.39484012040631E-15, -0.200000000000003));
#84 = CARTESIAN_POINT('', (2., -2., -0.199999999999991));
#85 = CARTESIAN_POINT('', (3.90755073468892E-17, -2., -0.199999999999991));
#86 = CARTESIAN_POINT('', (-2., -2., -0.199999999999991));
#87 = CARTESIAN_POINT('', (-2., -1.02476577886459E-15, -0.200000000000003));
#88 = CARTESIAN_POINT('', (-1.8, 1.10218211923262E-16, 0.));
#89 = CARTESIAN_POINT('', (-1.8, 1.8, -1.04916075827076E-14));
#90 = CARTESIAN_POINT('', (1.45716771982052E-16, 1.8, -1.04916075827076E-14));
#91 = CARTESIAN_POINT('', (1.8, 1.8, -1.04916075827076E-14));
#92 = CARTESIAN_POINT('', (1.8, -2.22848695464285E-16, -1.30334029187341E-30));
#93 = CARTESIAN_POINT('', (1.8, -1.8, 1.04916075827076E-14));
#94 = CARTESIAN_POINT('', (3.30862884410282E-17, -1.8, 1.04916075827076E-14));
#95 = CARTESIAN_POINT('', (-1.8, -1.8, 1.04916075827076E-14));
#96 = CARTESIAN_POINT('', (-1.8, 1.10218211923262E-16, 0.));
#97 = ADVANCED_FACE('', (#98), #101, .T.);
#98 = FACE_OUTER_BOUND('', #99, .T.);
#99 = EDGE_LOOP('', (#100));
#100 = ORIENTED_EDGE('', *, *, #64, .F.);
#101 = B_SPLINE_SURFACE_WITH_KNOTS('', 1, 1, ((#102, #103), (#104, #105)), .UNSPECIFIED., .F., .F., .U., (2, 2), (2, 2), (1.00014285349873, 4.60014285349873), (1.00014285349873, 4.60014285349873), .UNSPECIFIED.);
#102 = CARTESIAN_POINT('', (1.8, -1.8, -1.10218211923258E-16));
#103 = CARTESIAN_POINT('', (-1.8, -1.8, -1.43210729271253E-14));
#104 = CARTESIAN_POINT('', (1.8, 1.8, 1.43210729271253E-14));
#105 = CARTESIAN_POINT('', (-1.8, 1.8, 1.10218211923277E-16));
#106 = ADVANCED_FACE('', (#107), #118, .T.);
#107 = FACE_OUTER_BOUND('', #108, .T.);
#108 = EDGE_LOOP('', (#109, #115, #116, #117));
#109 = ORIENTED_EDGE('', *, *, #110, .T.);
#110 = EDGE_CURVE('', #8, #55, #111, .T.);
#111 = LINE('', #112, #113);
#112 = CARTESIAN_POINT('', (-2., 2.27784304641408E-15, -35.2));
#113 = VECTOR('', #114, 35.);
#114 = DIRECTION('', (0., -2.14313189850787E-15, 35.));
#115 = ORIENTED_EDGE('', *, *, #72, .T.);
#116 = ORIENTED_EDGE('', *, *, #110, .F.);
#117 = ORIENTED_EDGE('', *, *, #17, .F.);
#118 = (
   BOUNDED_SURFACE ()
   B_SPLINE_SURFACE (1, 2, ((#119, #120, #121, #122, #123, #124, #125, #126, #127), (#128, #129, #130, #131, #132, #133, #134, #135, #136)), .UNSPECIFIED., .F., .T., .U.)
   B_SPLINE_SURFACE_WITH_KNOTS ((2, 2), (3, 2, 2, 2, 3), (0., 1.), (0., 3.1415926535898, 6.2831853071796, 9.4247779607694, 12.5663706143592), .UNSPECIFIED.)
   GEOMETRIC_REPRESENTATION_ITEM ()
   RATIONAL_B_SPLINE_SURFACE (((1., 0.707106781186548, 1., 0.707106781186548, 1., 0.707106781186548, 1., 0.707106781186548, 1.), (1., 0.707106781186548, 1., 0.707106781186548, 1., 0.707106781186548, 1., 0.707106781186548, 1.)))
   REPRESENTATION_ITEM ('')
   SURFACE ()
);
#119 = CARTESIAN_POINT('', (-2., 6.34311508987529E-16, -35.2));
#120 = CARTESIAN_POINT('', (-2., 2., -35.2));
#121 = CARTESIAN_POINT('', (1.06001944748147E-15, 2., -35.2));
#122 = CARTESIAN_POINT('', (2., 2., -35.2));
#123 = CARTESIAN_POINT('', (2., -7.22449056545606E-16, -35.2));
#124 = CARTESIAN_POINT('', (2., -2., -35.2));
#125 = CARTESIAN_POINT('', (-5.18117582221992E-17, -2., -35.2));
#126 = CARTESIAN_POINT('', (-2., -2., -35.2));
#127 = CARTESIAN_POINT('', (-2., 6.34311508987529E-16, -35.2));
#128 = CARTESIAN_POINT('', (-2., 1.34711147906209E-16, -0.200000000000003));
#129 = CARTESIAN_POINT('', (-2., 2., -0.200000000000003));
#130 = CARTESIAN_POINT('', (5.74296874207959E-16, 2., -0.200000000000003));
#131 = CARTESIAN_POINT('', (2., 2., -0.200000000000003));
#132 = CARTESIAN_POINT('', (2., -1.22204941762693E-15, -0.200000000000003));
#133 = CARTESIAN_POINT('', (2., -2., -0.200000000000003));
#134 = CARTESIAN_POINT('', (-5.37534331495705E-16, -2., -0.200000000000003));
#135 = CARTESIAN_POINT('', (-2., -2., -0.200000000000003));
#136 = CARTESIAN_POINT('', (-2., 1.34711147906209E-16, -0.200000000000003));
#137 = ADVANCED_FACE('', (#138), #157, .T.);
#138 = FACE_OUTER_BOUND('', #139, .T.);
#139 = EDGE_LOOP('', (#140, #149, #155, #156));
#140 = ORIENTED_EDGE('', *, *, #141, .F.);
#141 = EDGE_CURVE('', #142, #142, #144, .T.);
#142 = VERTEX_POINT('', #143);
#143 = CARTESIAN_POINT('', (-0.25, 2.74933206408581E-15, -44.65));
#144 = CIRCLE('', #145, 0.25);
#145 = AXIS2_PLACEMENT_3D('', #146, #147, #148);
#146 = CARTESIAN_POINT('', (-3.64291929955129E-17, 2.79637424327461E-15, -44.65));
#147 = DIRECTION('', (0., 0., -1.));
#148 = DIRECTION('', (-1., -1.88168716755212E-16, 0.));
#149 = ORIENTED_EDGE('', *, *, #150, .F.);
#150 = EDGE_CURVE('', #10, #142, #151, .T.);
#151 = LINE('', #152, #153);
#152 = CARTESIAN_POINT('', (-0.25, 2.67891487313484E-15, -43.5));
#153 = VECTOR('', #154, 1.15);
#154 = DIRECTION('', (0., 7.041719095097E-17, -1.15));
#155 = ORIENTED_EDGE('', *, *, #25, .T.);
#156 = ORIENTED_EDGE('', *, *, #150, .T.);
#157 = (
   BOUNDED_SURFACE ()
   B_SPLINE_SURFACE (2, 1, ((#158, #159), (#160, #161), (#162, #163), (#164, #165), (#166, #167), (#168, #169), (#170, #171), (#172, #173), (#174, #175)), .UNSPECIFIED., .T., .F., .U.)
   B_SPLINE_SURFACE_WITH_KNOTS ((3, 2, 2, 2, 3), (2, 2), (0., 0.392699081698725, 0.78539816339745, 1.17809724509618, 1.5707963267949), (0., 0.920000000000002), .UNSPECIFIED.)
   GEOMETRIC_REPRESENTATION_ITEM ()
   RATIONAL_B_SPLINE_SURFACE (((1., 1.), (0.707106781186548, 0.707106781186548), (1., 1.), (0.707106781186548, 0.707106781186548), (1., 1.), (0.707106781186548, 0.707106781186548), (1., 1.), (0.707106781186548, 0.707106781186548), (1., 1.)))
   REPRESENTATION_ITEM ('')
   SURFACE ()
);
#158 = CARTESIAN_POINT('', (-0.25, 2.67891487313484E-15, -43.5));
#159 = CARTESIAN_POINT('', (-0.25, 2.74136491827001E-15, -44.65));
#160 = CARTESIAN_POINT('', (-0.25, 0.250000000000003, -43.5));
#161 = CARTESIAN_POINT('', (-0.25, 0.250000000000003, -44.65));
#162 = CARTESIAN_POINT('', (-5.21028134961934E-17, 0.250000000000003, -43.5));
#163 = CARTESIAN_POINT('', (-5.21028134961934E-17, 0.250000000000003, -44.65));
#164 = CARTESIAN_POINT('', (0.25, 0.250000000000003, -43.5));
#165 = CARTESIAN_POINT('', (0.25, 0.250000000000003, -44.65));
#166 = CARTESIAN_POINT('', (0.25, 2.79179411750711E-15, -43.5));
#167 = CARTESIAN_POINT('', (0.25, 2.85424416264228E-15, -44.65));
#168 = CARTESIAN_POINT('', (0.25, -0.249999999999997, -43.5));
#169 = CARTESIAN_POINT('', (0.25, -0.249999999999997, -44.65));
#170 = CARTESIAN_POINT('', (9.13926008547612E-17, -0.249999999999997, -43.5));
#171 = CARTESIAN_POINT('', (9.13926008547612E-17, -0.249999999999997, -44.65));
#172 = CARTESIAN_POINT('', (-0.25, -0.249999999999997, -43.5));
#173 = CARTESIAN_POINT('', (-0.25, -0.249999999999997, -44.65));
#174 = CARTESIAN_POINT('', (-0.25, 2.67891487313484E-15, -43.5));
#175 = CARTESIAN_POINT('', (-0.25, 2.74136491827001E-15, -44.65));
#176 = ADVANCED_FACE('', (#177), #180, .T.);
#177 = FACE_OUTER_BOUND('', #178, .T.);
#178 = EDGE_LOOP('', (#179));
#179 = ORIENTED_EDGE('', *, *, #141, .T.);
#180 = B_SPLINE_SURFACE_WITH_KNOTS('', 1, 1, ((#181, #182), (#183, #184)), .UNSPECIFIED., .F., .F., .U., (2, 2), (2, 2), (47.0730563348892, 47.5730563348892), (43.1352747929635, 43.6352747929635), .UNSPECIFIED.);
#181 = CARTESIAN_POINT('', (-0.249999999999998, 0.25, -44.65));
#182 = CARTESIAN_POINT('', (-0.249999999999998, -0.25, -44.65));
#183 = CARTESIAN_POINT('', (0.250000000000002, 0.25, -44.65));
#184 = CARTESIAN_POINT('', (0.250000000000002, -0.25, -44.65));
#185 = DRAUGHTING_MODEL('', (#193, #301, #341, #346, #351, #356, #361), #375);
#186 = PRESENTATION_STYLE_ASSIGNMENT((#187));
#187 = SURFACE_STYLE_USAGE(.POSITIVE., #188);
#188 = SURFACE_SIDE_STYLE('', (#189));
#189 = SURFACE_STYLE_FILL_AREA(#190);
#190 = FILL_AREA_STYLE('', (#191));
#191 = FILL_AREA_STYLE_COLOUR('', #192);
#192 = COLOUR_RGB('', 0.50196078431373, 0.50196078431373, 0.50196078431373);
#193 = STYLED_ITEM('', (#186), #1);
#194 = MANIFOLD_SOLID_BREP('CUT', #195);
#195 = CLOSED_SHELL('', (#196, #213, #252));
#196 = ADVANCED_FACE('', (#197), #208, .T.);
#197 = FACE_OUTER_BOUND('', #198, .T.);
#198 = EDGE_LOOP('', (#199));
#199 = ORIENTED_EDGE('', *, *, #200, .F.);
#200 = EDGE_CURVE('', #201, #201, #203, .T.);
#201 = VERTEX_POINT('', #202);
#202 = CARTESIAN_POINT('', (-0.25, 2.74933206408581E-15, -44.65));
#203 = CIRCLE('', #204, 0.25);
#204 = AXIS2_PLACEMENT_3D('', #205, #206, #207);
#205 = CARTESIAN_POINT('', (-3.64291929955129E-17, 2.79637424327461E-15, -44.65));
#206 = DIRECTION('', (0., 0., -1.));
#207 = DIRECTION('', (-1., -1.88168716755212E-16, 0.));
#208 = B_SPLINE_SURFACE_WITH_KNOTS('', 1, 1, ((#209, #210), (#211, #212)), .UNSPECIFIED., .F., .F., .U., (2, 2), (2, 2), (43.1352747929634, 43.6352747929634), (47.0730563348892, 47.5730563348892), .UNSPECIFIED.);
#209 = CARTESIAN_POINT('', (-0.25, 0.249999999999997, -44.65));
#210 = CARTESIAN_POINT('', (0.25, 0.249999999999997, -44.65));
#211 = CARTESIAN_POINT('', (-0.25, -0.250000000000003, -44.65));
#212 = CARTESIAN_POINT('', (0.25, -0.250000000000003, -44.65));
#213 = ADVANCED_FACE('', (#214), #233, .T.);
#214 = FACE_OUTER_BOUND('', #215, .T.);
#215 = EDGE_LOOP('', (#216, #217, #225, #232));
#216 = ORIENTED_EDGE('', *, *, #200, .T.);
#217 = ORIENTED_EDGE('', *, *, #218, .T.);
#218 = EDGE_CURVE('', #201, #219, #221, .T.);
#219 = VERTEX_POINT('', #220);
#220 = CARTESIAN_POINT('', (-0.25, 2.75545529808154E-15, -44.75));
#221 = LINE('', #222, #223);
#222 = CARTESIAN_POINT('', (-0.25, 2.74933206408581E-15, -44.65));
#223 = VECTOR('', #224, 0.100000000000001);
#224 = DIRECTION('', (0., 6.12323399572997E-18, -0.100000000000001));
#225 = ORIENTED_EDGE('', *, *, #226, .F.);
#226 = EDGE_CURVE('', #219, #219, #227, .T.);
#227 = CIRCLE('', #228, 0.25);
#228 = AXIS2_PLACEMENT_3D('', #229, #230, #231);
#229 = CARTESIAN_POINT('', (-3.72965547335014E-17, 2.79637424327461E-15, -44.75));
#230 = DIRECTION('', (0., 0., -1.));
#231 = DIRECTION('', (-1., -1.63675780772292E-16, 0.));
#232 = ORIENTED_EDGE('', *, *, #218, .F.);
#233 = (
   BOUNDED_SURFACE ()
   B_SPLINE_SURFACE (2, 1, ((#234, #235), (#236, #237), (#238, #239), (#240, #241), (#242, #243), (#244, #245), (#246, #247), (#248, #249), (#250, #251)), .UNSPECIFIED., .T., .F., .U.)
   B_SPLINE_SURFACE_WITH_KNOTS ((3, 2, 2, 2, 3), (2, 2), (0., 0.392699081698725, 0.78539816339745, 1.17809724509618, 1.5707963267949), (0.920000000000002, 1.), .UNSPECIFIED.)
   GEOMETRIC_REPRESENTATION_ITEM ()
   RATIONAL_B_SPLINE_SURFACE (((1., 1.), (0.707106781186548, 0.707106781186548), (1., 1.), (0.707106781186548, 0.707106781186548), (1., 1.), (0.707106781186548, 0.707106781186548), (1., 1.), (0.707106781186548, 0.707106781186548), (1., 1.)))
   REPRESENTATION_ITEM ('')
   SURFACE ()
);
#234 = CARTESIAN_POINT('', (-0.25, 2.74933206408581E-15, -44.65));
#235 = CARTESIAN_POINT('', (-0.25, 2.74933206408581E-15, -44.75));
#236 = CARTESIAN_POINT('', (-0.25, 0.250000000000003, -44.65));
#237 = CARTESIAN_POINT('', (-0.25, 0.250000000000003, -44.75));
#238 = CARTESIAN_POINT('', (-4.7605114632342E-17, 0.250000000000003, -44.65));
#239 = CARTESIAN_POINT('', (-4.7605114632342E-17, 0.250000000000003, -44.75));
#240 = CARTESIAN_POINT('', (0.25, 0.250000000000003, -44.65));
#241 = CARTESIAN_POINT('', (0.25, 0.250000000000003, -44.75));
#242 = CARTESIAN_POINT('', (0.25, 2.84627701682647E-15, -44.65));
#243 = CARTESIAN_POINT('', (0.25, 2.84627701682647E-15, -44.75));
#244 = CARTESIAN_POINT('', (0.25, -0.249999999999997, -44.65));
#245 = CARTESIAN_POINT('', (0.25, -0.249999999999997, -44.75));
#246 = CARTESIAN_POINT('', (7.99560080870027E-17, -0.249999999999997, -44.65));
#247 = CARTESIAN_POINT('', (7.99560080870027E-17, -0.249999999999997, -44.75));
#248 = CARTESIAN_POINT('', (-0.25, -0.249999999999997, -44.65));
#249 = CARTESIAN_POINT('', (-0.25, -0.249999999999997, -44.75));
#250 = CARTESIAN_POINT('', (-0.25, 2.74933206408581E-15, -44.65));
#251 = CARTESIAN_POINT('', (-0.25, 2.74933206408581E-15, -44.75));
#252 = ADVANCED_FACE('', (#253), #266, .T.);
#253 = FACE_OUTER_BOUND('', #254, .T.);
#254 = EDGE_LOOP('', (#255, #264, #265));
#255 = ORIENTED_EDGE('', *, *, #256, .F.);
#256 = EDGE_CURVE('', #219, #257, #259, .T.);
#257 = VERTEX_POINT('', #258);
#258 = CARTESIAN_POINT('', (7.36798305836548E-17, 2.75545529808154E-15, -45.));
#259 = CIRCLE('', #260, 0.249999999999979);
#260 = AXIS2_PLACEMENT_3D('', #261, #262, #263);
#261 = CARTESIAN_POINT('', (-1.0019762797242E-14, 2.74014721309219E-15, -44.75));
#262 = DIRECTION('', (-6.12323399573994E-17, -1., -6.12323399573969E-17));
#263 = DIRECTION('', (-1., 6.12323399573942E-17, 8.52651282912161E-14));
#264 = ORIENTED_EDGE('', *, *, #226, .T.);
#265 = ORIENTED_EDGE('', *, *, #256, .T.);
#266 = (
   BOUNDED_SURFACE ()
   B_SPLINE_SURFACE (2, 2, ((#267, #268, #269), (#270, #271, #272), (#273, #274, #275), (#276, #277, #278), (#279, #280, #281), (#282, #283, #284), (#285, #286, #287), (#288, #289, #290), (#291, #292, #293)), .UNSPECIFIED., .T., .F., .U.)
   B_SPLINE_SURFACE_WITH_KNOTS ((3, 2, 2, 2, 3), (3, 3), (0., 0.25, 0.5, 0.75, 1.), (0., 1.), .UNSPECIFIED.)
   GEOMETRIC_REPRESENTATION_ITEM ()
   RATIONAL_B_SPLINE_SURFACE (((1., 0.707106781186548, 1.), (0.707106781186548, 0.5, 0.707106781186548), (1., 0.707106781186548, 1.), (0.707106781186548, 0.5, 0.707106781186548), (1., 0.707106781186548, 1.), (0.707106781186548, 0.5, 0.707106781186548), (1., 0.707106781186548, 1.), (0.707106781186548, 0.5, 0.707106781186548), (1., 0.707106781186548, 1.)))
   REPRESENTATION_ITEM ('')
   SURFACE ()
);
#267 = CARTESIAN_POINT('', (-0.25, 2.75545529808154E-15, -44.75));
#268 = CARTESIAN_POINT('', (-0.25, 2.77076338307089E-15, -45.));
#269 = CARTESIAN_POINT('', (7.36798305836548E-17, 2.75545529808154E-15, -45.));
#270 = CARTESIAN_POINT('', (-0.25, 0.249999999999992, -44.75));
#271 = CARTESIAN_POINT('', (-0.25, 0.249999999999992, -45.));
#272 = CARTESIAN_POINT('', (7.36798305836548E-17, 2.75545529808154E-15, -45.));
#273 = CARTESIAN_POINT('', (-1.09634523681734E-14, 0.249999999999992, -44.75));
#274 = CARTESIAN_POINT('', (-1.09481442831841E-14, 0.249999999999992, -45.));
#275 = CARTESIAN_POINT('', (7.36798305836548E-17, 2.75545529808154E-15, -45.));
#276 = CARTESIAN_POINT('', (0.249999999999978, 0.249999999999992, -44.75));
#277 = CARTESIAN_POINT('', (0.249999999999978, 0.249999999999992, -45.));
#278 = CARTESIAN_POINT('', (7.36798305836548E-17, 2.75545529808154E-15, -45.));
#279 = CARTESIAN_POINT('', (0.249999999999978, 2.75545529808153E-15, -44.75));
#280 = CARTESIAN_POINT('', (0.249999999999978, 2.74014721309218E-15, -45.));
#281 = CARTESIAN_POINT('', (7.36798305836548E-17, 2.75545529808154E-15, -45.));
#282 = CARTESIAN_POINT('', (0.249999999999978, -0.249999999999986, -44.75));
#283 = CARTESIAN_POINT('', (0.249999999999978, -0.249999999999986, -45.));
#284 = CARTESIAN_POINT('', (7.36798305836548E-17, 2.75545529808154E-15, -45.));
#285 = CARTESIAN_POINT('', (-1.09328361981947E-14, -0.249999999999986, -44.75));
#286 = CARTESIAN_POINT('', (-1.09481442831841E-14, -0.249999999999986, -45.));
#287 = CARTESIAN_POINT('', (7.36798305836548E-17, 2.75545529808154E-15, -45.));
#288 = CARTESIAN_POINT('', (-0.25, -0.249999999999986, -44.75));
#289 = CARTESIAN_POINT('', (-0.25, -0.249999999999986, -45.));
#290 = CARTESIAN_POINT('', (7.36798305836548E-17, 2.75545529808154E-15, -45.));
#291 = CARTESIAN_POINT('', (-0.25, 2.75545529808154E-15, -44.75));
#292 = CARTESIAN_POINT('', (-0.25, 2.77076338307089E-15, -45.));
#293 = CARTESIAN_POINT('', (7.36798305836548E-17, 2.75545529808154E-15, -45.));
#294 = PRESENTATION_STYLE_ASSIGNMENT((#295));
#295 = SURFACE_STYLE_USAGE(.POSITIVE., #296);
#296 = SURFACE_SIDE_STYLE('', (#297));
#297 = SURFACE_STYLE_FILL_AREA(#298);
#298 = FILL_AREA_STYLE('', (#299));
#299 = FILL_AREA_STYLE_COLOUR('', #300);
#300 = COLOUR_RGB('', 0.8, 0.8, 0.8);
#301 = STYLED_ITEM('', (#294), #194);
#302 = TRIMMED_CURVE('cutting part line', #303, (#307), (#308), .T., .CARTESIAN.);
#303 = LINE('', #304, #305);
#304 = CARTESIAN_POINT('', (-5.0223205721889E-31, -2.73402397909647E-15, -44.65));
#305 = VECTOR('', #306, 0.25);
#306 = DIRECTION('', (0.25, -4.59242549680237E-17, 0.));
#307 = CARTESIAN_POINT('', (-5.0223205721889E-31, -2.73402397909647E-15, -44.65));
#308 = CARTESIAN_POINT('', (0.25, -2.77994823406449E-15, -44.65));
#309 = TRIMMED_CURVE('cutting part line', #310, (#314), (#315), .T., .CARTESIAN.);
#310 = LINE('', #311, #312);
#311 = CARTESIAN_POINT('', (0.25, -2.77994823406449E-15, -44.65));
#312 = VECTOR('', #313, 0.100000000000001);
#313 = DIRECTION('', (0., -6.12323399572997E-18, -0.100000000000001));
#314 = CARTESIAN_POINT('', (0.25, -2.77994823406449E-15, -44.65));
#315 = CARTESIAN_POINT('', (0.25, -2.78607146806022E-15, -44.75));
#316 = TRIMMED_CURVE('cutting part line', #317, (#322), (#323), .T., .CARTESIAN.);
#317 = CIRCLE('', #318, 0.249999999999987);
#318 = AXIS2_PLACEMENT_3D('', #319, #320, #321);
#319 = CARTESIAN_POINT('', (1.07414077632484E-14, -2.74014721309219E-15, -44.75));
#320 = DIRECTION('', (1.83697019872136E-16, 1., -6.12323399574017E-17));
#321 = DIRECTION('', (1., -1.83697019872134E-16, 2.84217094304052E-14));
#322 = CARTESIAN_POINT('', (0.249999999999998, -2.78607146806022E-15, -44.75));
#323 = CARTESIAN_POINT('', (-1.23469793087951E-16, -2.75545529808154E-15, -45.));
#324 = TRIMMED_CURVE('cutting part line', #325, (#329), (#330), .T., .CARTESIAN.);
#325 = LINE('', #326, #327);
#326 = CARTESIAN_POINT('', (-5.06168926648376E-31, -2.75545529808154E-15, -45.));
#327 = VECTOR('', #328, 0.350000000000001);
#328 = DIRECTION('', (3.93686942948616E-33, 2.14313189850699E-17, 0.350000000000001));
#329 = CARTESIAN_POINT('', (-5.06168926648376E-31, -2.75545529808154E-15, -45.));
#330 = CARTESIAN_POINT('', (-5.0223205721889E-31, -2.73402397909647E-15, -44.65));
#331 = COMPOSITE_CURVE('cutting part line', (#332, #333, #334, #335), .U.);
#332 = COMPOSITE_CURVE_SEGMENT(.CONTINUOUS., .T., #302);
#333 = COMPOSITE_CURVE_SEGMENT(.CONTINUOUS., .T., #309);
#334 = COMPOSITE_CURVE_SEGMENT(.CONTINUOUS., .T., #316);
#335 = COMPOSITE_CURVE_SEGMENT(.CONTINUOUS., .T., #324);
#336 = GEOMETRIC_SET('', (#331, #374));
#337 = PRESENTATION_STYLE_ASSIGNMENT((#338));
#338 = CURVE_STYLE('', #340, POSITIVE_LENGTH_MEASURE(1.E-6), #339);
#339 = COLOUR_RGB('', 0., 0., 1.);
#340 = DRAUGHTING_PRE_DEFINED_CURVE_FONT('continuous');
#341 = STYLED_ITEM('', (#337), #331);
#342 = PRESENTATION_STYLE_ASSIGNMENT((#343));
#343 = CURVE_STYLE('', #345, POSITIVE_LENGTH_MEASURE(1.E-6), #344);
#344 = COLOUR_RGB('', 0., 0., 1.);
#345 = DRAUGHTING_PRE_DEFINED_CURVE_FONT('continuous');
#346 = OVER_RIDING_STYLED_ITEM('', (#342), #302, #341);
#347 = PRESENTATION_STYLE_ASSIGNMENT((#348));
#348 = CURVE_STYLE('', #350, POSITIVE_LENGTH_MEASURE(1.E-6), #349);
#349 = COLOUR_RGB('', 0., 0., 1.);
#350 = DRAUGHTING_PRE_DEFINED_CURVE_FONT('continuous');
#351 = OVER_RIDING_STYLED_ITEM('', (#347), #309, #341);
#352 = PRESENTATION_STYLE_ASSIGNMENT((#353));
#353 = CURVE_STYLE('', #355, POSITIVE_LENGTH_MEASURE(1.E-6), #354);
#354 = COLOUR_RGB('', 0., 0., 1.);
#355 = DRAUGHTING_PRE_DEFINED_CURVE_FONT('continuous');
#356 = OVER_RIDING_STYLED_ITEM('', (#352), #316, #341);
#357 = PRESENTATION_STYLE_ASSIGNMENT((#358));
#358 = CURVE_STYLE('', #360, POSITIVE_LENGTH_MEASURE(1.E-6), #359);
#359 = COLOUR_RGB('', 0., 0., 1.);
#360 = DRAUGHTING_PRE_DEFINED_CURVE_FONT('continuous');
#361 = OVER_RIDING_STYLED_ITEM('', (#357), #324, #341);
#362 = AXIS2_PLACEMENT_3D('CIP', #363, #364, #365);
#363 = CARTESIAN_POINT('', (1.68722975549459E-31, 2.75545529808155E-15, -45.));
#364 = DIRECTION('', (-3.74939945665465E-33, -6.12323399573677E-17, 1.));
#365 = DIRECTION('', (1., -6.12323399573677E-17, 0.));
#366 = AXIS2_PLACEMENT_3D('MCS', #367, #368, #369);
#367 = CARTESIAN_POINT('', (1.31978860874243E-31, 2.15537836649934E-15, -35.2));
#368 = DIRECTION('', (-3.74939945665465E-33, -6.12323399573677E-17, 1.));
#369 = DIRECTION('', (1., -6.12323399573677E-17, 0.));
#370 = AXIS2_PLACEMENT_3D('PCS', #371, #372, #373);
#371 = CARTESIAN_POINT('', (0., 0., 0.));
#372 = DIRECTION('', (0., 0., 1.));
#373 = DIRECTION('', (1., 0., 0.));
#374 = CARTESIAN_POINT('CRP', (0.25, 0., -45.));
#375 = (
   GEOMETRIC_REPRESENTATION_CONTEXT (3)
   GLOBAL_UNCERTAINTY_ASSIGNED_CONTEXT ((#377))
   GLOBAL_UNIT_ASSIGNED_CONTEXT ((#376, #378, #379))
   REPRESENTATION_CONTEXT ('', '3D')
);
#376 = (
   LENGTH_UNIT ()
   NAMED_UNIT (*)
   SI_UNIT (.MILLI., .METRE.)
);
#377 = UNCERTAINTY_MEASURE_WITH_UNIT(LENGTH_MEASURE(1.E-6), #376, 'DISTANCE_ACCURACY_VALUE', '');
#378 = (
   NAMED_UNIT (*)
   SI_UNIT ($, .STERADIAN.)
   SOLID_ANGLE_UNIT ()
);
#379 = (
   NAMED_UNIT (*)
   PLANE_ANGLE_UNIT ()
   SI_UNIT ($, .RADIAN.)
);
#380 = SHAPE_REPRESENTATION('', (), #375);
#381 = PRODUCT_DEFINITION_SHAPE('', '', #382);
#382 = PRODUCT_DEFINITION('', '', #385, #389);
#383 = APPLICATION_CONTEXT('configuration controlled 3D designs of mechanical parts and assemblies');
#384 = APPLICATION_PROTOCOL_DEFINITION('International Standard', 'automotive_design', 2002, #383);
#385 = PRODUCT_DEFINITION_FORMATION_WITH_SPECIFIED_SOURCE('', '', #386, .NOT_KNOWN.);
#386 = PRODUCT('NONE', 'R216.42-00530-FC05G 1700', '', (#387));
#387 = PRODUCT_CONTEXT('', #383, 'mechanical');
#388 = PRODUCT_RELATED_PRODUCT_CATEGORY('detail', '', (#386));
#389 = PRODUCT_DEFINITION_CONTEXT('part definition', #383, 'design');
#390 = SHAPE_DEFINITION_REPRESENTATION(#381, #380);
#391 = CONSTRUCTIVE_GEOMETRY_REPRESENTATION('supplemental geometry', (#362, #366, #370), #375);
#392 = CONSTRUCTIVE_GEOMETRY_REPRESENTATION_RELATIONSHIP('', '', #380, #391);
#393 = SHAPE_REPRESENTATION_RELATIONSHIP('', '', #380, #394);
#394 = SHAPE_REPRESENTATION('', (#336), #375);
#395 = SHAPE_REPRESENTATION_RELATIONSHIP('', '', #380, #396);
#396 = ADVANCED_BREP_SHAPE_REPRESENTATION('', (#1, #194), #375);
ENDSEC;
END-ISO-10303-21;
