ISO-10303-21;
HEADER;
FILE_DESCRIPTION(('STEP'), '1');
FILE_NAME('C:\\Users\\ds2002\\OneDrive - Sandvik\\HomeShare\\Documents\\Batchrepair\\CorSRT2\\NEW_MILSQ_SLD\\Output\\MOD000000000000000020084632200000.stp', '2019-01-02T12:08:27', (''), (''), 'Express v3.0.0.0', 'Express Tool', 'Unknown');
FILE_SCHEMA(('AUTOMOTIVE_DESIGN'));
ENDSEC;

DATA;
#1 = MANIFOLD_SOLID_BREP('NOCUT', #2);
#2 = CLOSED_SHELL('', (#3, #50, #89, #128, #175, #184, #215));
#3 = ADVANCED_FACE('', (#4), #31, .T.);
#4 = FACE_OUTER_BOUND('', #5, .T.);
#5 = EDGE_LOOP('', (#6, #16, #23, #24));
#6 = ORIENTED_EDGE('', *, *, #7, .F.);
#7 = EDGE_CURVE('', #8, #10, #12, .T.);
#8 = VERTEX_POINT('', #9);
#9 = CARTESIAN_POINT('', (-7.6, 4.11358859833596E-15, -59.58));
#10 = VERTEX_POINT('', #11);
#11 = CARTESIAN_POINT('', (-8., 4.163799117101E-15, -60.));
#12 = LINE('', #13, #14);
#13 = CARTESIAN_POINT('', (-7.6, 4.11358859833596E-15, -59.58));
#14 = VECTOR('', #15, 0.580000000000002);
#15 = DIRECTION('', (-0.4, 5.02105187650394E-17, -0.420000000000002));
#16 = ORIENTED_EDGE('', *, *, #17, .T.);
#17 = EDGE_CURVE('', #8, #8, #18, .T.);
#18 = CIRCLE('', #19, 7.6);
#19 = AXIS2_PLACEMENT_3D('', #20, #21, #22);
#20 = CARTESIAN_POINT('', (9.43689570931383E-16, -2.66453525910038E-15, -59.58));
#21 = DIRECTION('', (0., 0., -1.));
#22 = DIRECTION('', (-1., 8.91858402294255E-16, 0.));
#23 = ORIENTED_EDGE('', *, *, #7, .T.);
#24 = ORIENTED_EDGE('', *, *, #25, .F.);
#25 = EDGE_CURVE('', #10, #10, #26, .T.);
#26 = CIRCLE('', #27, 8.);
#27 = AXIS2_PLACEMENT_3D('', #28, #29, #30);
#28 = CARTESIAN_POINT('', (-3.05311331771918E-16, -2.88657986402541E-15, -60.));
#29 = DIRECTION('', (2.66411676058699E-30, 3.02294871548747E-15, -1.));
#30 = DIRECTION('', (-1., 8.81297372640801E-16, 0.));
#31 = (
   BOUNDED_SURFACE ()
   B_SPLINE_SURFACE (2, 1, ((#32, #33), (#34, #35), (#36, #37), (#38, #39), (#40, #41), (#42, #43), (#44, #45), (#46, #47), (#48, #49)), .UNSPECIFIED., .T., .F., .U.)
   B_SPLINE_SURFACE_WITH_KNOTS ((3, 2, 2, 2, 3), (2, 2), (0., 0.25, 0.5, 0.75, 1.), (0., 1.), .UNSPECIFIED.)
   GEOMETRIC_REPRESENTATION_ITEM ()
   RATIONAL_B_SPLINE_SURFACE (((1., 1.), (0.707106781186548, 0.707106781186548), (1., 1.), (0.707106781186548, 0.707106781186548), (1., 1.), (0.707106781186548, 0.707106781186548), (1., 1.), (0.707106781186548, 0.707106781186548), (1., 1.)))
   REPRESENTATION_ITEM ('')
   SURFACE ()
);
#32 = CARTESIAN_POINT('', (-7.6, 4.11358859833596E-15, -59.58));
#33 = CARTESIAN_POINT('', (-8., 6.14150977526837E-15, -60.));
#34 = CARTESIAN_POINT('', (-7.59999999999999, 7.6, -59.58));
#35 = CARTESIAN_POINT('', (-7.99999999999999, 8.00000000000001, -60.));
#36 = CARTESIAN_POINT('', (6.11846904445094E-15, 7.6, -59.58));
#37 = CARTESIAN_POINT('', (6.34554044600015E-15, 8., -60.));
#38 = CARTESIAN_POINT('', (7.6, 7.59999999999999, -59.58));
#39 = CARTESIAN_POINT('', (8.00000000000001, 8., -60.));
#40 = CARTESIAN_POINT('', (7.6, -4.51512466053416E-15, -59.58));
#41 = CARTESIAN_POINT('', (8., -2.94134628670017E-15, -60.));
#42 = CARTESIAN_POINT('', (7.6, -7.6, -59.58));
#43 = CARTESIAN_POINT('', (8., -8., -60.));
#44 = CARTESIAN_POINT('', (-1.57951264706719E-15, -7.6, -59.58));
#45 = CARTESIAN_POINT('', (-1.75759817665051E-15, -8., -60.));
#46 = CARTESIAN_POINT('', (-7.6, -7.6, -59.58));
#47 = CARTESIAN_POINT('', (-8., -7.99999999999999, -60.));
#48 = CARTESIAN_POINT('', (-7.6, 4.11358859833596E-15, -59.58));
#49 = CARTESIAN_POINT('', (-8., 6.14150977526837E-15, -60.));
#50 = ADVANCED_FACE('', (#51), #70, .T.);
#51 = FACE_OUTER_BOUND('', #52, .T.);
#52 = EDGE_LOOP('', (#53, #61, #68, #69));
#53 = ORIENTED_EDGE('', *, *, #54, .F.);
#54 = EDGE_CURVE('', #55, #8, #57, .T.);
#55 = VERTEX_POINT('', #56);
#56 = CARTESIAN_POINT('', (-7.6, 3.40451810162964E-15, -48.));
#57 = LINE('', #58, #59);
#58 = CARTESIAN_POINT('', (-7.6, 3.40451810162964E-15, -48.));
#59 = VECTOR('', #60, 11.58);
#60 = DIRECTION('', (0., 7.0907049670632E-16, -11.58));
#61 = ORIENTED_EDGE('', *, *, #62, .T.);
#62 = EDGE_CURVE('', #55, #55, #63, .T.);
#63 = CIRCLE('', #64, 7.6);
#64 = AXIS2_PLACEMENT_3D('', #65, #66, #67);
#65 = CARTESIAN_POINT('', (9.15933995315754E-16, 2.88657986402541E-15, -48.));
#66 = DIRECTION('', (0., 0., -1.));
#67 = DIRECTION('', (-1., 6.81497681058202E-17, 0.));
#68 = ORIENTED_EDGE('', *, *, #54, .T.);
#69 = ORIENTED_EDGE('', *, *, #17, .F.);
#70 = (
   BOUNDED_SURFACE ()
   B_SPLINE_SURFACE (2, 1, ((#71, #72), (#73, #74), (#75, #76), (#77, #78), (#79, #80), (#81, #82), (#83, #84), (#85, #86), (#87, #88)), .UNSPECIFIED., .T., .F., .U.)
   B_SPLINE_SURFACE_WITH_KNOTS ((3, 2, 2, 2, 3), (2, 2), (0., 11.9380520836412, 23.8761041672824, 35.8141562509236, 47.7522083345648), (0., 1.), .UNSPECIFIED.)
   GEOMETRIC_REPRESENTATION_ITEM ()
   RATIONAL_B_SPLINE_SURFACE (((1., 1.), (0.707106781186548, 0.707106781186548), (1., 1.), (0.707106781186548, 0.707106781186548), (1., 1.), (0.707106781186548, 0.707106781186548), (1., 1.), (0.707106781186548, 0.707106781186548), (1., 1.)))
   REPRESENTATION_ITEM ('')
   SURFACE ()
);
#71 = CARTESIAN_POINT('', (-7.6, 3.40451810162964E-15, -48.));
#72 = CARTESIAN_POINT('', (-7.6, 1.18407205237933E-15, -59.58));
#73 = CARTESIAN_POINT('', (-7.59999999999999, 7.6, -48.));
#74 = CARTESIAN_POINT('', (-7.59999999999999, 7.6, -59.58));
#75 = CARTESIAN_POINT('', (3.88284188888503E-15, 7.6, -48.));
#76 = CARTESIAN_POINT('', (3.88284188888503E-15, 7.6, -59.58));
#77 = CARTESIAN_POINT('', (7.6, 7.59999999999999, -48.));
#78 = CARTESIAN_POINT('', (7.6, 7.59999999999999, -59.58));
#79 = CARTESIAN_POINT('', (7.6, -4.2501433736779E-15, -48.));
#80 = CARTESIAN_POINT('', (7.6, -6.47058942292821E-15, -59.58));
#81 = CARTESIAN_POINT('', (7.6, -7.6, -48.));
#82 = CARTESIAN_POINT('', (7.6, -7.6, -59.58));
#83 = CARTESIAN_POINT('', (-2.84108801907052E-15, -7.6, -48.));
#84 = CARTESIAN_POINT('', (-2.84108801907053E-15, -7.6, -59.58));
#85 = CARTESIAN_POINT('', (-7.6, -7.6, -48.));
#86 = CARTESIAN_POINT('', (-7.6, -7.6, -59.58));
#87 = CARTESIAN_POINT('', (-7.6, 3.40451810162964E-15, -48.));
#88 = CARTESIAN_POINT('', (-7.6, 1.18407205237933E-15, -59.58));
#89 = ADVANCED_FACE('', (#90), #109, .T.);
#90 = FACE_OUTER_BOUND('', #91, .T.);
#91 = EDGE_LOOP('', (#92, #100, #107, #108));
#92 = ORIENTED_EDGE('', *, *, #93, .F.);
#93 = EDGE_CURVE('', #94, #55, #96, .T.);
#94 = VERTEX_POINT('', #95);
#95 = CARTESIAN_POINT('', (-8., 3.39104698683902E-15, -47.38));
#96 = LINE('', #97, #98);
#97 = CARTESIAN_POINT('', (-8., 3.39104698683902E-15, -47.38));
#98 = VECTOR('', #99, 0.737834669827867);
#99 = DIRECTION('', (0.4, 1.34711147906201E-17, -0.619999999999997));
#100 = ORIENTED_EDGE('', *, *, #101, .T.);
#101 = EDGE_CURVE('', #94, #94, #102, .T.);
#102 = CIRCLE('', #103, 8.);
#103 = AXIS2_PLACEMENT_3D('', #104, #105, #106);
#104 = CARTESIAN_POINT('', (-7.21644966006352E-16, -1.33226762955019E-15, -47.38));
#105 = DIRECTION('', (0., 0., -1.));
#106 = DIRECTION('', (-1., 5.90414327048651E-16, 0.));
#107 = ORIENTED_EDGE('', *, *, #93, .T.);
#108 = ORIENTED_EDGE('', *, *, #62, .F.);
#109 = (
   BOUNDED_SURFACE ()
   B_SPLINE_SURFACE (2, 1, ((#110, #111), (#112, #113), (#114, #115), (#116, #117), (#118, #119), (#120, #121), (#122, #123), (#124, #125), (#126, #127)), .UNSPECIFIED., .T., .F., .U.)
   B_SPLINE_SURFACE_WITH_KNOTS ((3, 2, 2, 2, 3), (2, 2), (0., 0.25, 0.5, 0.75, 1.), (0., 1.), .UNSPECIFIED.)
   GEOMETRIC_REPRESENTATION_ITEM ()
   RATIONAL_B_SPLINE_SURFACE (((1., 1.), (0.707106781186548, 0.707106781186548), (1., 1.), (0.707106781186548, 0.707106781186548), (1., 1.), (0.707106781186548, 0.707106781186548), (1., 1.), (0.707106781186548, 0.707106781186548), (1., 1.)))
   REPRESENTATION_ITEM ('')
   SURFACE ()
);
#110 = CARTESIAN_POINT('', (-8., 3.39104698683902E-15, -47.38));
#111 = CARTESIAN_POINT('', (-7.6, -1.5080554474061E-15, -48.));
#112 = CARTESIAN_POINT('', (-8., 8., -47.3800000000001));
#113 = CARTESIAN_POINT('', (-7.6, 7.6, -48.));
#114 = CARTESIAN_POINT('', (-1.51925050539102E-16, 8., -47.3800000000001));
#115 = CARTESIAN_POINT('', (-1.41553240450584E-16, 7.6, -48.0000000000001));
#116 = CARTESIAN_POINT('', (8., 8., -47.3800000000001));
#117 = CARTESIAN_POINT('', (7.6, 7.6, -48.));
#118 = CARTESIAN_POINT('', (8., 3.80591939037974E-15, -47.38));
#119 = CARTESIAN_POINT('', (7.6, -1.11392666404242E-15, -48.));
#120 = CARTESIAN_POINT('', (8., -7.99999999999999, -47.3799999999999));
#121 = CARTESIAN_POINT('', (7.6, -7.6, -47.9999999999999));
#122 = CARTESIAN_POINT('', (1.2426647923195E-15, -8., -47.3799999999999));
#123 = CARTESIAN_POINT('', (1.18330711026509E-15, -7.6, -47.9999999999999));
#124 = CARTESIAN_POINT('', (-8., -8., -47.3799999999999));
#125 = CARTESIAN_POINT('', (-7.6, -7.6, -47.9999999999999));
#126 = CARTESIAN_POINT('', (-8., 3.39104698683902E-15, -47.38));
#127 = CARTESIAN_POINT('', (-7.6, -1.5080554474061E-15, -48.));
#128 = ADVANCED_FACE('', (#129), #156, .T.);
#129 = FACE_OUTER_BOUND('', #130, .T.);
#130 = EDGE_LOOP('', (#131, #141, #148, #149));
#131 = ORIENTED_EDGE('', *, *, #132, .T.);
#132 = EDGE_CURVE('', #133, #135, #137, .T.);
#133 = VERTEX_POINT('', #134);
#134 = CARTESIAN_POINT('', (-8., 5.38844591624835E-16, -0.799999999999997));
#135 = VERTEX_POINT('', #136);
#136 = CARTESIAN_POINT('', (-7.2, 4.40872847693047E-16, 0.));
#137 = LINE('', #138, #139);
#138 = CARTESIAN_POINT('', (-8., 5.38844591624835E-16, -0.799999999999997));
#139 = VECTOR('', #140, 1.13137084989847);
#140 = DIRECTION('', (0.8, -9.7971743931788E-17, 0.799999999999997));
#141 = ORIENTED_EDGE('', *, *, #142, .T.);
#142 = EDGE_CURVE('', #135, #135, #143, .T.);
#143 = CIRCLE('', #144, 7.2);
#144 = AXIS2_PLACEMENT_3D('', #145, #146, #147);
#145 = CARTESIAN_POINT('', (-1.4432899320127E-15, -4.44089209850063E-15, -2.83496887813801E-31));
#146 = DIRECTION('', (2.14236152270701E-33, 6.12323399573676E-17, -1.));
#147 = DIRECTION('', (-1., 6.78022909193566E-16, 3.93745677519168E-32));
#148 = ORIENTED_EDGE('', *, *, #132, .F.);
#149 = ORIENTED_EDGE('', *, *, #150, .F.);
#150 = EDGE_CURVE('', #133, #133, #151, .T.);
#151 = CIRCLE('', #152, 8.);
#152 = AXIS2_PLACEMENT_3D('', #153, #154, #155);
#153 = CARTESIAN_POINT('', (-6.66133814775094E-16, -3.5527136788005E-15, -0.799999999999997));
#154 = DIRECTION('', (-1.38777878078144E-17, 1.39615984421496E-16, -1.));
#155 = DIRECTION('', (-1., 5.11444783803167E-16, 1.38777878078145E-17));
#156 = (
   BOUNDED_SURFACE ()
   B_SPLINE_SURFACE (1, 2, ((#157, #158, #159, #160, #161, #162, #163, #164, #165), (#166, #167, #168, #169, #170, #171, #172, #173, #174)), .UNSPECIFIED., .F., .T., .U.)
   B_SPLINE_SURFACE_WITH_KNOTS ((2, 2), (3, 2, 2, 2, 3), (0., 1.), (0., 0.25, 0.5, 0.75, 1.), .UNSPECIFIED.)
   GEOMETRIC_REPRESENTATION_ITEM ()
   RATIONAL_B_SPLINE_SURFACE (((1., 0.707106781186548, 1., 0.707106781186548, 1., 0.707106781186548, 1., 0.707106781186548, 1.), (1., 0.707106781186548, 1., 0.707106781186548, 1., 0.707106781186548, 1., 0.707106781186548, 1.)))
   REPRESENTATION_ITEM ('')
   SURFACE ()
);
#157 = CARTESIAN_POINT('', (-8., -4.09906311545837E-15, -0.799999999999999));
#158 = CARTESIAN_POINT('', (-8., 7.99999999999999, -0.800000000000046));
#159 = CARTESIAN_POINT('', (8.29937739640602E-16, 7.99999999999999, -0.800000000000044));
#160 = CARTESIAN_POINT('', (8., 7.99999999999999, -0.800000000000042));
#161 = CARTESIAN_POINT('', (8., -5.57936048162525E-15, -0.799999999999995));
#162 = CARTESIAN_POINT('', (8., -8.00000000000001, -0.799999999999949));
#163 = CARTESIAN_POINT('', (3.29357812791589E-16, -8.00000000000001, -0.799999999999951));
#164 = CARTESIAN_POINT('', (-8., -8.00000000000001, -0.799999999999952));
#165 = CARTESIAN_POINT('', (-8., -4.09906311545837E-15, -0.799999999999999));
#166 = CARTESIAN_POINT('', (-7.2, 4.40872847693047E-16, 0.));
#167 = CARTESIAN_POINT('', (-7.2, 7.2, -4.1966430330831E-14));
#168 = CARTESIAN_POINT('', (5.82867087928216E-16, 7.2, -4.04089282801946E-14));
#169 = CARTESIAN_POINT('', (7.2, 7.2, -3.88514262295582E-14));
#170 = CARTESIAN_POINT('', (7.2, -8.9139478185714E-16, 3.11500410127275E-15));
#171 = CARTESIAN_POINT('', (7.2, -7.2, 4.50814344321037E-14));
#172 = CARTESIAN_POINT('', (1.32345153764105E-16, -7.2, 4.35239323814674E-14));
#173 = CARTESIAN_POINT('', (-7.2, -7.2, 4.1966430330831E-14));
#174 = CARTESIAN_POINT('', (-7.2, 4.40872847693047E-16, 0.));
#175 = ADVANCED_FACE('', (#176), #179, .T.);
#176 = FACE_OUTER_BOUND('', #177, .T.);
#177 = EDGE_LOOP('', (#178));
#178 = ORIENTED_EDGE('', *, *, #142, .F.);
#179 = B_SPLINE_SURFACE_WITH_KNOTS('', 1, 1, ((#180, #181), (#182, #183)), .UNSPECIFIED., .F., .F., .U., (2, 2), (2, 2), (4.0005714139949, 18.4005714139949), (4.0005714139949, 18.4005714139949), .UNSPECIFIED.);
#180 = CARTESIAN_POINT('', (7.2, -7.2, 1.3769981867509E-14));
#181 = CARTESIAN_POINT('', (-7.2, -7.2, -1.4651727562895E-14));
#182 = CARTESIAN_POINT('', (7.2, 7.2, 1.4651727562895E-14));
#183 = CARTESIAN_POINT('', (-7.2, 7.2, -1.37699818675089E-14));
#184 = ADVANCED_FACE('', (#185), #196, .T.);
#185 = FACE_OUTER_BOUND('', #186, .T.);
#186 = EDGE_LOOP('', (#187, #193, #194, #195));
#187 = ORIENTED_EDGE('', *, *, #188, .T.);
#188 = EDGE_CURVE('', #94, #133, #189, .T.);
#189 = LINE('', #190, #191);
#190 = CARTESIAN_POINT('', (-8., 3.39104698683902E-15, -47.38));
#191 = VECTOR('', #192, 46.58);
#192 = DIRECTION('', (0., -2.85220239521418E-15, 46.58));
#193 = ORIENTED_EDGE('', *, *, #150, .T.);
#194 = ORIENTED_EDGE('', *, *, #188, .F.);
#195 = ORIENTED_EDGE('', *, *, #101, .F.);
#196 = (
   BOUNDED_SURFACE ()
   B_SPLINE_SURFACE (1, 2, ((#197, #198, #199, #200, #201, #202, #203, #204, #205), (#206, #207, #208, #209, #210, #211, #212, #213, #214)), .UNSPECIFIED., .F., .T., .U.)
   B_SPLINE_SURFACE_WITH_KNOTS ((2, 2), (3, 2, 2, 2, 3), (0., 1.), (0., 12.5663706143592, 25.1327412287184, 37.6991118430775, 50.2654824574367), .UNSPECIFIED.)
   GEOMETRIC_REPRESENTATION_ITEM ()
   RATIONAL_B_SPLINE_SURFACE (((1., 0.707106781186548, 1., 0.707106781186548, 1., 0.707106781186548, 1., 0.707106781186548, 1.), (1., 0.707106781186548, 1., 0.707106781186548, 1., 0.707106781186548, 1., 0.707106781186548, 1.)))
   REPRESENTATION_ITEM ('')
   SURFACE ()
);
#197 = CARTESIAN_POINT('', (-8., 5.38844591624835E-16, -47.38));
#198 = CARTESIAN_POINT('', (-8., 8., -47.38));
#199 = CARTESIAN_POINT('', (3.74003662424908E-16, 8., -47.38));
#200 = CARTESIAN_POINT('', (8., 8., -47.38));
#201 = CARTESIAN_POINT('', (8., -4.47305572007077E-16, -47.38));
#202 = CARTESIAN_POINT('', (8., -8., -47.38));
#203 = CARTESIAN_POINT('', (3.67570938110878E-16, -8., -47.38));
#204 = CARTESIAN_POINT('', (-8., -8., -47.38));
#205 = CARTESIAN_POINT('', (-8., 5.38844591624835E-16, -47.38));
#206 = CARTESIAN_POINT('', (-8., 5.38844591624835E-16, -0.799999999999997));
#207 = CARTESIAN_POINT('', (-8., 8., -0.799999999999997));
#208 = CARTESIAN_POINT('', (1.02043101851291E-15, 8., -0.799999999999997));
#209 = CARTESIAN_POINT('', (8., 8., -0.799999999999997));
#210 = CARTESIAN_POINT('', (8., -4.47305572007078E-16, -0.799999999999997));
#211 = CARTESIAN_POINT('', (8., -8., -0.799999999999997));
#212 = CARTESIAN_POINT('', (1.01399829419888E-15, -8., -0.799999999999997));
#213 = CARTESIAN_POINT('', (-8., -8., -0.799999999999997));
#214 = CARTESIAN_POINT('', (-8., 5.38844591624835E-16, -0.799999999999997));
#215 = ADVANCED_FACE('', (#216), #219, .T.);
#216 = FACE_OUTER_BOUND('', #217, .T.);
#217 = EDGE_LOOP('', (#218));
#218 = ORIENTED_EDGE('', *, *, #25, .T.);
#219 = B_SPLINE_SURFACE_WITH_KNOTS('', 1, 1, ((#220, #221), (#222, #223)), .UNSPECIFIED., .F., .F., .U., (2, 2), (2, 2), (89.1765426054315, 105.176542605432), (84.3069763823691, 100.306976382369), .UNSPECIFIED.);
#220 = CARTESIAN_POINT('', (-8., 8., -60.));
#221 = CARTESIAN_POINT('', (-8., -8., -60.));
#222 = CARTESIAN_POINT('', (8.00000000000001, 8., -60.));
#223 = CARTESIAN_POINT('', (8., -8., -60.));
#224 = DRAUGHTING_MODEL('', (#232, #307, #346, #351, #356, #361, #366), #380);
#225 = PRESENTATION_STYLE_ASSIGNMENT((#226));
#226 = SURFACE_STYLE_USAGE(.POSITIVE., #227);
#227 = SURFACE_SIDE_STYLE('', (#228));
#228 = SURFACE_STYLE_FILL_AREA(#229);
#229 = FILL_AREA_STYLE('', (#230));
#230 = FILL_AREA_STYLE_COLOUR('', #231);
#231 = COLOUR_RGB('', 0.50196078431373, 0.50196078431373, 0.50196078431373);
#232 = STYLED_ITEM('', (#225), #1);
#233 = MANIFOLD_SOLID_BREP('CUT', #234);
#234 = CLOSED_SHELL('', (#235, #252, #291));
#235 = ADVANCED_FACE('', (#236), #247, .T.);
#236 = FACE_OUTER_BOUND('', #237, .T.);
#237 = EDGE_LOOP('', (#238));
#238 = ORIENTED_EDGE('', *, *, #239, .F.);
#239 = EDGE_CURVE('', #240, #240, #242, .T.);
#240 = VERTEX_POINT('', #241);
#241 = CARTESIAN_POINT('', (-8., 4.163799117101E-15, -60.));
#242 = CIRCLE('', #243, 8.);
#243 = AXIS2_PLACEMENT_3D('', #244, #245, #246);
#244 = CARTESIAN_POINT('', (-3.05311331771918E-16, -2.88657986402541E-15, -60.));
#245 = DIRECTION('', (2.66411676058699E-30, 3.02294871548747E-15, -1.));
#246 = DIRECTION('', (-1., 8.81297372640801E-16, 0.));
#247 = B_SPLINE_SURFACE_WITH_KNOTS('', 1, 1, ((#248, #249), (#250, #251)), .UNSPECIFIED., .F., .F., .U., (2, 2), (2, 2), (84.3069763823691, 100.306976382369), (89.1765426054315, 105.176542605431), .UNSPECIFIED.);
#248 = CARTESIAN_POINT('', (-8., 7.99999999999999, -60.));
#249 = CARTESIAN_POINT('', (8., 7.99999999999999, -60.));
#250 = CARTESIAN_POINT('', (-8., -8.00000000000001, -60.));
#251 = CARTESIAN_POINT('', (8., -8.00000000000001, -60.));
#252 = ADVANCED_FACE('', (#253), #272, .T.);
#253 = FACE_OUTER_BOUND('', #254, .T.);
#254 = EDGE_LOOP('', (#255, #263, #264, #265));
#255 = ORIENTED_EDGE('', *, *, #256, .F.);
#256 = EDGE_CURVE('', #240, #257, #259, .T.);
#257 = VERTEX_POINT('', #258);
#258 = CARTESIAN_POINT('', (-8., 6.12323399573677E-15, -92.));
#259 = LINE('', #260, #261);
#260 = CARTESIAN_POINT('', (-8., 4.163799117101E-15, -60.));
#261 = VECTOR('', #262, 32.);
#262 = DIRECTION('', (0., 1.95943487863577E-15, -32.));
#263 = ORIENTED_EDGE('', *, *, #239, .T.);
#264 = ORIENTED_EDGE('', *, *, #256, .T.);
#265 = ORIENTED_EDGE('', *, *, #266, .F.);
#266 = EDGE_CURVE('', #257, #257, #267, .T.);
#267 = CIRCLE('', #268, 8.);
#268 = AXIS2_PLACEMENT_3D('', #269, #270, #271);
#269 = CARTESIAN_POINT('', (-9.15933995315754E-16, 5.10702591327572E-15, -92.));
#270 = DIRECTION('', (0., 0., -1.));
#271 = DIRECTION('', (-1., 1.27026010307631E-16, 0.));
#272 = (
   BOUNDED_SURFACE ()
   B_SPLINE_SURFACE (2, 1, ((#273, #274), (#275, #276), (#277, #278), (#279, #280), (#281, #282), (#283, #284), (#285, #286), (#287, #288), (#289, #290)), .UNSPECIFIED., .T., .F., .U.)
   B_SPLINE_SURFACE_WITH_KNOTS ((3, 2, 2, 2, 3), (2, 2), (0., 12.5663706143592, 25.1327412287184, 37.6991118430775, 50.2654824574367), (0., 1.), .UNSPECIFIED.)
   GEOMETRIC_REPRESENTATION_ITEM ()
   RATIONAL_B_SPLINE_SURFACE (((1., 1.), (0.707106781186548, 0.707106781186548), (1., 1.), (0.707106781186548, 0.707106781186548), (1., 1.), (0.707106781186548, 0.707106781186548), (1., 1.), (0.707106781186548, 0.707106781186548), (1., 1.)))
   REPRESENTATION_ITEM ('')
   SURFACE ()
);
#273 = CARTESIAN_POINT('', (-8., 4.163799117101E-15, -60.));
#274 = CARTESIAN_POINT('', (-8., 1.21574048944021E-14, -92.));
#275 = CARTESIAN_POINT('', (-7.99999999999999, 8., -60.));
#276 = CARTESIAN_POINT('', (-7.99999999999999, 8.00000000000001, -92.));
#277 = CARTESIAN_POINT('', (7.11563177378004E-15, 8., -60.));
#278 = CARTESIAN_POINT('', (7.11563177378005E-15, 8.00000000000001, -92.));
#279 = CARTESIAN_POINT('', (8.00000000000001, 7.99999999999999, -60.));
#280 = CARTESIAN_POINT('', (8.00000000000001, 8., -92.));
#281 = CARTESIAN_POINT('', (8., -7.62497377628374E-15, -60.));
#282 = CARTESIAN_POINT('', (8., 3.68632001017385E-16, -92.));
#283 = CARTESIAN_POINT('', (8., -8.00000000000001, -60.));
#284 = CARTESIAN_POINT('', (8., -8., -92.));
#285 = CARTESIAN_POINT('', (-3.69342368028682E-15, -8., -60.));
#286 = CARTESIAN_POINT('', (-3.69342368028681E-15, -7.99999999999999, -92.));
#287 = CARTESIAN_POINT('', (-8., -8., -60.));
#288 = CARTESIAN_POINT('', (-8., -7.99999999999999, -92.));
#289 = CARTESIAN_POINT('', (-8., 4.163799117101E-15, -60.));
#290 = CARTESIAN_POINT('', (-8., 1.21574048944021E-14, -92.));
#291 = ADVANCED_FACE('', (#292), #295, .T.);
#292 = FACE_OUTER_BOUND('', #293, .T.);
#293 = EDGE_LOOP('', (#294));
#294 = ORIENTED_EDGE('', *, *, #266, .T.);
#295 = B_SPLINE_SURFACE_WITH_KNOTS('', 1, 1, ((#296, #297), (#298, #299)), .UNSPECIFIED., .F., .F., .U., (2, 2), (2, 2), (4.4450793488832, 20.4450793488832), (4.44507934888321, 20.4450793488832), .UNSPECIFIED.);
#296 = CARTESIAN_POINT('', (8., -7.99999999999999, -92.));
#297 = CARTESIAN_POINT('', (8., 8.00000000000001, -92.));
#298 = CARTESIAN_POINT('', (-8., -7.99999999999999, -92.));
#299 = CARTESIAN_POINT('', (-8., 8.00000000000001, -92.));
#300 = PRESENTATION_STYLE_ASSIGNMENT((#301));
#301 = SURFACE_STYLE_USAGE(.POSITIVE., #302);
#302 = SURFACE_SIDE_STYLE('', (#303));
#303 = SURFACE_STYLE_FILL_AREA(#304);
#304 = FILL_AREA_STYLE('', (#305));
#305 = FILL_AREA_STYLE_COLOUR('', #306);
#306 = COLOUR_RGB('', 0.8, 0.8, 0.8);
#307 = STYLED_ITEM('', (#300), #233);
#308 = TRIMMED_CURVE('cutting part line', #309, (#313), (#314), .T., .CARTESIAN.);
#309 = LINE('', #310, #311);
#310 = CARTESIAN_POINT('', (-6.74891902197836E-31, -3.67394039744206E-15, -60.));
#311 = VECTOR('', #312, 8.);
#312 = DIRECTION('', (8., -1.46957615897682E-15, 0.));
#313 = CARTESIAN_POINT('', (-6.74891902197836E-31, -3.67394039744206E-15, -60.));
#314 = CARTESIAN_POINT('', (8., -5.14351655641888E-15, -60.));
#315 = TRIMMED_CURVE('cutting part line', #316, (#320), (#321), .T., .CARTESIAN.);
#316 = LINE('', #317, #318);
#317 = CARTESIAN_POINT('', (8., -5.14351655641888E-15, -60.));
#318 = VECTOR('', #319, 32.);
#319 = DIRECTION('', (0., -1.95943487863577E-15, -32.));
#320 = CARTESIAN_POINT('', (8., -5.14351655641888E-15, -60.));
#321 = CARTESIAN_POINT('', (8., -7.10295143505465E-15, -92.));
#322 = TRIMMED_CURVE('cutting part line', #323, (#327), (#328), .T., .CARTESIAN.);
#323 = LINE('', #324, #325);
#324 = CARTESIAN_POINT('', (8., -7.10295143505465E-15, -92.));
#325 = VECTOR('', #326, 8.);
#326 = DIRECTION('', (-8., 1.46957615897683E-15, 0.));
#327 = CARTESIAN_POINT('', (8., -7.10295143505465E-15, -92.));
#328 = CARTESIAN_POINT('', (-6.89889500024454E-31, -5.63337527607782E-15, -92.));
#329 = TRIMMED_CURVE('cutting part line', #330, (#334), (#335), .T., .CARTESIAN.);
#330 = LINE('', #331, #332);
#331 = CARTESIAN_POINT('', (-1.03483425003668E-30, -5.63337527607782E-15, -92.));
#332 = VECTOR('', #333, 32.);
#333 = DIRECTION('', (3.59942347838845E-31, 1.95943487863576E-15, 32.));
#334 = CARTESIAN_POINT('', (-1.03483425003668E-30, -5.63337527607782E-15, -92.));
#335 = CARTESIAN_POINT('', (-6.74891902197836E-31, -3.67394039744206E-15, -60.));
#336 = COMPOSITE_CURVE('cutting part line', (#337, #338, #339, #340), .U.);
#337 = COMPOSITE_CURVE_SEGMENT(.CONTINUOUS., .T., #308);
#338 = COMPOSITE_CURVE_SEGMENT(.CONTINUOUS., .T., #315);
#339 = COMPOSITE_CURVE_SEGMENT(.CONTINUOUS., .T., #322);
#340 = COMPOSITE_CURVE_SEGMENT(.CONTINUOUS., .T., #329);
#341 = GEOMETRIC_SET('', (#336, #379));
#342 = PRESENTATION_STYLE_ASSIGNMENT((#343));
#343 = CURVE_STYLE('', #345, POSITIVE_LENGTH_MEASURE(1.E-6), #344);
#344 = COLOUR_RGB('', 0., 0., 1.);
#345 = DRAUGHTING_PRE_DEFINED_CURVE_FONT('continuous');
#346 = STYLED_ITEM('', (#342), #336);
#347 = PRESENTATION_STYLE_ASSIGNMENT((#348));
#348 = CURVE_STYLE('', #350, POSITIVE_LENGTH_MEASURE(1.E-6), #349);
#349 = COLOUR_RGB('', 0., 0., 1.);
#350 = DRAUGHTING_PRE_DEFINED_CURVE_FONT('continuous');
#351 = OVER_RIDING_STYLED_ITEM('', (#347), #308, #346);
#352 = PRESENTATION_STYLE_ASSIGNMENT((#353));
#353 = CURVE_STYLE('', #355, POSITIVE_LENGTH_MEASURE(1.E-6), #354);
#354 = COLOUR_RGB('', 0., 0., 1.);
#355 = DRAUGHTING_PRE_DEFINED_CURVE_FONT('continuous');
#356 = OVER_RIDING_STYLED_ITEM('', (#352), #315, #346);
#357 = PRESENTATION_STYLE_ASSIGNMENT((#358));
#358 = CURVE_STYLE('', #360, POSITIVE_LENGTH_MEASURE(1.E-6), #359);
#359 = COLOUR_RGB('', 0., 0., 1.);
#360 = DRAUGHTING_PRE_DEFINED_CURVE_FONT('continuous');
#361 = OVER_RIDING_STYLED_ITEM('', (#357), #322, #346);
#362 = PRESENTATION_STYLE_ASSIGNMENT((#363));
#363 = CURVE_STYLE('', #365, POSITIVE_LENGTH_MEASURE(1.E-6), #364);
#364 = COLOUR_RGB('', 0., 0., 1.);
#365 = DRAUGHTING_PRE_DEFINED_CURVE_FONT('continuous');
#366 = OVER_RIDING_STYLED_ITEM('', (#362), #329, #346);
#367 = AXIS2_PLACEMENT_3D('CIP', #368, #369, #370);
#368 = CARTESIAN_POINT('', (3.44944750012227E-31, 5.63337527607782E-15, -92.));
#369 = DIRECTION('', (-3.74939945665465E-33, -6.12323399573677E-17, 1.));
#370 = DIRECTION('', (1., -6.12323399573677E-17, 0.));
#371 = AXIS2_PLACEMENT_3D('MCS', #372, #373, #374);
#372 = CARTESIAN_POINT('', (1.77646546256297E-31, 2.90118826718008E-15, -47.38));
#373 = DIRECTION('', (-3.74939945665465E-33, -6.12323399573677E-17, 1.));
#374 = DIRECTION('', (1., -6.12323399573677E-17, 0.));
#375 = AXIS2_PLACEMENT_3D('PCS', #376, #377, #378);
#376 = CARTESIAN_POINT('', (0., 0., 0.));
#377 = DIRECTION('', (0., 0., 1.));
#378 = DIRECTION('', (1., 0., 0.));
#379 = CARTESIAN_POINT('CRP', (8., 0., -92.));
#380 = (
   GEOMETRIC_REPRESENTATION_CONTEXT (3)
   GLOBAL_UNCERTAINTY_ASSIGNED_CONTEXT ((#382))
   GLOBAL_UNIT_ASSIGNED_CONTEXT ((#381, #383, #384))
   REPRESENTATION_CONTEXT ('', '3D')
);
#381 = (
   LENGTH_UNIT ()
   NAMED_UNIT (*)
   SI_UNIT (.MILLI., .METRE.)
);
#382 = UNCERTAINTY_MEASURE_WITH_UNIT(LENGTH_MEASURE(1.E-6), #381, 'DISTANCE_ACCURACY_VALUE', '');
#383 = (
   NAMED_UNIT (*)
   SI_UNIT ($, .STERADIAN.)
   SOLID_ANGLE_UNIT ()
);
#384 = (
   NAMED_UNIT (*)
   PLANE_ANGLE_UNIT ()
   SI_UNIT ($, .RADIAN.)
);
#385 = SHAPE_REPRESENTATION('', (), #380);
#386 = PRODUCT_DEFINITION_SHAPE('', '', #387);
#387 = PRODUCT_DEFINITION('', '', #390, #394);
#388 = APPLICATION_CONTEXT('configuration controlled 3D designs of mechanical parts and assemblies');
#389 = APPLICATION_PROTOCOL_DEFINITION('International Standard', 'automotive_design', 2002, #388);
#390 = PRODUCT_DEFINITION_FORMATION_WITH_SPECIFIED_SOURCE('', '', #391, .NOT_KNOWN.);
#391 = PRODUCT('EmptyName', 'EmptyName', '', (#392));
#392 = PRODUCT_CONTEXT('', #388, 'mechanical');
#393 = PRODUCT_RELATED_PRODUCT_CATEGORY('detail', '', (#391));
#394 = PRODUCT_DEFINITION_CONTEXT('part definition', #388, 'design');
#395 = SHAPE_DEFINITION_REPRESENTATION(#386, #385);
#396 = CONSTRUCTIVE_GEOMETRY_REPRESENTATION('supplemental geometry', (#367, #371, #375), #380);
#397 = CONSTRUCTIVE_GEOMETRY_REPRESENTATION_RELATIONSHIP('', '', #385, #396);
#398 = SHAPE_REPRESENTATION_RELATIONSHIP('', '', #385, #399);
#399 = SHAPE_REPRESENTATION('', (#341), #380);
#400 = SHAPE_REPRESENTATION_RELATIONSHIP('', '', #385, #401);
#401 = ADVANCED_BREP_SHAPE_REPRESENTATION('', (#1, #233), #380);
ENDSEC;
END-ISO-10303-21;
