ISO-10303-21;
HEADER;
FILE_DESCRIPTION(('STEP'), '1');
FILE_NAME('C:\\Users\\ds2002\\OneDrive - Sandvik\\HomeShare\\Documents\\Batchrepair\\CorSRT2\\NEW_MILSQ_SLD\\Output\\MOD000000000000000020084631800000.stp', '2019-01-02T12:11:44', (''), (''), 'Express v3.0.0.0', 'Express Tool', 'Unknown');
FILE_SCHEMA(('AUTOMOTIVE_DESIGN'));
ENDSEC;

DATA;
#1 = MANIFOLD_SOLID_BREP('NOCUT', #2);
#2 = CLOSED_SHELL('', (#3, #20, #37, #85));
#3 = ADVANCED_FACE('', (#4), #15, .T.);
#4 = FACE_OUTER_BOUND('', #5, .T.);
#5 = EDGE_LOOP('', (#6));
#6 = ORIENTED_EDGE('', *, *, #7, .F.);
#7 = EDGE_CURVE('', #8, #8, #10, .T.);
#8 = VERTEX_POINT('', #9);
#9 = CARTESIAN_POINT('', (-12.5000000000003, 0., -60.));
#10 = CIRCLE('', #11, 12.5000000000003);
#11 = AXIS2_PLACEMENT_3D('', #12, #13, #14);
#12 = CARTESIAN_POINT('', (-1.60982338570648E-15, 2.22044604925031E-16, -60.));
#13 = DIRECTION('', (0., 0., 1.));
#14 = DIRECTION('', (-1., -1.77635683940021E-17, 0.));
#15 = B_SPLINE_SURFACE_WITH_KNOTS('', 1, 1, ((#16, #17), (#18, #19)), .UNSPECIFIED., .F., .F., .U., (2, 2), (2, 2), (-12.5010000000003, 12.5010000000003), (-12.5010000000003, 12.5010000000003), .UNSPECIFIED.);
#16 = CARTESIAN_POINT('', (12.5010000000003, -12.5010000000003, -60.));
#17 = CARTESIAN_POINT('', (12.5010000000003, 12.5010000000003, -60.));
#18 = CARTESIAN_POINT('', (-12.5010000000003, -12.5010000000003, -60.));
#19 = CARTESIAN_POINT('', (-12.5010000000003, 12.5010000000003, -60.));
#20 = ADVANCED_FACE('', (#21), #32, .T.);
#21 = FACE_OUTER_BOUND('', #22, .T.);
#22 = EDGE_LOOP('', (#23));
#23 = ORIENTED_EDGE('', *, *, #24, .T.);
#24 = EDGE_CURVE('', #25, #25, #27, .T.);
#25 = VERTEX_POINT('', #26);
#26 = CARTESIAN_POINT('', (11.5000000000003, 0., 0.));
#27 = CIRCLE('', #28, 11.5000000000003);
#28 = AXIS2_PLACEMENT_3D('', #29, #30, #31);
#29 = CARTESIAN_POINT('', (4.49640324973188E-15, 2.88657986402541E-15, 0.));
#30 = DIRECTION('', (0., 0., 1.));
#31 = DIRECTION('', (1., -2.51006944697855E-16, 0.));
#32 = B_SPLINE_SURFACE_WITH_KNOTS('', 1, 1, ((#33, #34), (#35, #36)), .UNSPECIFIED., .F., .F., .U., (2, 2), (2, 2), (-11.5010000000002, 11.5010000000004), (-11.5010000000003, 11.5010000000003), .UNSPECIFIED.);
#33 = CARTESIAN_POINT('', (11.5010000000003, 11.5010000000003, 0.));
#34 = CARTESIAN_POINT('', (11.5010000000003, -11.5010000000003, 0.));
#35 = CARTESIAN_POINT('', (-11.5010000000003, 11.5010000000003, 0.));
#36 = CARTESIAN_POINT('', (-11.5010000000003, -11.5010000000003, 0.));
#37 = ADVANCED_FACE('', (#38), #66, .T.);
#38 = FACE_OUTER_BOUND('', #39, .T.);
#39 = EDGE_LOOP('', (#40, #48, #49, #50, #59));
#40 = ORIENTED_EDGE('', *, *, #41, .T.);
#41 = EDGE_CURVE('', #42, #25, #44, .T.);
#42 = VERTEX_POINT('', #43);
#43 = CARTESIAN_POINT('', (12.5000000000003, 0., -1.));
#44 = LINE('', #45, #46);
#45 = CARTESIAN_POINT('', (12.5000000000003, 4.87860140802964E-17, -1.));
#46 = VECTOR('', #47, 1.41421356237309);
#47 = DIRECTION('', (-0.999999999999998, -4.87372768034937E-17, 1.));
#48 = ORIENTED_EDGE('', *, *, #24, .F.);
#49 = ORIENTED_EDGE('', *, *, #41, .F.);
#50 = ORIENTED_EDGE('', *, *, #51, .F.);
#51 = EDGE_CURVE('', #52, #42, #54, .T.);
#52 = VERTEX_POINT('', #53);
#53 = CARTESIAN_POINT('', (-12.5000000000003, -1.53080849893423E-15, -1.));
#54 = CIRCLE('', #55, 12.5000000000003);
#55 = AXIS2_PLACEMENT_3D('', #56, #57, #58);
#56 = CARTESIAN_POINT('', (1.60982338570648E-15, 2.22044604925031E-16, -1.));
#57 = DIRECTION('', (0., 0., -1.));
#58 = DIRECTION('', (1., -1.77635683940021E-17, 0.));
#59 = ORIENTED_EDGE('', *, *, #60, .F.);
#60 = EDGE_CURVE('', #42, #52, #61, .T.);
#61 = CIRCLE('', #62, 12.5000000000003);
#62 = AXIS2_PLACEMENT_3D('', #63, #64, #65);
#63 = CARTESIAN_POINT('', (1.60982338570648E-15, 2.22044604925031E-16, -1.));
#64 = DIRECTION('', (0., 0., -1.));
#65 = DIRECTION('', (1., -1.77635683940021E-17, 0.));
#66 = (
   BOUNDED_SURFACE ()
   B_SPLINE_SURFACE (2, 1, ((#67, #68), (#69, #70), (#71, #72), (#73, #74), (#75, #76), (#77, #78), (#79, #80), (#81, #82), (#83, #84)), .UNSPECIFIED., .T., .F., .U.)
   B_SPLINE_SURFACE_WITH_KNOTS ((3, 2, 2, 2, 3), (2, 2), (0., 0.25, 0.5, 0.75, 1.), (0., 1.), .UNSPECIFIED.)
   GEOMETRIC_REPRESENTATION_ITEM ()
   RATIONAL_B_SPLINE_SURFACE (((1., 1.), (0.707106781186548, 0.707106781186548), (1., 1.), (0.707106781186548, 0.707106781186548), (1., 1.), (0.707106781186548, 0.707106781186548), (1., 1.), (0.707106781186548, 0.707106781186548), (1., 1.)))
   REPRESENTATION_ITEM ('')
   SURFACE ()
);
#67 = CARTESIAN_POINT('', (11.4990000000003, -7.88860905221012E-31, 0.001));
#68 = CARTESIAN_POINT('', (12.5010000000003, 4.88347513570999E-17, -1.001));
#69 = CARTESIAN_POINT('', (11.4990000000003, -11.4990000000003, 0.00100000000000255));
#70 = CARTESIAN_POINT('', (12.5010000000003, -12.5010000000003, -1.001));
#71 = CARTESIAN_POINT('', (1.64780024810117E-15, -11.4990000000003, 0.00100000000000255));
#72 = CARTESIAN_POINT('', (1.98003440902059E-15, -12.5010000000003, -1.001));
#73 = CARTESIAN_POINT('', (-11.4990000000003, -11.4990000000003, 0.00100000000000255));
#74 = CARTESIAN_POINT('', (-12.5010000000003, -12.5010000000003, -1.001));
#75 = CARTESIAN_POINT('', (-11.4990000000003, -7.62547029224045E-15, 0.001));
#76 = CARTESIAN_POINT('', (-12.5010000000003, -8.24110386272219E-15, -1.001));
#77 = CARTESIAN_POINT('', (-11.4990000000003, 11.4990000000003, 0.000999999999997452));
#78 = CARTESIAN_POINT('', (-12.5010000000003, 12.5010000000003, -1.001));
#79 = CARTESIAN_POINT('', (-7.38589139847886E-15, 11.4990000000003, 0.000999999999997452));
#80 = CARTESIAN_POINT('', (-7.84083516867284E-15, 12.5010000000003, -1.001));
#81 = CARTESIAN_POINT('', (11.4990000000003, 11.4990000000003, 0.000999999999997452));
#82 = CARTESIAN_POINT('', (12.5010000000003, 12.5010000000003, -1.001));
#83 = CARTESIAN_POINT('', (11.4990000000003, -7.88860905221012E-31, 0.001));
#84 = CARTESIAN_POINT('', (12.5010000000003, 4.88347513570999E-17, -1.001));
#85 = ADVANCED_FACE('', (#86), #98, .T.);
#86 = FACE_OUTER_BOUND('', #87, .T.);
#87 = EDGE_LOOP('', (#88, #94, #95, #96, #97));
#88 = ORIENTED_EDGE('', *, *, #89, .T.);
#89 = EDGE_CURVE('', #52, #8, #90, .T.);
#90 = LINE('', #91, #92);
#91 = CARTESIAN_POINT('', (-12.5000000000003, 0., -1.));
#92 = VECTOR('', #93, 59.);
#93 = DIRECTION('', (0., 0., -59.));
#94 = ORIENTED_EDGE('', *, *, #7, .T.);
#95 = ORIENTED_EDGE('', *, *, #89, .F.);
#96 = ORIENTED_EDGE('', *, *, #51, .T.);
#97 = ORIENTED_EDGE('', *, *, #60, .T.);
#98 = (
   BOUNDED_SURFACE ()
   B_SPLINE_SURFACE (2, 1, ((#99, #100), (#101, #102), (#103, #104), (#105, #106), (#107, #108), (#109, #110), (#111, #112), (#113, #114), (#115, #116)), .UNSPECIFIED., .T., .F., .U.)
   B_SPLINE_SURFACE_WITH_KNOTS ((3, 2, 2, 2, 3), (2, 2), (0., 0.25, 0.5, 0.75, 1.), (0., 1.), .UNSPECIFIED.)
   GEOMETRIC_REPRESENTATION_ITEM ()
   RATIONAL_B_SPLINE_SURFACE (((1., 1.), (0.707106781186548, 0.707106781186548), (1., 1.), (0.707106781186548, 0.707106781186548), (1., 1.), (0.707106781186548, 0.707106781186548), (1., 1.), (0.707106781186548, 0.707106781186548), (1., 1.)))
   REPRESENTATION_ITEM ('')
   SURFACE ()
);
#99 = CARTESIAN_POINT('', (-12.5000000000003, 0., -65.9012));
#100 = CARTESIAN_POINT('', (-12.5000000000003, 0., 4.9012));
#101 = CARTESIAN_POINT('', (-12.5000000000003, -12.5000000000003, -65.9012));
#102 = CARTESIAN_POINT('', (-12.5000000000003, -12.5000000000003, 4.9012));
#103 = CARTESIAN_POINT('', (-3.76300641595504E-15, -12.5000000000003, -65.9012));
#104 = CARTESIAN_POINT('', (-3.76300641595504E-15, -12.5000000000003, 4.9012));
#105 = CARTESIAN_POINT('', (12.5000000000003, -12.5000000000003, -65.9012));
#106 = CARTESIAN_POINT('', (12.5000000000003, -12.5000000000003, 4.9012));
#107 = CARTESIAN_POINT('', (12.5000000000003, -9.96850348608542E-15, -65.9012));
#108 = CARTESIAN_POINT('', (12.5000000000003, -9.96850348608542E-15, 4.9012));
#109 = CARTESIAN_POINT('', (12.5000000000003, 12.5000000000003, -65.9012));
#110 = CARTESIAN_POINT('', (12.5000000000003, 12.5000000000003, 4.9012));
#111 = CARTESIAN_POINT('', (7.73630556906461E-15, 12.5000000000003, -65.9012));
#112 = CARTESIAN_POINT('', (7.73630556906461E-15, 12.5000000000003, 4.9012));
#113 = CARTESIAN_POINT('', (-12.5000000000003, 12.5000000000003, -65.9012));
#114 = CARTESIAN_POINT('', (-12.5000000000003, 12.5000000000003, 4.9012));
#115 = CARTESIAN_POINT('', (-12.5000000000003, 0., -65.9012));
#116 = CARTESIAN_POINT('', (-12.5000000000003, 0., 4.9012));
#117 = DRAUGHTING_MODEL('', (#125, #239, #286, #291, #296, #301, #306, #311), #325);
#118 = PRESENTATION_STYLE_ASSIGNMENT((#119));
#119 = SURFACE_STYLE_USAGE(.POSITIVE., #120);
#120 = SURFACE_SIDE_STYLE('', (#121));
#121 = SURFACE_STYLE_FILL_AREA(#122);
#122 = FILL_AREA_STYLE('', (#123));
#123 = FILL_AREA_STYLE_COLOUR('', #124);
#124 = COLOUR_RGB('', 0.50196078431373, 0.50196078431373, 0.50196078431373);
#125 = STYLED_ITEM('', (#118), #1);
#126 = MANIFOLD_SOLID_BREP('CUT', #127);
#127 = CLOSED_SHELL('', (#128, #145, #192, #223));
#128 = ADVANCED_FACE('', (#129), #140, .T.);
#129 = FACE_OUTER_BOUND('', #130, .T.);
#130 = EDGE_LOOP('', (#131));
#131 = ORIENTED_EDGE('', *, *, #132, .T.);
#132 = EDGE_CURVE('', #133, #133, #135, .T.);
#133 = VERTEX_POINT('', #134);
#134 = CARTESIAN_POINT('', (-12.3500000000003, 0., -121.));
#135 = CIRCLE('', #136, 12.3500000000003);
#136 = AXIS2_PLACEMENT_3D('', #137, #138, #139);
#137 = CARTESIAN_POINT('', (-6.10622663543836E-16, -1.33226762955019E-15, -121.));
#138 = DIRECTION('', (0., 0., -1.));
#139 = DIRECTION('', (-1., 1.07875921421065E-16, 0.));
#140 = B_SPLINE_SURFACE_WITH_KNOTS('', 1, 1, ((#141, #142), (#143, #144)), .UNSPECIFIED., .F., .F., .U., (2, 2), (2, 2), (-24.8510000000006, -0.148999999999999), (-12.3510000000003, 12.3510000000003), .UNSPECIFIED.);
#141 = CARTESIAN_POINT('', (-12.3510000000003, 12.3510000000003, -121.));
#142 = CARTESIAN_POINT('', (-12.3510000000003, -12.3510000000003, -121.));
#143 = CARTESIAN_POINT('', (12.3510000000003, 12.3510000000003, -121.));
#144 = CARTESIAN_POINT('', (12.3510000000003, -12.3510000000003, -121.));
#145 = ADVANCED_FACE('', (#146), #173, .T.);
#146 = FACE_OUTER_BOUND('', #147, .T.);
#147 = EDGE_LOOP('', (#148, #158, #165, #166));
#148 = ORIENTED_EDGE('', *, *, #149, .T.);
#149 = EDGE_CURVE('', #150, #152, #154, .T.);
#150 = VERTEX_POINT('', #151);
#151 = CARTESIAN_POINT('', (-12.5000000000003, 0., -60.));
#152 = VERTEX_POINT('', #153);
#153 = CARTESIAN_POINT('', (-12.5000000000003, 0., -120.85));
#154 = LINE('', #155, #156);
#155 = CARTESIAN_POINT('', (-12.5000000000002, -2.60320209643338E-29, -60.));
#156 = VECTOR('', #157, 60.85);
#157 = DIRECTION('', (-6.92779167366098E-14, 2.36650493407112E-29, -60.85));
#158 = ORIENTED_EDGE('', *, *, #159, .T.);
#159 = EDGE_CURVE('', #152, #152, #160, .T.);
#160 = CIRCLE('', #161, 12.5000000000003);
#161 = AXIS2_PLACEMENT_3D('', #162, #163, #164);
#162 = CARTESIAN_POINT('', (-1.60982338570648E-15, 2.22044604925031E-16, -120.85));
#163 = DIRECTION('', (-6.87338960116747E-32, 3.86937435582385E-15, 1.));
#164 = DIRECTION('', (-1., -1.77635683940021E-17, 0.));
#165 = ORIENTED_EDGE('', *, *, #149, .F.);
#166 = ORIENTED_EDGE('', *, *, #167, .F.);
#167 = EDGE_CURVE('', #150, #150, #168, .T.);
#168 = CIRCLE('', #169, 12.5000000000003);
#169 = AXIS2_PLACEMENT_3D('', #170, #171, #172);
#170 = CARTESIAN_POINT('', (-1.60982338570648E-15, 2.22044604925031E-16, -60.));
#171 = DIRECTION('', (0., 0., 1.));
#172 = DIRECTION('', (-1., -1.77635683940021E-17, 0.));
#173 = (
   BOUNDED_SURFACE ()
   B_SPLINE_SURFACE (2, 1, ((#174, #175), (#176, #177), (#178, #179), (#180, #181), (#182, #183), (#184, #185), (#186, #187), (#188, #189), (#190, #191)), .UNSPECIFIED., .T., .F., .U.)
   B_SPLINE_SURFACE_WITH_KNOTS ((3, 2, 2, 2, 3), (2, 2), (0., 0.25, 0.5, 0.75, 1.), (0., 1.), .UNSPECIFIED.)
   GEOMETRIC_REPRESENTATION_ITEM ()
   RATIONAL_B_SPLINE_SURFACE (((1., 1.), (0.707106781186548, 0.707106781186548), (1., 1.), (0.707106781186548, 0.707106781186548), (1., 1.), (0.707106781186548, 0.707106781186548), (1., 1.), (0.707106781186548, 0.707106781186548), (1., 1.)))
   REPRESENTATION_ITEM ('')
   SURFACE ()
);
#174 = CARTESIAN_POINT('', (-12.5000000000003, 0., -126.9362));
#175 = CARTESIAN_POINT('', (-12.5000000000002, -2.83989925879564E-29, -53.9138));
#176 = CARTESIAN_POINT('', (-12.5000000000003, -12.5000000000003, -126.9362));
#177 = CARTESIAN_POINT('', (-12.5000000000002, -12.5000000000003, -53.9138));
#178 = CARTESIAN_POINT('', (-3.76300641595504E-15, -12.5000000000003, -126.9362));
#179 = CARTESIAN_POINT('', (7.92538509724723E-14, -12.5000000000003, -53.9138));
#180 = CARTESIAN_POINT('', (12.5000000000003, -12.5000000000003, -126.9362));
#181 = CARTESIAN_POINT('', (12.5000000000004, -12.5000000000003, -53.9138));
#182 = CARTESIAN_POINT('', (12.5000000000003, -9.96850348608542E-15, -126.9362));
#183 = CARTESIAN_POINT('', (12.5000000000004, -9.96850348608545E-15, -53.9138));
#184 = CARTESIAN_POINT('', (12.5000000000003, 12.5000000000003, -126.9362));
#185 = CARTESIAN_POINT('', (12.5000000000004, 12.5000000000003, -53.9138));
#186 = CARTESIAN_POINT('', (7.73630556906461E-15, 12.5000000000003, -126.9362));
#187 = CARTESIAN_POINT('', (9.0753162957492E-14, 12.5000000000003, -53.9138));
#188 = CARTESIAN_POINT('', (-12.5000000000003, 12.5000000000003, -126.9362));
#189 = CARTESIAN_POINT('', (-12.5000000000002, 12.5000000000003, -53.9138));
#190 = CARTESIAN_POINT('', (-12.5000000000003, 0., -126.9362));
#191 = CARTESIAN_POINT('', (-12.5000000000002, -2.83989925879564E-29, -53.9138));
#192 = ADVANCED_FACE('', (#193), #204, .T.);
#193 = FACE_OUTER_BOUND('', #194, .T.);
#194 = EDGE_LOOP('', (#195, #201, #202, #203));
#195 = ORIENTED_EDGE('', *, *, #196, .T.);
#196 = EDGE_CURVE('', #152, #133, #197, .T.);
#197 = LINE('', #198, #199);
#198 = CARTESIAN_POINT('', (-12.5000000000003, -6.88696908945905E-15, -120.85));
#199 = VECTOR('', #200, 0.212132034355971);
#200 = DIRECTION('', (0.150000000000004, 6.84136002264098E-15, -0.150000000000006));
#201 = ORIENTED_EDGE('', *, *, #132, .F.);
#202 = ORIENTED_EDGE('', *, *, #196, .F.);
#203 = ORIENTED_EDGE('', *, *, #159, .F.);
#204 = (
   BOUNDED_SURFACE ()
   B_SPLINE_SURFACE (2, 1, ((#205, #206), (#207, #208), (#209, #210), (#211, #212), (#213, #214), (#215, #216), (#217, #218), (#219, #220), (#221, #222)), .UNSPECIFIED., .T., .F., .U.)
   B_SPLINE_SURFACE_WITH_KNOTS ((3, 2, 2, 2, 3), (2, 2), (0., 0.25, 0.5, 0.75, 1.), (0., 1.), .UNSPECIFIED.)
   GEOMETRIC_REPRESENTATION_ITEM ()
   RATIONAL_B_SPLINE_SURFACE (((1., 1.), (0.707106781186548, 0.707106781186548), (1., 1.), (0.707106781186548, 0.707106781186548), (1., 1.), (0.707106781186548, 0.707106781186548), (1., 1.), (0.707106781186548, 0.707106781186548), (1., 1.)))
   REPRESENTATION_ITEM ('')
   SURFACE ()
);
#205 = CARTESIAN_POINT('', (-12.3490000000003, 7.88860905221012E-31, -121.001));
#206 = CARTESIAN_POINT('', (-12.5010000000003, -6.93257815627748E-15, -120.849));
#207 = CARTESIAN_POINT('', (-12.3490000000003, -12.3490000000003, -121.001000000001));
#208 = CARTESIAN_POINT('', (-12.5010000000003, -12.5010000000003, -120.849000000001));
#209 = CARTESIAN_POINT('', (4.23984544467965E-15, -12.3490000000003, -121.001000000001));
#210 = CARTESIAN_POINT('', (4.27973353260764E-15, -12.5010000000003, -120.849000000001));
#211 = CARTESIAN_POINT('', (12.3490000000003, -12.3490000000003, -121.001000000001));
#212 = CARTESIAN_POINT('', (12.5010000000003, -12.5010000000003, -120.849000000001));
#213 = CARTESIAN_POINT('', (12.3490000000003, 6.48128944503403E-15, -121.001));
#214 = CARTESIAN_POINT('', (12.5010000000003, -3.71512535387482E-16, -120.849));
#215 = CARTESIAN_POINT('', (12.3490000000003, 12.3490000000003, -121.000999999999));
#216 = CARTESIAN_POINT('', (12.5010000000003, 12.5010000000003, -120.848999999999));
#217 = CARTESIAN_POINT('', (-7.2912766808727E-16, 12.3490000000003, -121.000999999999));
#218 = CARTESIAN_POINT('', (-7.50401124668209E-16, 12.5010000000003, -120.848999999999));
#219 = CARTESIAN_POINT('', (-12.3490000000003, 12.3490000000003, -121.000999999999));
#220 = CARTESIAN_POINT('', (-12.5010000000003, 12.5010000000003, -120.848999999999));
#221 = CARTESIAN_POINT('', (-12.3490000000003, 7.88860905221012E-31, -121.001));
#222 = CARTESIAN_POINT('', (-12.5010000000003, -6.93257815627748E-15, -120.849));
#223 = ADVANCED_FACE('', (#224), #227, .T.);
#224 = FACE_OUTER_BOUND('', #225, .T.);
#225 = EDGE_LOOP('', (#226));
#226 = ORIENTED_EDGE('', *, *, #167, .T.);
#227 = B_SPLINE_SURFACE_WITH_KNOTS('', 1, 1, ((#228, #229), (#230, #231)), .UNSPECIFIED., .F., .F., .U., (2, 2), (2, 2), (-12.5010000000003, 12.5010000000003), (-12.5010000000003, 12.5010000000003), .UNSPECIFIED.);
#228 = CARTESIAN_POINT('', (-12.5010000000003, -12.5010000000003, -60.));
#229 = CARTESIAN_POINT('', (-12.5010000000003, 12.5010000000003, -60.));
#230 = CARTESIAN_POINT('', (12.5010000000003, -12.5010000000003, -60.));
#231 = CARTESIAN_POINT('', (12.5010000000003, 12.5010000000003, -60.));
#232 = PRESENTATION_STYLE_ASSIGNMENT((#233));
#233 = SURFACE_STYLE_USAGE(.POSITIVE., #234);
#234 = SURFACE_SIDE_STYLE('', (#235));
#235 = SURFACE_STYLE_FILL_AREA(#236);
#236 = FILL_AREA_STYLE('', (#237));
#237 = FILL_AREA_STYLE_COLOUR('', #238);
#238 = COLOUR_RGB('', 0.8, 0.8, 0.8);
#239 = STYLED_ITEM('', (#232), #126);
#240 = TRIMMED_CURVE('cutting part line', #241, (#245), (#246), .T., .CARTESIAN.);
#241 = LINE('', #242, #243);
#242 = CARTESIAN_POINT('', (1.66533453693773E-16, 0., -121.));
#243 = VECTOR('', #244, 12.3500000000003);
#244 = DIRECTION('', (12.3500000000003, 0., 0.));
#245 = CARTESIAN_POINT('', (1.66533453693773E-16, 0., -121.));
#246 = CARTESIAN_POINT('', (12.3500000000003, 0., -121.));
#247 = TRIMMED_CURVE('cutting part line', #248, (#252), (#253), .T., .CARTESIAN.);
#248 = LINE('', #249, #250);
#249 = CARTESIAN_POINT('', (12.35, 3.9683540976804E-15, -121.));
#250 = VECTOR('', #251, 0.212132034356761);
#251 = DIRECTION('', (0.150000000000567, -6.79177734884884E-15, 0.15000000000056));
#252 = CARTESIAN_POINT('', (12.35, 3.9683540976804E-15, -121.));
#253 = CARTESIAN_POINT('', (12.5000000000006, -2.82342325116844E-15, -120.85));
#254 = TRIMMED_CURVE('cutting part line', #255, (#259), (#260), .T., .CARTESIAN.);
#255 = LINE('', #256, #257);
#256 = CARTESIAN_POINT('', (12.5000000000003, 0., -120.85));
#257 = VECTOR('', #258, 60.85);
#258 = DIRECTION('', (6.92779167366098E-14, 1.20733026472937E-15, 60.85));
#259 = CARTESIAN_POINT('', (12.5000000000003, 0., -120.85));
#260 = CARTESIAN_POINT('', (12.5000000000004, 1.20733026472937E-15, -60.));
#261 = TRIMMED_CURVE('cutting part line', #262, (#266), (#267), .T., .CARTESIAN.);
#262 = LINE('', #263, #264);
#263 = CARTESIAN_POINT('', (12.5000000000003, 0., -60.));
#264 = VECTOR('', #265, 12.5000000000003);
#265 = DIRECTION('', (-12.5000000000003, 0., 0.));
#266 = CARTESIAN_POINT('', (12.5000000000003, 0., -60.));
#267 = CARTESIAN_POINT('', (0., 0., -60.));
#268 = TRIMMED_CURVE('cutting part line', #269, (#273), (#274), .T., .CARTESIAN.);
#269 = LINE('', #270, #271);
#270 = CARTESIAN_POINT('', (0., 0., -60.));
#271 = VECTOR('', #272, 61.);
#272 = DIRECTION('', (0., 0., -61.));
#273 = CARTESIAN_POINT('', (0., 0., -60.));
#274 = CARTESIAN_POINT('', (0., 0., -121.));
#275 = COMPOSITE_CURVE('cutting part line', (#276, #277, #278, #279, #280), .U.);
#276 = COMPOSITE_CURVE_SEGMENT(.CONTINUOUS., .T., #240);
#277 = COMPOSITE_CURVE_SEGMENT(.CONTINUOUS., .T., #247);
#278 = COMPOSITE_CURVE_SEGMENT(.CONTINUOUS., .T., #254);
#279 = COMPOSITE_CURVE_SEGMENT(.CONTINUOUS., .T., #261);
#280 = COMPOSITE_CURVE_SEGMENT(.CONTINUOUS., .T., #268);
#281 = GEOMETRIC_SET('', (#275, #324));
#282 = PRESENTATION_STYLE_ASSIGNMENT((#283));
#283 = CURVE_STYLE('', #285, POSITIVE_LENGTH_MEASURE(1.E-6), #284);
#284 = COLOUR_RGB('', 0., 0., 1.);
#285 = DRAUGHTING_PRE_DEFINED_CURVE_FONT('continuous');
#286 = STYLED_ITEM('', (#282), #275);
#287 = PRESENTATION_STYLE_ASSIGNMENT((#288));
#288 = CURVE_STYLE('', #290, POSITIVE_LENGTH_MEASURE(1.E-6), #289);
#289 = COLOUR_RGB('', 0., 0., 1.);
#290 = DRAUGHTING_PRE_DEFINED_CURVE_FONT('continuous');
#291 = OVER_RIDING_STYLED_ITEM('', (#287), #240, #286);
#292 = PRESENTATION_STYLE_ASSIGNMENT((#293));
#293 = CURVE_STYLE('', #295, POSITIVE_LENGTH_MEASURE(1.E-6), #294);
#294 = COLOUR_RGB('', 0., 0., 1.);
#295 = DRAUGHTING_PRE_DEFINED_CURVE_FONT('continuous');
#296 = OVER_RIDING_STYLED_ITEM('', (#292), #247, #286);
#297 = PRESENTATION_STYLE_ASSIGNMENT((#298));
#298 = CURVE_STYLE('', #300, POSITIVE_LENGTH_MEASURE(1.E-6), #299);
#299 = COLOUR_RGB('', 0., 0., 1.);
#300 = DRAUGHTING_PRE_DEFINED_CURVE_FONT('continuous');
#301 = OVER_RIDING_STYLED_ITEM('', (#297), #254, #286);
#302 = PRESENTATION_STYLE_ASSIGNMENT((#303));
#303 = CURVE_STYLE('', #305, POSITIVE_LENGTH_MEASURE(1.E-6), #304);
#304 = COLOUR_RGB('', 0., 0., 1.);
#305 = DRAUGHTING_PRE_DEFINED_CURVE_FONT('continuous');
#306 = OVER_RIDING_STYLED_ITEM('', (#302), #261, #286);
#307 = PRESENTATION_STYLE_ASSIGNMENT((#308));
#308 = CURVE_STYLE('', #310, POSITIVE_LENGTH_MEASURE(1.E-6), #309);
#309 = COLOUR_RGB('', 0., 0., 1.);
#310 = DRAUGHTING_PRE_DEFINED_CURVE_FONT('continuous');
#311 = OVER_RIDING_STYLED_ITEM('', (#307), #268, #286);
#312 = AXIS2_PLACEMENT_3D('MCS', #313, #314, #315);
#313 = CARTESIAN_POINT('', (0., 0., -56.));
#314 = DIRECTION('', (0., 0., 1.));
#315 = DIRECTION('', (1., 0., 0.));
#316 = AXIS2_PLACEMENT_3D('PCS', #317, #318, #319);
#317 = CARTESIAN_POINT('', (0., 0., 0.));
#318 = DIRECTION('', (0., 0., 1.));
#319 = DIRECTION('', (1., 0., 0.));
#320 = AXIS2_PLACEMENT_3D('CIP', #321, #322, #323);
#321 = CARTESIAN_POINT('', (0., 0., -121.));
#322 = DIRECTION('', (0., 0., 1.));
#323 = DIRECTION('', (1., 0., 0.));
#324 = CARTESIAN_POINT('CRP', (12.5000000000006, 0., -121.));
#325 = (
   GEOMETRIC_REPRESENTATION_CONTEXT (3)
   GLOBAL_UNCERTAINTY_ASSIGNED_CONTEXT ((#327))
   GLOBAL_UNIT_ASSIGNED_CONTEXT ((#326, #328, #329))
   REPRESENTATION_CONTEXT ('', '3D')
);
#326 = (
   LENGTH_UNIT ()
   NAMED_UNIT (*)
   SI_UNIT (.MILLI., .METRE.)
);
#327 = UNCERTAINTY_MEASURE_WITH_UNIT(LENGTH_MEASURE(1.E-6), #326, 'DISTANCE_ACCURACY_VALUE', '');
#328 = (
   NAMED_UNIT (*)
   SI_UNIT ($, .STERADIAN.)
   SOLID_ANGLE_UNIT ()
);
#329 = (
   NAMED_UNIT (*)
   PLANE_ANGLE_UNIT ()
   SI_UNIT ($, .RADIAN.)
);
#330 = SHAPE_REPRESENTATION('', (), #325);
#331 = PRODUCT_DEFINITION_SHAPE('', '', #332);
#332 = PRODUCT_DEFINITION('', '', #335, #339);
#333 = APPLICATION_CONTEXT('configuration controlled 3D designs of mechanical parts and assemblies');
#334 = APPLICATION_PROTOCOL_DEFINITION('International Standard', 'automotive_design', 2002, #333);
#335 = PRODUCT_DEFINITION_FORMATION_WITH_SPECIFIED_SOURCE('', '', #336, .NOT_KNOWN.);
#336 = PRODUCT('R216.35-25030-BC45B-634160981262795000-1', 'R216.35-25030-BC45B 1620', '', (#337));
#337 = PRODUCT_CONTEXT('', #333, 'mechanical');
#338 = PRODUCT_RELATED_PRODUCT_CATEGORY('detail', '', (#336));
#339 = PRODUCT_DEFINITION_CONTEXT('part definition', #333, 'design');
#340 = SHAPE_DEFINITION_REPRESENTATION(#331, #330);
#341 = CONSTRUCTIVE_GEOMETRY_REPRESENTATION('supplemental geometry', (#312, #316, #320), #325);
#342 = CONSTRUCTIVE_GEOMETRY_REPRESENTATION_RELATIONSHIP('', '', #330, #341);
#343 = SHAPE_REPRESENTATION_RELATIONSHIP('', '', #330, #344);
#344 = SHAPE_REPRESENTATION('', (#281), #325);
#345 = SHAPE_REPRESENTATION_RELATIONSHIP('', '', #330, #346);
#346 = ADVANCED_BREP_SHAPE_REPRESENTATION('', (#1, #126), #325);
ENDSEC;
END-ISO-10303-21;
