ISO-10303-21;
HEADER;
FILE_DESCRIPTION(('STEP'), '1');
FILE_NAME('C:\\Users\\ds2002\\OneDrive - Sandvik\\HomeShare\\Documents\\Batchrepair\\CorSRT2\\NEW_MILSQ_SLD\\Output\\MOD000000000000000020084628800000.stp', '2019-01-02T12:10:19', (''), (''), 'Express v3.0.0.0', 'Express Tool', 'Unknown');
FILE_SCHEMA(('AUTOMOTIVE_DESIGN'));
ENDSEC;

DATA;
#1 = MANIFOLD_SOLID_BREP('NOCUT', #2);
#2 = CLOSED_SHELL('', (#3, #50, #59, #98));
#3 = ADVANCED_FACE('', (#4), #31, .T.);
#4 = FACE_OUTER_BOUND('', #5, .T.);
#5 = EDGE_LOOP('', (#6, #16, #23, #24));
#6 = ORIENTED_EDGE('', *, *, #7, .T.);
#7 = EDGE_CURVE('', #8, #10, #12, .T.);
#8 = VERTEX_POINT('', #9);
#9 = CARTESIAN_POINT('', (-8., 5.38844591624835E-16, -0.799999999999997));
#10 = VERTEX_POINT('', #11);
#11 = CARTESIAN_POINT('', (-7.2, 4.40872847693047E-16, 0.));
#12 = LINE('', #13, #14);
#13 = CARTESIAN_POINT('', (-8., 5.38844591624835E-16, -0.799999999999997));
#14 = VECTOR('', #15, 1.13137084989847);
#15 = DIRECTION('', (0.8, -9.7971743931788E-17, 0.799999999999997));
#16 = ORIENTED_EDGE('', *, *, #17, .T.);
#17 = EDGE_CURVE('', #10, #10, #18, .T.);
#18 = CIRCLE('', #19, 7.2);
#19 = AXIS2_PLACEMENT_3D('', #20, #21, #22);
#20 = CARTESIAN_POINT('', (-1.4432899320127E-15, -4.44089209850063E-15, -2.83496887813801E-31));
#21 = DIRECTION('', (2.14236152270701E-33, 6.12323399573676E-17, -1.));
#22 = DIRECTION('', (-1., 6.78022909193566E-16, 3.93745677519168E-32));
#23 = ORIENTED_EDGE('', *, *, #7, .F.);
#24 = ORIENTED_EDGE('', *, *, #25, .F.);
#25 = EDGE_CURVE('', #8, #8, #26, .T.);
#26 = CIRCLE('', #27, 8.);
#27 = AXIS2_PLACEMENT_3D('', #28, #29, #30);
#28 = CARTESIAN_POINT('', (-6.66133814775094E-16, -3.5527136788005E-15, -0.799999999999997));
#29 = DIRECTION('', (-1.38777878078144E-17, 1.39615984421496E-16, -1.));
#30 = DIRECTION('', (-1., 5.11444783803167E-16, 1.38777878078145E-17));
#31 = (
   BOUNDED_SURFACE ()
   B_SPLINE_SURFACE (1, 2, ((#32, #33, #34, #35, #36, #37, #38, #39, #40), (#41, #42, #43, #44, #45, #46, #47, #48, #49)), .UNSPECIFIED., .F., .T., .U.)
   B_SPLINE_SURFACE_WITH_KNOTS ((2, 2), (3, 2, 2, 2, 3), (0., 1.), (0., 0.25, 0.5, 0.75, 1.), .UNSPECIFIED.)
   GEOMETRIC_REPRESENTATION_ITEM ()
   RATIONAL_B_SPLINE_SURFACE (((1., 0.707106781186548, 1., 0.707106781186548, 1., 0.707106781186548, 1., 0.707106781186548, 1.), (1., 0.707106781186548, 1., 0.707106781186548, 1., 0.707106781186548, 1., 0.707106781186548, 1.)))
   REPRESENTATION_ITEM ('')
   SURFACE ()
);
#32 = CARTESIAN_POINT('', (-8., -4.09906311545837E-15, -0.799999999999997));
#33 = CARTESIAN_POINT('', (-8., 7.99999999999999, -0.800000000000044));
#34 = CARTESIAN_POINT('', (6.56881956236551E-16, 7.99999999999999, -0.800000000000044));
#35 = CARTESIAN_POINT('', (8., 7.99999999999999, -0.800000000000044));
#36 = CARTESIAN_POINT('', (8., -5.57936048162525E-15, -0.799999999999997));
#37 = CARTESIAN_POINT('', (8., -8.00000000000001, -0.799999999999951));
#38 = CARTESIAN_POINT('', (1.56302029387557E-16, -8.00000000000001, -0.799999999999951));
#39 = CARTESIAN_POINT('', (-8., -8.00000000000001, -0.799999999999951));
#40 = CARTESIAN_POINT('', (-8., -4.09906311545837E-15, -0.799999999999997));
#41 = CARTESIAN_POINT('', (-7.2, 4.40872847693047E-16, 0.));
#42 = CARTESIAN_POINT('', (-7.2, 7.2, -4.19664303308311E-14));
#43 = CARTESIAN_POINT('', (5.82867087928207E-16, 7.2, -4.19664303308311E-14));
#44 = CARTESIAN_POINT('', (7.2, 7.2, -4.19664303308311E-14));
#45 = CARTESIAN_POINT('', (7.2, -8.9139478185714E-16, -5.23801307078189E-30));
#46 = CARTESIAN_POINT('', (7.2, -7.2, 4.19664303308311E-14));
#47 = CARTESIAN_POINT('', (1.32345153764114E-16, -7.2, 4.19664303308311E-14));
#48 = CARTESIAN_POINT('', (-7.2, -7.2, 4.19664303308311E-14));
#49 = CARTESIAN_POINT('', (-7.2, 4.40872847693047E-16, 0.));
#50 = ADVANCED_FACE('', (#51), #54, .T.);
#51 = FACE_OUTER_BOUND('', #52, .T.);
#52 = EDGE_LOOP('', (#53));
#53 = ORIENTED_EDGE('', *, *, #17, .F.);
#54 = B_SPLINE_SURFACE_WITH_KNOTS('', 1, 1, ((#55, #56), (#57, #58)), .UNSPECIFIED., .F., .F., .U., (2, 2), (2, 2), (4.0005714139949, 18.4005714139949), (4.0005714139949, 18.4005714139949), .UNSPECIFIED.);
#55 = CARTESIAN_POINT('', (7.2, -7.2, 1.3769981867509E-14));
#56 = CARTESIAN_POINT('', (-7.2, -7.2, -1.4651727562895E-14));
#57 = CARTESIAN_POINT('', (7.2, 7.2, 1.4651727562895E-14));
#58 = CARTESIAN_POINT('', (-7.2, 7.2, -1.37699818675089E-14));
#59 = ADVANCED_FACE('', (#60), #79, .T.);
#60 = FACE_OUTER_BOUND('', #61, .T.);
#61 = EDGE_LOOP('', (#62, #71, #77, #78));
#62 = ORIENTED_EDGE('', *, *, #63, .F.);
#63 = EDGE_CURVE('', #64, #64, #66, .T.);
#64 = VERTEX_POINT('', #65);
#65 = CARTESIAN_POINT('', (-8., 4.163799117101E-15, -60.));
#66 = CIRCLE('', #67, 8.);
#67 = AXIS2_PLACEMENT_3D('', #68, #69, #70);
#68 = CARTESIAN_POINT('', (-7.7715611723761E-16, 9.32587340685131E-15, -60.));
#69 = DIRECTION('', (0., 0., -1.));
#70 = DIRECTION('', (-1., -8.90188646048259E-16, 0.));
#71 = ORIENTED_EDGE('', *, *, #72, .T.);
#72 = EDGE_CURVE('', #64, #8, #73, .T.);
#73 = LINE('', #74, #75);
#74 = CARTESIAN_POINT('', (-8., 4.163799117101E-15, -60.));
#75 = VECTOR('', #76, 59.2);
#76 = DIRECTION('', (0., -3.62495452547617E-15, 59.2));
#77 = ORIENTED_EDGE('', *, *, #25, .T.);
#78 = ORIENTED_EDGE('', *, *, #72, .F.);
#79 = (
   BOUNDED_SURFACE ()
   B_SPLINE_SURFACE (1, 2, ((#80, #81, #82, #83, #84, #85, #86, #87, #88), (#89, #90, #91, #92, #93, #94, #95, #96, #97)), .UNSPECIFIED., .F., .T., .U.)
   B_SPLINE_SURFACE_WITH_KNOTS ((2, 2), (3, 2, 2, 2, 3), (-0.254237288135593, 1.), (0., 0.25, 0.5, 0.75, 1.), .UNSPECIFIED.)
   GEOMETRIC_REPRESENTATION_ITEM ()
   RATIONAL_B_SPLINE_SURFACE (((1., 0.707106781186548, 1., 0.707106781186548, 1., 0.707106781186548, 1., 0.707106781186548, 1.), (1., 0.707106781186548, 1., 0.707106781186548, 1., 0.707106781186548, 1., 0.707106781186548, 1.)))
   REPRESENTATION_ITEM ('')
   SURFACE ()
);
#80 = CARTESIAN_POINT('', (-8., 5.64587050490056E-15, -60.));
#81 = CARTESIAN_POINT('', (-8., 8.00000000000001, -60.));
#82 = CARTESIAN_POINT('', (4.00137983963145E-15, 8., -60.));
#83 = CARTESIAN_POINT('', (8.00000000000001, 8., -60.));
#84 = CARTESIAN_POINT('', (8., -1.55752859663223E-15, -60.));
#85 = CARTESIAN_POINT('', (8., -8., -60.));
#86 = CARTESIAN_POINT('', (-2.22230182258345E-15, -8., -60.));
#87 = CARTESIAN_POINT('', (-8., -8., -60.));
#88 = CARTESIAN_POINT('', (-8., 5.64587050490056E-15, -60.));
#89 = CARTESIAN_POINT('', (-8., 5.38844591624836E-16, -0.799999999999997));
#90 = CARTESIAN_POINT('', (-8., 8., -0.799999999999996));
#91 = CARTESIAN_POINT('', (4.82294487785407E-15, 8., -0.799999999999996));
#92 = CARTESIAN_POINT('', (8.00000000000001, 8., -0.799999999999997));
#93 = CARTESIAN_POINT('', (8.00000000000001, -6.66455450990795E-15, -0.799999999999997));
#94 = CARTESIAN_POINT('', (8., -8.00000000000001, -0.799999999999998));
#95 = CARTESIAN_POINT('', (-1.40073678436084E-15, -8.00000000000001, -0.799999999999998));
#96 = CARTESIAN_POINT('', (-8., -8.00000000000001, -0.799999999999998));
#97 = CARTESIAN_POINT('', (-8., 5.38844591624836E-16, -0.799999999999997));
#98 = ADVANCED_FACE('', (#99), #102, .T.);
#99 = FACE_OUTER_BOUND('', #100, .T.);
#100 = EDGE_LOOP('', (#101));
#101 = ORIENTED_EDGE('', *, *, #63, .T.);
#102 = B_SPLINE_SURFACE_WITH_KNOTS('', 1, 1, ((#103, #104), (#105, #106)), .UNSPECIFIED., .F., .F., .U., (2, 2), (2, 2), (89.1765426054315, 105.176542605432), (84.3069763823691, 100.306976382369), .UNSPECIFIED.);
#103 = CARTESIAN_POINT('', (-8., 8.00000000000001, -60.));
#104 = CARTESIAN_POINT('', (-8., -8., -60.));
#105 = CARTESIAN_POINT('', (8.00000000000001, 8.00000000000001, -60.));
#106 = CARTESIAN_POINT('', (8., -8., -60.));
#107 = DRAUGHTING_MODEL('', (#115, #229, #276, #281, #286, #291, #296, #301), #315);
#108 = PRESENTATION_STYLE_ASSIGNMENT((#109));
#109 = SURFACE_STYLE_USAGE(.POSITIVE., #110);
#110 = SURFACE_SIDE_STYLE('', (#111));
#111 = SURFACE_STYLE_FILL_AREA(#112);
#112 = FILL_AREA_STYLE('', (#113));
#113 = FILL_AREA_STYLE_COLOUR('', #114);
#114 = COLOUR_RGB('', 0.50196078431373, 0.50196078431373, 0.50196078431373);
#115 = STYLED_ITEM('', (#108), #1);
#116 = MANIFOLD_SOLID_BREP('CUT', #117);
#117 = CLOSED_SHELL('', (#118, #135, #174, #213));
#118 = ADVANCED_FACE('', (#119), #130, .T.);
#119 = FACE_OUTER_BOUND('', #120, .T.);
#120 = EDGE_LOOP('', (#121));
#121 = ORIENTED_EDGE('', *, *, #122, .F.);
#122 = EDGE_CURVE('', #123, #123, #125, .T.);
#123 = VERTEX_POINT('', #124);
#124 = CARTESIAN_POINT('', (-8., 4.163799117101E-15, -60.));
#125 = CIRCLE('', #126, 8.);
#126 = AXIS2_PLACEMENT_3D('', #127, #128, #129);
#127 = CARTESIAN_POINT('', (1.88737914186277E-15, 0., -60.));
#128 = DIRECTION('', (1.57336889907354E-30, 3.02294871548747E-15, -1.));
#129 = DIRECTION('', (-1., 5.20474889637625E-16, 0.));
#130 = B_SPLINE_SURFACE_WITH_KNOTS('', 1, 1, ((#131, #132), (#133, #134)), .UNSPECIFIED., .F., .F., .U., (2, 2), (2, 2), (84.3069763823691, 100.306976382369), (89.1765426054315, 105.176542605431), .UNSPECIFIED.);
#131 = CARTESIAN_POINT('', (-8., 8.00000000000001, -60.));
#132 = CARTESIAN_POINT('', (8., 8.00000000000001, -60.));
#133 = CARTESIAN_POINT('', (-8., -8., -60.));
#134 = CARTESIAN_POINT('', (8., -8., -60.));
#135 = ADVANCED_FACE('', (#136), #155, .T.);
#136 = FACE_OUTER_BOUND('', #137, .T.);
#137 = EDGE_LOOP('', (#138, #139, #147, #154));
#138 = ORIENTED_EDGE('', *, *, #122, .T.);
#139 = ORIENTED_EDGE('', *, *, #140, .F.);
#140 = EDGE_CURVE('', #141, #123, #143, .T.);
#141 = VERTEX_POINT('', #142);
#142 = CARTESIAN_POINT('', (-8., 6.11404914474316E-15, -91.85));
#143 = LINE('', #144, #145);
#144 = CARTESIAN_POINT('', (-8., 6.11404914474316E-15, -91.85));
#145 = VECTOR('', #146, 31.85);
#146 = DIRECTION('', (0., -1.95025002764216E-15, 31.85));
#147 = ORIENTED_EDGE('', *, *, #148, .F.);
#148 = EDGE_CURVE('', #141, #141, #149, .T.);
#149 = CIRCLE('', #150, 8.);
#150 = AXIS2_PLACEMENT_3D('', #151, #152, #153);
#151 = CARTESIAN_POINT('', (-9.15933995315754E-16, 5.10702591327572E-15, -91.85));
#152 = DIRECTION('', (0., 0., -1.));
#153 = DIRECTION('', (-1., 1.2587790393343E-16, 0.));
#154 = ORIENTED_EDGE('', *, *, #140, .T.);
#155 = (
   BOUNDED_SURFACE ()
   B_SPLINE_SURFACE (1, 2, ((#156, #157, #158, #159, #160, #161, #162, #163, #164), (#165, #166, #167, #168, #169, #170, #171, #172, #173)), .UNSPECIFIED., .F., .T., .U.)
   B_SPLINE_SURFACE_WITH_KNOTS ((2, 2), (3, 2, 2, 2, 3), (-0.929025423728814, -0.254237288135593), (0., 0.25, 0.5, 0.75, 1.), .UNSPECIFIED.)
   GEOMETRIC_REPRESENTATION_ITEM ()
   RATIONAL_B_SPLINE_SURFACE (((1., 0.707106781186548, 1., 0.707106781186548, 1., 0.707106781186548, 1., 0.707106781186548, 1.), (1., 0.707106781186548, 1., 0.707106781186548, 1., 0.707106781186548, 1., 0.707106781186548, 1.)))
   REPRESENTATION_ITEM ('')
   SURFACE ()
);
#156 = CARTESIAN_POINT('', (-8., 9.49286963530175E-15, -91.85));
#157 = CARTESIAN_POINT('', (-8., 8.00000000000001, -91.85));
#158 = CARTESIAN_POINT('', (1.9808502848887E-15, 8.00000000000001, -91.85));
#159 = CARTESIAN_POINT('', (8., 8.00000000000001, -91.85));
#160 = CARTESIAN_POINT('', (8., 7.02997014876832E-15, -91.85));
#161 = CARTESIAN_POINT('', (8., -7.99999999999999, -91.85));
#162 = CARTESIAN_POINT('', (4.9766823767315E-16, -7.99999999999999, -91.85));
#163 = CARTESIAN_POINT('', (-8., -7.99999999999999, -91.85));
#164 = CARTESIAN_POINT('', (-8., 9.49286963530175E-15, -91.85));
#165 = CARTESIAN_POINT('', (-8., 4.163799117101E-15, -60.));
#166 = CARTESIAN_POINT('', (-8., 8., -60.));
#167 = CARTESIAN_POINT('', (1.98085028488869E-15, 8., -60.));
#168 = CARTESIAN_POINT('', (8., 8., -60.));
#169 = CARTESIAN_POINT('', (8., 1.70089963056757E-15, -60.));
#170 = CARTESIAN_POINT('', (8., -8., -60.));
#171 = CARTESIAN_POINT('', (4.97668237673149E-16, -8., -60.));
#172 = CARTESIAN_POINT('', (-8., -8., -60.));
#173 = CARTESIAN_POINT('', (-8., 4.163799117101E-15, -60.));
#174 = ADVANCED_FACE('', (#175), #194, .T.);
#175 = FACE_OUTER_BOUND('', #176, .T.);
#176 = EDGE_LOOP('', (#177, #185, #186, #187));
#177 = ORIENTED_EDGE('', *, *, #178, .F.);
#178 = EDGE_CURVE('', #141, #179, #181, .T.);
#179 = VERTEX_POINT('', #180);
#180 = CARTESIAN_POINT('', (-7.85, 6.11404914474316E-15, -92.));
#181 = LINE('', #182, #183);
#182 = CARTESIAN_POINT('', (-8., 6.11404914474316E-15, -91.85));
#183 = VECTOR('', #184, 0.212132034355969);
#184 = DIRECTION('', (0.15, 0., -0.150000000000006));
#185 = ORIENTED_EDGE('', *, *, #148, .T.);
#186 = ORIENTED_EDGE('', *, *, #178, .T.);
#187 = ORIENTED_EDGE('', *, *, #188, .F.);
#188 = EDGE_CURVE('', #179, #179, #189, .T.);
#189 = CIRCLE('', #190, 7.85);
#190 = AXIS2_PLACEMENT_3D('', #191, #192, #193);
#191 = CARTESIAN_POINT('', (9.99200722162641E-16, 4.66293670342566E-15, -92.));
#192 = DIRECTION('', (0., 0., -1.));
#193 = DIRECTION('', (-1., 1.84855088065924E-16, 0.));
#194 = (
   BOUNDED_SURFACE ()
   B_SPLINE_SURFACE (2, 1, ((#195, #196), (#197, #198), (#199, #200), (#201, #202), (#203, #204), (#205, #206), (#207, #208), (#209, #210), (#211, #212)), .UNSPECIFIED., .T., .F., .U.)
   B_SPLINE_SURFACE_WITH_KNOTS ((3, 2, 2, 2, 3), (2, 2), (0., 0.25, 0.5, 0.75, 1.), (0., 1.), .UNSPECIFIED.)
   GEOMETRIC_REPRESENTATION_ITEM ()
   RATIONAL_B_SPLINE_SURFACE (((1., 1.), (0.707106781186548, 0.707106781186548), (1., 1.), (0.707106781186548, 0.707106781186548), (1., 1.), (0.707106781186548, 0.707106781186548), (1., 1.), (0.707106781186548, 0.707106781186548), (1., 1.)))
   REPRESENTATION_ITEM ('')
   SURFACE ()
);
#195 = CARTESIAN_POINT('', (-8., 6.11404914474316E-15, -91.85));
#196 = CARTESIAN_POINT('', (-7.85, 3.89553809161455E-15, -92.));
#197 = CARTESIAN_POINT('', (-8., 8.00000000000001, -91.8500000000001));
#198 = CARTESIAN_POINT('', (-7.85, 7.85, -92.0000000000001));
#199 = CARTESIAN_POINT('', (-2.32236029813482E-16, 8.00000000000001, -91.8500000000001));
#200 = CARTESIAN_POINT('', (-2.2111618269817E-16, 7.85, -92.0000000000001));
#201 = CARTESIAN_POINT('', (8., 8.00000000000001, -91.8500000000001));
#202 = CARTESIAN_POINT('', (7.85, 7.85, -92.0000000000001));
#203 = CARTESIAN_POINT('', (8., 7.30016617037648E-15, -91.85));
#204 = CARTESIAN_POINT('', (7.85, 5.05941542301725E-15, -92.));
#205 = CARTESIAN_POINT('', (8., -7.99999999999999, -91.8499999999999));
#206 = CARTESIAN_POINT('', (7.85, -7.84999999999999, -91.9999999999999));
#207 = CARTESIAN_POINT('', (1.93359843513772E-15, -7.99999999999999, -91.8499999999999));
#208 = CARTESIAN_POINT('', (1.90410888603519E-15, -7.85, -91.9999999999999));
#209 = CARTESIAN_POINT('', (-8., -7.99999999999999, -91.8499999999999));
#210 = CARTESIAN_POINT('', (-7.85, -7.85, -91.9999999999999));
#211 = CARTESIAN_POINT('', (-8., 6.11404914474316E-15, -91.85));
#212 = CARTESIAN_POINT('', (-7.85, 3.89553809161455E-15, -92.));
#213 = ADVANCED_FACE('', (#214), #217, .T.);
#214 = FACE_OUTER_BOUND('', #215, .T.);
#215 = EDGE_LOOP('', (#216));
#216 = ORIENTED_EDGE('', *, *, #188, .T.);
#217 = B_SPLINE_SURFACE_WITH_KNOTS('', 1, 1, ((#218, #219), (#220, #221)), .UNSPECIFIED., .F., .F., .U., (2, 2), (2, 2), (4.3617341110917, 20.0617341110917), (4.3617341110917, 20.0617341110917), .UNSPECIFIED.);
#218 = CARTESIAN_POINT('', (7.85, -7.85, -92.));
#219 = CARTESIAN_POINT('', (7.85, 7.85000000000001, -92.));
#220 = CARTESIAN_POINT('', (-7.85, -7.85, -92.));
#221 = CARTESIAN_POINT('', (-7.85, 7.85000000000001, -92.));
#222 = PRESENTATION_STYLE_ASSIGNMENT((#223));
#223 = SURFACE_STYLE_USAGE(.POSITIVE., #224);
#224 = SURFACE_SIDE_STYLE('', (#225));
#225 = SURFACE_STYLE_FILL_AREA(#226);
#226 = FILL_AREA_STYLE('', (#227));
#227 = FILL_AREA_STYLE_COLOUR('', #228);
#228 = COLOUR_RGB('', 0.8, 0.8, 0.8);
#229 = STYLED_ITEM('', (#222), #116);
#230 = TRIMMED_CURVE('cutting part line', #231, (#235), (#236), .T., .CARTESIAN.);
#231 = LINE('', #232, #233);
#232 = CARTESIAN_POINT('', (-6.74891902197836E-31, -3.67394039744206E-15, -60.));
#233 = VECTOR('', #234, 8.);
#234 = DIRECTION('', (8., -1.46957615897682E-15, 0.));
#235 = CARTESIAN_POINT('', (-6.74891902197836E-31, -3.67394039744206E-15, -60.));
#236 = CARTESIAN_POINT('', (8., -5.14351655641888E-15, -60.));
#237 = TRIMMED_CURVE('cutting part line', #238, (#242), (#243), .T., .CARTESIAN.);
#238 = LINE('', #239, #240);
#239 = CARTESIAN_POINT('', (8., -5.14351655641888E-15, -60.));
#240 = VECTOR('', #241, 31.85);
#241 = DIRECTION('', (0., -1.95025002764216E-15, -31.85));
#242 = CARTESIAN_POINT('', (8., -5.14351655641888E-15, -60.));
#243 = CARTESIAN_POINT('', (8., -7.09376658406104E-15, -91.85));
#244 = TRIMMED_CURVE('cutting part line', #245, (#249), (#250), .T., .CARTESIAN.);
#245 = LINE('', #246, #247);
#246 = CARTESIAN_POINT('', (8., -7.09376658406104E-15, -91.85));
#247 = VECTOR('', #248, 0.212132034355969);
#248 = DIRECTION('', (-0.15, 1.83697019872104E-17, -0.150000000000006));
#249 = CARTESIAN_POINT('', (8., -7.09376658406104E-15, -91.85));
#250 = CARTESIAN_POINT('', (7.85, -7.07539688207383E-15, -92.));
#251 = TRIMMED_CURVE('cutting part line', #252, (#256), (#257), .T., .CARTESIAN.);
#252 = LINE('', #253, #254);
#253 = CARTESIAN_POINT('', (7.85, -7.07539688207383E-15, -92.));
#254 = VECTOR('', #255, 7.85);
#255 = DIRECTION('', (-7.85, 1.44202160599601E-15, 0.));
#256 = CARTESIAN_POINT('', (7.85, -7.07539688207383E-15, -92.));
#257 = CARTESIAN_POINT('', (-6.89889500024454E-31, -5.63337527607782E-15, -92.));
#258 = TRIMMED_CURVE('cutting part line', #259, (#263), (#264), .T., .CARTESIAN.);
#259 = LINE('', #260, #261);
#260 = CARTESIAN_POINT('', (-1.03483425003668E-30, -5.63337527607782E-15, -92.));
#261 = VECTOR('', #262, 32.);
#262 = DIRECTION('', (3.59942347838845E-31, 1.95943487863576E-15, 32.));
#263 = CARTESIAN_POINT('', (-1.03483425003668E-30, -5.63337527607782E-15, -92.));
#264 = CARTESIAN_POINT('', (-6.74891902197836E-31, -3.67394039744206E-15, -60.));
#265 = COMPOSITE_CURVE('cutting part line', (#266, #267, #268, #269, #270), .U.);
#266 = COMPOSITE_CURVE_SEGMENT(.CONTINUOUS., .T., #230);
#267 = COMPOSITE_CURVE_SEGMENT(.CONTINUOUS., .T., #237);
#268 = COMPOSITE_CURVE_SEGMENT(.CONTINUOUS., .T., #244);
#269 = COMPOSITE_CURVE_SEGMENT(.CONTINUOUS., .T., #251);
#270 = COMPOSITE_CURVE_SEGMENT(.CONTINUOUS., .T., #258);
#271 = GEOMETRIC_SET('', (#265, #314));
#272 = PRESENTATION_STYLE_ASSIGNMENT((#273));
#273 = CURVE_STYLE('', #275, POSITIVE_LENGTH_MEASURE(1.E-6), #274);
#274 = COLOUR_RGB('', 0., 0., 1.);
#275 = DRAUGHTING_PRE_DEFINED_CURVE_FONT('continuous');
#276 = STYLED_ITEM('', (#272), #265);
#277 = PRESENTATION_STYLE_ASSIGNMENT((#278));
#278 = CURVE_STYLE('', #280, POSITIVE_LENGTH_MEASURE(1.E-6), #279);
#279 = COLOUR_RGB('', 0., 0., 1.);
#280 = DRAUGHTING_PRE_DEFINED_CURVE_FONT('continuous');
#281 = OVER_RIDING_STYLED_ITEM('', (#277), #230, #276);
#282 = PRESENTATION_STYLE_ASSIGNMENT((#283));
#283 = CURVE_STYLE('', #285, POSITIVE_LENGTH_MEASURE(1.E-6), #284);
#284 = COLOUR_RGB('', 0., 0., 1.);
#285 = DRAUGHTING_PRE_DEFINED_CURVE_FONT('continuous');
#286 = OVER_RIDING_STYLED_ITEM('', (#282), #237, #276);
#287 = PRESENTATION_STYLE_ASSIGNMENT((#288));
#288 = CURVE_STYLE('', #290, POSITIVE_LENGTH_MEASURE(1.E-6), #289);
#289 = COLOUR_RGB('', 0., 0., 1.);
#290 = DRAUGHTING_PRE_DEFINED_CURVE_FONT('continuous');
#291 = OVER_RIDING_STYLED_ITEM('', (#287), #244, #276);
#292 = PRESENTATION_STYLE_ASSIGNMENT((#293));
#293 = CURVE_STYLE('', #295, POSITIVE_LENGTH_MEASURE(1.E-6), #294);
#294 = COLOUR_RGB('', 0., 0., 1.);
#295 = DRAUGHTING_PRE_DEFINED_CURVE_FONT('continuous');
#296 = OVER_RIDING_STYLED_ITEM('', (#292), #251, #276);
#297 = PRESENTATION_STYLE_ASSIGNMENT((#298));
#298 = CURVE_STYLE('', #300, POSITIVE_LENGTH_MEASURE(1.E-6), #299);
#299 = COLOUR_RGB('', 0., 0., 1.);
#300 = DRAUGHTING_PRE_DEFINED_CURVE_FONT('continuous');
#301 = OVER_RIDING_STYLED_ITEM('', (#297), #258, #276);
#302 = AXIS2_PLACEMENT_3D('CIP', #303, #304, #305);
#303 = CARTESIAN_POINT('', (3.44944750012227E-31, 5.63337527607782E-15, -92.));
#304 = DIRECTION('', (-3.74939945665465E-33, -6.12323399573677E-17, 1.));
#305 = DIRECTION('', (1., -6.12323399573677E-17, 0.));
#306 = AXIS2_PLACEMENT_3D('MCS', #307, #308, #309);
#307 = CARTESIAN_POINT('', (1.79971173919423E-31, 2.93915231795365E-15, -48.));
#308 = DIRECTION('', (-3.74939945665465E-33, -6.12323399573677E-17, 1.));
#309 = DIRECTION('', (1., -6.12323399573677E-17, 0.));
#310 = AXIS2_PLACEMENT_3D('PCS', #311, #312, #313);
#311 = CARTESIAN_POINT('', (0., 0., 0.));
#312 = DIRECTION('', (0., 0., 1.));
#313 = DIRECTION('', (1., 0., 0.));
#314 = CARTESIAN_POINT('CRP', (8., 0., -92.));
#315 = (
   GEOMETRIC_REPRESENTATION_CONTEXT (3)
   GLOBAL_UNCERTAINTY_ASSIGNED_CONTEXT ((#317))
   GLOBAL_UNIT_ASSIGNED_CONTEXT ((#316, #318, #319))
   REPRESENTATION_CONTEXT ('', '3D')
);
#316 = (
   LENGTH_UNIT ()
   NAMED_UNIT (*)
   SI_UNIT (.MILLI., .METRE.)
);
#317 = UNCERTAINTY_MEASURE_WITH_UNIT(LENGTH_MEASURE(1.E-6), #316, 'DISTANCE_ACCURACY_VALUE', '');
#318 = (
   NAMED_UNIT (*)
   SI_UNIT ($, .STERADIAN.)
   SOLID_ANGLE_UNIT ()
);
#319 = (
   NAMED_UNIT (*)
   PLANE_ANGLE_UNIT ()
   SI_UNIT ($, .RADIAN.)
);
#320 = SHAPE_REPRESENTATION('', (), #315);
#321 = PRODUCT_DEFINITION_SHAPE('', '', #322);
#322 = PRODUCT_DEFINITION('', '', #325, #329);
#323 = APPLICATION_CONTEXT('configuration controlled 3D designs of mechanical parts and assemblies');
#324 = APPLICATION_PROTOCOL_DEFINITION('International Standard', 'automotive_design', 2002, #323);
#325 = PRODUCT_DEFINITION_FORMATION_WITH_SPECIFIED_SOURCE('', '', #326, .NOT_KNOWN.);
#326 = PRODUCT('EmptyName', 'EmptyName', '', (#327));
#327 = PRODUCT_CONTEXT('', #323, 'mechanical');
#328 = PRODUCT_RELATED_PRODUCT_CATEGORY('detail', '', (#326));
#329 = PRODUCT_DEFINITION_CONTEXT('part definition', #323, 'design');
#330 = SHAPE_DEFINITION_REPRESENTATION(#321, #320);
#331 = CONSTRUCTIVE_GEOMETRY_REPRESENTATION('supplemental geometry', (#302, #306, #310), #315);
#332 = CONSTRUCTIVE_GEOMETRY_REPRESENTATION_RELATIONSHIP('', '', #320, #331);
#333 = SHAPE_REPRESENTATION_RELATIONSHIP('', '', #320, #334);
#334 = SHAPE_REPRESENTATION('', (#271), #315);
#335 = SHAPE_REPRESENTATION_RELATIONSHIP('', '', #320, #336);
#336 = ADVANCED_BREP_SHAPE_REPRESENTATION('', (#1, #116), #315);
ENDSEC;
END-ISO-10303-21;
