ISO-10303-21;
HEADER;
FILE_DESCRIPTION(('STEP'), '1');
FILE_NAME('C:\\Users\\ds2002\\OneDrive - Sandvik\\HomeShare\\Documents\\Batchrepair\\CorSRT2\\NEW_MILSQ_SLD\\Output\\MOD000000000000000020084627500000.stp', '2019-01-02T12:11:19', (''), (''), 'Express v3.0.0.0', 'Express Tool', 'Unknown');
FILE_SCHEMA(('AUTOMOTIVE_DESIGN'));
ENDSEC;

DATA;
#1 = MANIFOLD_SOLID_BREP('NOCUT', #2);
#2 = CLOSED_SHELL('', (#3, #50, #59, #98));
#3 = ADVANCED_FACE('', (#4), #31, .T.);
#4 = FACE_OUTER_BOUND('', #5, .T.);
#5 = EDGE_LOOP('', (#6, #16, #23, #24));
#6 = ORIENTED_EDGE('', *, *, #7, .T.);
#7 = EDGE_CURVE('', #8, #10, #12, .T.);
#8 = VERTEX_POINT('', #9);
#9 = CARTESIAN_POINT('', (-7., 4.71489017671731E-16, -0.700000000000003));
#10 = VERTEX_POINT('', #11);
#11 = CARTESIAN_POINT('', (-6.3, 3.85763741731416E-16, 0.));
#12 = LINE('', #13, #14);
#13 = CARTESIAN_POINT('', (-7., 4.71489017671731E-16, -0.700000000000003));
#14 = VECTOR('', #15, 0.989949493661169);
#15 = DIRECTION('', (0.7, -8.57252759403149E-17, 0.700000000000003));
#16 = ORIENTED_EDGE('', *, *, #17, .T.);
#17 = EDGE_CURVE('', #10, #10, #18, .T.);
#18 = CIRCLE('', #19, 6.3);
#19 = AXIS2_PLACEMENT_3D('', #20, #21, #22);
#20 = CARTESIAN_POINT('', (6.10622663543836E-16, -1.11022302462516E-16, -2.46519032881566E-32));
#21 = DIRECTION('', (9.15471215238416E-34, 6.12323399573676E-17, -1.));
#22 = DIRECTION('', (-1., -1.6607443217964E-16, -1.10845973046889E-32));
#23 = ORIENTED_EDGE('', *, *, #7, .F.);
#24 = ORIENTED_EDGE('', *, *, #25, .F.);
#25 = EDGE_CURVE('', #8, #8, #26, .T.);
#26 = CIRCLE('', #27, 7.);
#27 = AXIS2_PLACEMENT_3D('', #28, #29, #30);
#28 = CARTESIAN_POINT('', (1.55431223447522E-15, 2.22044604925031E-16, -0.700000000000003));
#29 = DIRECTION('', (3.1720657846433E-17, 4.76511226738224E-18, -1.));
#30 = DIRECTION('', (-1., -2.09294443722799E-16, -3.1720657846433E-17));
#31 = (
   BOUNDED_SURFACE ()
   B_SPLINE_SURFACE (1, 2, ((#32, #33, #34, #35, #36, #37, #38, #39, #40), (#41, #42, #43, #44, #45, #46, #47, #48, #49)), .UNSPECIFIED., .F., .T., .U.)
   B_SPLINE_SURFACE_WITH_KNOTS ((2, 2), (3, 2, 2, 2, 3), (0., 1.), (0., 0.25, 0.5, 0.75, 1.), .UNSPECIFIED.)
   GEOMETRIC_REPRESENTATION_ITEM ()
   RATIONAL_B_SPLINE_SURFACE (((1., 0.707106781186548, 1., 0.707106781186548, 1., 0.707106781186548, 1., 0.707106781186548, 1.), (1., 0.707106781186548, 1., 0.707106781186548, 1., 0.707106781186548, 1., 0.707106781186548, 1.)))
   REPRESENTATION_ITEM ('')
   SURFACE ()
);
#32 = CARTESIAN_POINT('', (-7., -2.1865656338599E-15, -0.700000000000003));
#33 = CARTESIAN_POINT('', (-7., 7., -0.700000000000033));
#34 = CARTESIAN_POINT('', (3.1302121388737E-15, 6.99999999999999, -0.700000000000033));
#35 = CARTESIAN_POINT('', (7., 6.99999999999999, -0.700000000000033));
#36 = CARTESIAN_POINT('', (7., -9.83476869238876E-15, -0.700000000000003));
#37 = CARTESIAN_POINT('', (7., -7.00000000000001, -0.699999999999973));
#38 = CARTESIAN_POINT('', (-3.66073816025201E-15, -7.00000000000001, -0.699999999999973));
#39 = CARTESIAN_POINT('', (-7., -7., -0.699999999999973));
#40 = CARTESIAN_POINT('', (-7., -2.1865656338599E-15, -0.700000000000003));
#41 = CARTESIAN_POINT('', (-6.3, 3.85763741731417E-16, 4.37905770101505E-47));
#42 = CARTESIAN_POINT('', (-6.3, 6.3, -2.69784194983912E-14));
#43 = CARTESIAN_POINT('', (2.74780198594726E-15, 6.3, -2.69784194983912E-14));
#44 = CARTESIAN_POINT('', (6.3, 6.29999999999999, -2.69784194983912E-14));
#45 = CARTESIAN_POINT('', (6.3, -6.49761901094455E-15, -3.74763776766275E-30));
#46 = CARTESIAN_POINT('', (6.3, -6.30000000000001, 2.69784194983912E-14));
#47 = CARTESIAN_POINT('', (-3.36405328326588E-15, -6.3, 2.69784194983912E-14));
#48 = CARTESIAN_POINT('', (-6.3, -6.3, 2.69784194983912E-14));
#49 = CARTESIAN_POINT('', (-6.3, 3.85763741731417E-16, 4.37905770101505E-47));
#50 = ADVANCED_FACE('', (#51), #54, .T.);
#51 = FACE_OUTER_BOUND('', #52, .T.);
#52 = EDGE_LOOP('', (#53));
#53 = ORIENTED_EDGE('', *, *, #17, .F.);
#54 = B_SPLINE_SURFACE_WITH_KNOTS('', 1, 1, ((#55, #56), (#57, #58)), .UNSPECIFIED., .F., .F., .U., (2, 2), (2, 2), (3.50049998724555, 16.1004999872455), (3.50049998724555, 16.1004999872455), .UNSPECIFIED.);
#55 = CARTESIAN_POINT('', (6.3, -6.3, -7.49119109933243E-15));
#56 = CARTESIAN_POINT('', (-6.3, -6.3, -7.49119109933243E-15));
#57 = CARTESIAN_POINT('', (6.3, 6.3, 7.49119109933244E-15));
#58 = CARTESIAN_POINT('', (-6.3, 6.3, 7.49119109933244E-15));
#59 = ADVANCED_FACE('', (#60), #79, .T.);
#60 = FACE_OUTER_BOUND('', #61, .T.);
#61 = EDGE_LOOP('', (#62, #71, #77, #78));
#62 = ORIENTED_EDGE('', *, *, #63, .F.);
#63 = EDGE_CURVE('', #64, #64, #66, .T.);
#64 = VERTEX_POINT('', #65);
#65 = CARTESIAN_POINT('', (-7., 5.20474889637625E-15, -78.));
#66 = CIRCLE('', #67, 7.);
#67 = AXIS2_PLACEMENT_3D('', #68, #69, #70);
#68 = CARTESIAN_POINT('', (-1.66533453693773E-16, -3.5527136788005E-15, -78.));
#69 = DIRECTION('', (0., 0., -1.));
#70 = DIRECTION('', (-1., 1.25106608216811E-15, 0.));
#71 = ORIENTED_EDGE('', *, *, #72, .F.);
#72 = EDGE_CURVE('', #8, #64, #73, .T.);
#73 = LINE('', #74, #75);
#74 = CARTESIAN_POINT('', (-7., 4.71489017671731E-16, -0.700000000000003));
#75 = VECTOR('', #76, 77.3);
#76 = DIRECTION('', (0., 4.73325987870452E-15, -77.3));
#77 = ORIENTED_EDGE('', *, *, #25, .T.);
#78 = ORIENTED_EDGE('', *, *, #72, .T.);
#79 = (
   BOUNDED_SURFACE ()
   B_SPLINE_SURFACE (1, 2, ((#80, #81, #82, #83, #84, #85, #86, #87, #88), (#89, #90, #91, #92, #93, #94, #95, #96, #97)), .UNSPECIFIED., .F., .T., .U.)
   B_SPLINE_SURFACE_WITH_KNOTS ((2, 2), (3, 2, 2, 2, 3), (-0.744920993227991, 1.), (0., 0.25, 0.5, 0.75, 1.), .UNSPECIFIED.)
   GEOMETRIC_REPRESENTATION_ITEM ()
   RATIONAL_B_SPLINE_SURFACE (((1., 0.707106781186548, 1., 0.707106781186548, 1., 0.707106781186548, 1., 0.707106781186548, 1.), (1., 0.707106781186548, 1., 0.707106781186548, 1., 0.707106781186548, 1., 0.707106781186548, 1.)))
   REPRESENTATION_ITEM ('')
   SURFACE ()
);
#80 = CARTESIAN_POINT('', (-7., 6.24464874572254E-15, -78.));
#81 = CARTESIAN_POINT('', (-6.99999999999999, 7.00000000000001, -78.));
#82 = CARTESIAN_POINT('', (5.74227183652802E-15, 7., -78.));
#83 = CARTESIAN_POINT('', (7., 7., -78.));
#84 = CARTESIAN_POINT('', (7., 8.29852951581479E-16, -78.));
#85 = CARTESIAN_POINT('', (7., -7., -78.));
#86 = CARTESIAN_POINT('', (1.1847288017901E-15, -7., -78.));
#87 = CARTESIAN_POINT('', (-7., -6.99999999999999, -78.));
#88 = CARTESIAN_POINT('', (-7., 6.24464874572254E-15, -78.));
#89 = CARTESIAN_POINT('', (-7., 4.71489017671731E-16, -0.700000000000003));
#90 = CARTESIAN_POINT('', (-7., 7., -0.700000000000002));
#91 = CARTESIAN_POINT('', (3.29026498499874E-15, 7., -0.700000000000002));
#92 = CARTESIAN_POINT('', (7., 6.99999999999999, -0.700000000000002));
#93 = CARTESIAN_POINT('', (7., -4.94330677646933E-15, -0.700000000000003));
#94 = CARTESIAN_POINT('', (7., -7.00000000000001, -0.700000000000003));
#95 = CARTESIAN_POINT('', (-1.26727804973918E-15, -7., -0.700000000000003));
#96 = CARTESIAN_POINT('', (-7., -7., -0.700000000000004));
#97 = CARTESIAN_POINT('', (-7., 4.71489017671731E-16, -0.700000000000003));
#98 = ADVANCED_FACE('', (#99), #102, .T.);
#99 = FACE_OUTER_BOUND('', #100, .T.);
#100 = EDGE_LOOP('', (#101));
#101 = ORIENTED_EDGE('', *, *, #63, .T.);
#102 = B_SPLINE_SURFACE_WITH_KNOTS('', 1, 1, ((#103, #104), (#105, #106)), .UNSPECIFIED., .F., .F., .U., (2, 2), (2, 2), (102.367847995663, 116.367847995663), (95.367846264894, 109.367846264894), .UNSPECIFIED.);
#103 = CARTESIAN_POINT('', (-7., 7.00000000000001, -78.));
#104 = CARTESIAN_POINT('', (-7., -7., -78.));
#105 = CARTESIAN_POINT('', (7., 7.00000000000001, -78.));
#106 = CARTESIAN_POINT('', (7., -7., -78.));
#107 = DRAUGHTING_MODEL('', (#115, #229, #276, #281, #286, #291, #296, #301), #315);
#108 = PRESENTATION_STYLE_ASSIGNMENT((#109));
#109 = SURFACE_STYLE_USAGE(.POSITIVE., #110);
#110 = SURFACE_SIDE_STYLE('', (#111));
#111 = SURFACE_STYLE_FILL_AREA(#112);
#112 = FILL_AREA_STYLE('', (#113));
#113 = FILL_AREA_STYLE_COLOUR('', #114);
#114 = COLOUR_RGB('', 0.50196078431373, 0.50196078431373, 0.50196078431373);
#115 = STYLED_ITEM('', (#108), #1);
#116 = MANIFOLD_SOLID_BREP('CUT', #117);
#117 = CLOSED_SHELL('', (#118, #135, #174, #213));
#118 = ADVANCED_FACE('', (#119), #130, .T.);
#119 = FACE_OUTER_BOUND('', #120, .T.);
#120 = EDGE_LOOP('', (#121));
#121 = ORIENTED_EDGE('', *, *, #122, .F.);
#122 = EDGE_CURVE('', #123, #123, #125, .T.);
#123 = VERTEX_POINT('', #124);
#124 = CARTESIAN_POINT('', (-7., 5.20474889637625E-15, -78.));
#125 = CIRCLE('', #126, 7.);
#126 = AXIS2_PLACEMENT_3D('', #127, #128, #129);
#127 = CARTESIAN_POINT('', (-1.66533453693773E-16, -3.5527136788005E-15, -78.));
#128 = DIRECTION('', (0., 0., -1.));
#129 = DIRECTION('', (-1., 1.25106608216811E-15, 0.));
#130 = B_SPLINE_SURFACE_WITH_KNOTS('', 1, 1, ((#131, #132), (#133, #134)), .UNSPECIFIED., .F., .F., .U., (2, 2), (2, 2), (95.367846264894, 109.367846264894), (102.367847995663, 116.367847995663), .UNSPECIFIED.);
#131 = CARTESIAN_POINT('', (-7., 7.00000000000001, -78.));
#132 = CARTESIAN_POINT('', (7., 7.00000000000001, -78.));
#133 = CARTESIAN_POINT('', (-7., -7., -78.));
#134 = CARTESIAN_POINT('', (7., -7., -78.));
#135 = ADVANCED_FACE('', (#136), #155, .T.);
#136 = FACE_OUTER_BOUND('', #137, .T.);
#137 = EDGE_LOOP('', (#138, #139, #147, #154));
#138 = ORIENTED_EDGE('', *, *, #122, .T.);
#139 = ORIENTED_EDGE('', *, *, #140, .T.);
#140 = EDGE_CURVE('', #123, #141, #143, .T.);
#141 = VERTEX_POINT('', #142);
#142 = CARTESIAN_POINT('', (-7., 6.78760488427421E-15, -103.85));
#143 = LINE('', #144, #145);
#144 = CARTESIAN_POINT('', (-7., 5.20474889637625E-15, -78.));
#145 = VECTOR('', #146, 25.85);
#146 = DIRECTION('', (0., 1.58285598789796E-15, -25.85));
#147 = ORIENTED_EDGE('', *, *, #148, .F.);
#148 = EDGE_CURVE('', #141, #141, #149, .T.);
#149 = CIRCLE('', #150, 7.);
#150 = AXIS2_PLACEMENT_3D('', #151, #152, #153);
#151 = CARTESIAN_POINT('', (-6.38378239159465E-16, 8.88178419700125E-15, -103.85));
#152 = DIRECTION('', (0., 0., -1.));
#153 = DIRECTION('', (-1., -2.9916847324672E-16, 0.));
#154 = ORIENTED_EDGE('', *, *, #140, .F.);
#155 = (
   BOUNDED_SURFACE ()
   B_SPLINE_SURFACE (1, 2, ((#156, #157, #158, #159, #160, #161, #162, #163, #164), (#165, #166, #167, #168, #169, #170, #171, #172, #173)), .UNSPECIFIED., .F., .T., .U.)
   B_SPLINE_SURFACE_WITH_KNOTS ((2, 2), (3, 2, 2, 2, 3), (-1.32844243792325, -0.744920993227991), (0., 0.25, 0.5, 0.75, 1.), .UNSPECIFIED.)
   GEOMETRIC_REPRESENTATION_ITEM ()
   RATIONAL_B_SPLINE_SURFACE (((1., 0.707106781186548, 1., 0.707106781186548, 1., 0.707106781186548, 1., 0.707106781186548, 1.), (1., 0.707106781186548, 1., 0.707106781186548, 1., 0.707106781186548, 1., 0.707106781186548, 1.)))
   REPRESENTATION_ITEM ('')
   SURFACE ()
);
#156 = CARTESIAN_POINT('', (-6.99999999999994, 3.42839205697598E-15, -103.85));
#157 = CARTESIAN_POINT('', (-6.99999999999994, 7., -103.85));
#158 = CARTESIAN_POINT('', (5.65053783161915E-14, 7., -103.85));
#159 = CARTESIAN_POINT('', (7.00000000000006, 7., -103.85));
#160 = CARTESIAN_POINT('', (7.00000000000006, 9.33959615275083E-17, -103.85));
#161 = CARTESIAN_POINT('', (7.00000000000006, -7., -103.85));
#162 = CARTESIAN_POINT('', (5.40276349801462E-14, -7., -103.85));
#163 = CARTESIAN_POINT('', (-6.99999999999995, -7., -103.85));
#164 = CARTESIAN_POINT('', (-6.99999999999994, 3.42839205697598E-15, -103.85));
#165 = CARTESIAN_POINT('', (-7., 5.20474889637625E-15, -78.));
#166 = CARTESIAN_POINT('', (-7., 7.00000000000001, -78.));
#167 = CARTESIAN_POINT('', (4.0267219750527E-15, 7., -78.));
#168 = CARTESIAN_POINT('', (7., 7., -78.));
#169 = CARTESIAN_POINT('', (7., 1.86975280092777E-15, -78.));
#170 = CARTESIAN_POINT('', (7., -7., -78.));
#171 = CARTESIAN_POINT('', (1.54897863900737E-15, -7., -78.));
#172 = CARTESIAN_POINT('', (-7., -7., -78.));
#173 = CARTESIAN_POINT('', (-7., 5.20474889637625E-15, -78.));
#174 = ADVANCED_FACE('', (#175), #194, .T.);
#175 = FACE_OUTER_BOUND('', #176, .T.);
#176 = EDGE_LOOP('', (#177, #185, #186, #187));
#177 = ORIENTED_EDGE('', *, *, #178, .F.);
#178 = EDGE_CURVE('', #141, #179, #181, .T.);
#179 = VERTEX_POINT('', #180);
#180 = CARTESIAN_POINT('', (-6.85, 6.7876048842742E-15, -104.));
#181 = LINE('', #182, #183);
#182 = CARTESIAN_POINT('', (-7., 6.78760488427421E-15, -103.85));
#183 = VECTOR('', #184, 0.212132034355969);
#184 = DIRECTION('', (0.15, -1.02551917678732E-29, -0.150000000000006));
#185 = ORIENTED_EDGE('', *, *, #148, .T.);
#186 = ORIENTED_EDGE('', *, *, #178, .T.);
#187 = ORIENTED_EDGE('', *, *, #188, .F.);
#188 = EDGE_CURVE('', #179, #179, #189, .T.);
#189 = CIRCLE('', #190, 6.85);
#190 = AXIS2_PLACEMENT_3D('', #191, #192, #193);
#191 = CARTESIAN_POINT('', (4.71844785465692E-16, 7.7715611723761E-15, -104.));
#192 = DIRECTION('', (0., 0., -1.));
#193 = DIRECTION('', (-1., -1.43643253737503E-16, 0.));
#194 = (
   BOUNDED_SURFACE ()
   B_SPLINE_SURFACE (2, 1, ((#195, #196), (#197, #198), (#199, #200), (#201, #202), (#203, #204), (#205, #206), (#207, #208), (#209, #210), (#211, #212)), .UNSPECIFIED., .T., .F., .U.)
   B_SPLINE_SURFACE_WITH_KNOTS ((3, 2, 2, 2, 3), (2, 2), (0., 0.25, 0.5, 0.75, 1.), (0., 1.), .UNSPECIFIED.)
   GEOMETRIC_REPRESENTATION_ITEM ()
   RATIONAL_B_SPLINE_SURFACE (((1., 1.), (0.707106781186548, 0.707106781186548), (1., 1.), (0.707106781186548, 0.707106781186548), (1., 1.), (0.707106781186548, 0.707106781186548), (1., 1.), (0.707106781186548, 0.707106781186548), (1., 1.)))
   REPRESENTATION_ITEM ('')
   SURFACE ()
);
#195 = CARTESIAN_POINT('', (-7., 6.78760488427421E-15, -103.85));
#196 = CARTESIAN_POINT('', (-6.85, 1.13241253063161E-14, -104.));
#197 = CARTESIAN_POINT('', (-6.99999999999999, 7.00000000000001, -103.85));
#198 = CARTESIAN_POINT('', (-6.84999999999999, 6.85000000000001, -104.));
#199 = CARTESIAN_POINT('', (6.91409001688521E-15, 7., -103.85));
#200 = CARTESIAN_POINT('', (6.79685858649509E-15, 6.85, -104.));
#201 = CARTESIAN_POINT('', (7.00000000000001, 7., -103.85));
#202 = CARTESIAN_POINT('', (6.85000000000001, 6.85, -104.));
#203 = CARTESIAN_POINT('', (7., -4.15399528547081E-15, -103.85));
#204 = CARTESIAN_POINT('', (6.85, 6.16987997351366E-16, -104.));
#205 = CARTESIAN_POINT('', (7., -7., -103.85));
#206 = CARTESIAN_POINT('', (6.85, -6.85, -104.));
#207 = CARTESIAN_POINT('', (-3.17025739345666E-15, -7., -103.85));
#208 = CARTESIAN_POINT('', (-3.07139566505374E-15, -6.84999999999999, -104.));
#209 = CARTESIAN_POINT('', (-7., -6.99999999999999, -103.85));
#210 = CARTESIAN_POINT('', (-6.85, -6.84999999999999, -104.));
#211 = CARTESIAN_POINT('', (-7., 6.78760488427421E-15, -103.85));
#212 = CARTESIAN_POINT('', (-6.85, 1.13241253063161E-14, -104.));
#213 = ADVANCED_FACE('', (#214), #217, .T.);
#214 = FACE_OUTER_BOUND('', #215, .T.);
#215 = EDGE_LOOP('', (#216));
#216 = ORIENTED_EDGE('', *, *, #188, .T.);
#217 = B_SPLINE_SURFACE_WITH_KNOTS('', 1, 1, ((#218, #219), (#220, #221)), .UNSPECIFIED., .F., .F., .U., (2, 2), (2, 2), (3.8060991924813, 17.5060991924813), (3.8060991924813, 17.5060991924813), .UNSPECIFIED.);
#218 = CARTESIAN_POINT('', (6.85, -6.85, -104.));
#219 = CARTESIAN_POINT('', (6.85, 6.85000000000001, -104.));
#220 = CARTESIAN_POINT('', (-6.85, -6.85, -104.));
#221 = CARTESIAN_POINT('', (-6.85, 6.85000000000002, -104.));
#222 = PRESENTATION_STYLE_ASSIGNMENT((#223));
#223 = SURFACE_STYLE_USAGE(.POSITIVE., #224);
#224 = SURFACE_SIDE_STYLE('', (#225));
#225 = SURFACE_STYLE_FILL_AREA(#226);
#226 = FILL_AREA_STYLE('', (#227));
#227 = FILL_AREA_STYLE_COLOUR('', #228);
#228 = COLOUR_RGB('', 0.8, 0.8, 0.8);
#229 = STYLED_ITEM('', (#222), #116);
#230 = TRIMMED_CURVE('cutting part line', #231, (#235), (#236), .T., .CARTESIAN.);
#231 = LINE('', #232, #233);
#232 = CARTESIAN_POINT('', (-8.77359472857187E-31, -4.77612251667468E-15, -78.));
#233 = VECTOR('', #234, 7.);
#234 = DIRECTION('', (7., -1.28587913910472E-15, 0.));
#235 = CARTESIAN_POINT('', (-8.77359472857187E-31, -4.77612251667468E-15, -78.));
#236 = CARTESIAN_POINT('', (7., -6.0620016557794E-15, -78.));
#237 = TRIMMED_CURVE('cutting part line', #238, (#242), (#243), .T., .CARTESIAN.);
#238 = LINE('', #239, #240);
#239 = CARTESIAN_POINT('', (7., -6.0620016557794E-15, -78.));
#240 = VECTOR('', #241, 25.85);
#241 = DIRECTION('', (0., -1.58285598789796E-15, -25.85));
#242 = CARTESIAN_POINT('', (7., -6.0620016557794E-15, -78.));
#243 = CARTESIAN_POINT('', (7., -7.64485764367736E-15, -103.85));
#244 = TRIMMED_CURVE('cutting part line', #245, (#249), (#250), .T., .CARTESIAN.);
#245 = LINE('', #246, #247);
#246 = CARTESIAN_POINT('', (7., -7.64485764367736E-15, -103.85));
#247 = VECTOR('', #248, 0.212132034355969);
#248 = DIRECTION('', (-0.15, 1.83697019872207E-17, -0.150000000000006));
#249 = CARTESIAN_POINT('', (7., -7.64485764367736E-15, -103.85));
#250 = CARTESIAN_POINT('', (6.85, -7.62648794169014E-15, -104.));
#251 = TRIMMED_CURVE('cutting part line', #252, (#256), (#257), .T., .CARTESIAN.);
#252 = LINE('', #253, #254);
#253 = CARTESIAN_POINT('', (6.85, -7.62648794169014E-15, -104.));
#254 = VECTOR('', #255, 6.85);
#255 = DIRECTION('', (-6.85, 1.2583245861239E-15, 0.));
#256 = CARTESIAN_POINT('', (6.85, -7.62648794169014E-15, -104.));
#257 = CARTESIAN_POINT('', (-7.79875086984166E-31, -6.36816335556624E-15, -104.));
#258 = TRIMMED_CURVE('cutting part line', #259, (#263), (#264), .T., .CARTESIAN.);
#259 = LINE('', #260, #261);
#260 = CARTESIAN_POINT('', (-1.16981263047625E-30, -6.36816335556624E-15, -104.));
#261 = VECTOR('', #262, 26.);
#262 = DIRECTION('', (2.92453157619063E-31, 1.59204083889156E-15, 26.));
#263 = CARTESIAN_POINT('', (-1.16981263047625E-30, -6.36816335556624E-15, -104.));
#264 = CARTESIAN_POINT('', (-8.77359472857187E-31, -4.77612251667468E-15, -78.));
#265 = COMPOSITE_CURVE('cutting part line', (#266, #267, #268, #269, #270), .U.);
#266 = COMPOSITE_CURVE_SEGMENT(.CONTINUOUS., .T., #230);
#267 = COMPOSITE_CURVE_SEGMENT(.CONTINUOUS., .T., #237);
#268 = COMPOSITE_CURVE_SEGMENT(.CONTINUOUS., .T., #244);
#269 = COMPOSITE_CURVE_SEGMENT(.CONTINUOUS., .T., #251);
#270 = COMPOSITE_CURVE_SEGMENT(.CONTINUOUS., .T., #258);
#271 = GEOMETRIC_SET('', (#265, #314));
#272 = PRESENTATION_STYLE_ASSIGNMENT((#273));
#273 = CURVE_STYLE('', #275, POSITIVE_LENGTH_MEASURE(1.E-6), #274);
#274 = COLOUR_RGB('', 0., 0., 1.);
#275 = DRAUGHTING_PRE_DEFINED_CURVE_FONT('continuous');
#276 = STYLED_ITEM('', (#272), #265);
#277 = PRESENTATION_STYLE_ASSIGNMENT((#278));
#278 = CURVE_STYLE('', #280, POSITIVE_LENGTH_MEASURE(1.E-6), #279);
#279 = COLOUR_RGB('', 0., 0., 1.);
#280 = DRAUGHTING_PRE_DEFINED_CURVE_FONT('continuous');
#281 = OVER_RIDING_STYLED_ITEM('', (#277), #230, #276);
#282 = PRESENTATION_STYLE_ASSIGNMENT((#283));
#283 = CURVE_STYLE('', #285, POSITIVE_LENGTH_MEASURE(1.E-6), #284);
#284 = COLOUR_RGB('', 0., 0., 1.);
#285 = DRAUGHTING_PRE_DEFINED_CURVE_FONT('continuous');
#286 = OVER_RIDING_STYLED_ITEM('', (#282), #237, #276);
#287 = PRESENTATION_STYLE_ASSIGNMENT((#288));
#288 = CURVE_STYLE('', #290, POSITIVE_LENGTH_MEASURE(1.E-6), #289);
#289 = COLOUR_RGB('', 0., 0., 1.);
#290 = DRAUGHTING_PRE_DEFINED_CURVE_FONT('continuous');
#291 = OVER_RIDING_STYLED_ITEM('', (#287), #244, #276);
#292 = PRESENTATION_STYLE_ASSIGNMENT((#293));
#293 = CURVE_STYLE('', #295, POSITIVE_LENGTH_MEASURE(1.E-6), #294);
#294 = COLOUR_RGB('', 0., 0., 1.);
#295 = DRAUGHTING_PRE_DEFINED_CURVE_FONT('continuous');
#296 = OVER_RIDING_STYLED_ITEM('', (#292), #251, #276);
#297 = PRESENTATION_STYLE_ASSIGNMENT((#298));
#298 = CURVE_STYLE('', #300, POSITIVE_LENGTH_MEASURE(1.E-6), #299);
#299 = COLOUR_RGB('', 0., 0., 1.);
#300 = DRAUGHTING_PRE_DEFINED_CURVE_FONT('continuous');
#301 = OVER_RIDING_STYLED_ITEM('', (#297), #258, #276);
#302 = AXIS2_PLACEMENT_3D('CIP', #303, #304, #305);
#303 = CARTESIAN_POINT('', (3.89937543492083E-31, 6.36816335556624E-15, -104.));
#304 = DIRECTION('', (-3.74939945665465E-33, -6.12323399573677E-17, 1.));
#305 = DIRECTION('', (1., -6.12323399573677E-17, 0.));
#306 = AXIS2_PLACEMENT_3D('MCS', #307, #308, #309);
#307 = CARTESIAN_POINT('', (1.68722975549459E-31, 2.75545529808154E-15, -45.));
#308 = DIRECTION('', (-3.74939945665465E-33, -6.12323399573677E-17, 1.));
#309 = DIRECTION('', (1., -6.12323399573677E-17, 0.));
#310 = AXIS2_PLACEMENT_3D('PCS', #311, #312, #313);
#311 = CARTESIAN_POINT('', (0., 0., 0.));
#312 = DIRECTION('', (0., 0., 1.));
#313 = DIRECTION('', (1., 0., 0.));
#314 = CARTESIAN_POINT('CRP', (7., 0., -104.));
#315 = (
   GEOMETRIC_REPRESENTATION_CONTEXT (3)
   GLOBAL_UNCERTAINTY_ASSIGNED_CONTEXT ((#317))
   GLOBAL_UNIT_ASSIGNED_CONTEXT ((#316, #318, #319))
   REPRESENTATION_CONTEXT ('', '3D')
);
#316 = (
   LENGTH_UNIT ()
   NAMED_UNIT (*)
   SI_UNIT (.MILLI., .METRE.)
);
#317 = UNCERTAINTY_MEASURE_WITH_UNIT(LENGTH_MEASURE(1.E-6), #316, 'DISTANCE_ACCURACY_VALUE', '');
#318 = (
   NAMED_UNIT (*)
   SI_UNIT ($, .STERADIAN.)
   SOLID_ANGLE_UNIT ()
);
#319 = (
   NAMED_UNIT (*)
   PLANE_ANGLE_UNIT ()
   SI_UNIT ($, .RADIAN.)
);
#320 = SHAPE_REPRESENTATION('', (), #315);
#321 = PRODUCT_DEFINITION_SHAPE('', '', #322);
#322 = PRODUCT_DEFINITION('', '', #325, #329);
#323 = APPLICATION_CONTEXT('configuration controlled 3D designs of mechanical parts and assemblies');
#324 = APPLICATION_PROTOCOL_DEFINITION('International Standard', 'automotive_design', 2002, #323);
#325 = PRODUCT_DEFINITION_FORMATION_WITH_SPECIFIED_SOURCE('', '', #326, .NOT_KNOWN.);
#326 = PRODUCT('EmptyName', 'EmptyName', '', (#327));
#327 = PRODUCT_CONTEXT('', #323, 'mechanical');
#328 = PRODUCT_RELATED_PRODUCT_CATEGORY('detail', '', (#326));
#329 = PRODUCT_DEFINITION_CONTEXT('part definition', #323, 'design');
#330 = SHAPE_DEFINITION_REPRESENTATION(#321, #320);
#331 = CONSTRUCTIVE_GEOMETRY_REPRESENTATION('supplemental geometry', (#302, #306, #310), #315);
#332 = CONSTRUCTIVE_GEOMETRY_REPRESENTATION_RELATIONSHIP('', '', #320, #331);
#333 = SHAPE_REPRESENTATION_RELATIONSHIP('', '', #320, #334);
#334 = SHAPE_REPRESENTATION('', (#271), #315);
#335 = SHAPE_REPRESENTATION_RELATIONSHIP('', '', #320, #336);
#336 = ADVANCED_BREP_SHAPE_REPRESENTATION('', (#1, #116), #315);
ENDSEC;
END-ISO-10303-21;
