ISO-10303-21;
HEADER;
FILE_DESCRIPTION(('STEP'), '1');
FILE_NAME('C:\\Users\\ds2002\\OneDrive - Sandvik\\HomeShare\\Documents\\Batchrepair\\CorSRT2\\NEW_MILSQ_SLD\\Output\\MOD000000000000000020084627400000.stp', '2019-01-02T12:11:15', (''), (''), 'Express v3.0.0.0', 'Express Tool', 'Unknown');
FILE_SCHEMA(('AUTOMOTIVE_DESIGN'));
ENDSEC;

DATA;
#1 = MANIFOLD_SOLID_BREP('NOCUT', #2);
#2 = CLOSED_SHELL('', (#3, #20, #37, #85));
#3 = ADVANCED_FACE('', (#4), #15, .T.);
#4 = FACE_OUTER_BOUND('', #5, .T.);
#5 = EDGE_LOOP('', (#6));
#6 = ORIENTED_EDGE('', *, *, #7, .F.);
#7 = EDGE_CURVE('', #8, #8, #10, .T.);
#8 = VERTEX_POINT('', #9);
#9 = CARTESIAN_POINT('', (-7.00000000000024, 0., -78.));
#10 = CIRCLE('', #11, 7.00000000000024);
#11 = AXIS2_PLACEMENT_3D('', #12, #13, #14);
#12 = CARTESIAN_POINT('', (-8.88178419700125E-16, -1.99840144432528E-15, -78.));
#13 = DIRECTION('', (1.97259267890644E-30, 6.9095970639711E-15, 1.));
#14 = DIRECTION('', (-1., 2.85485920617888E-16, 0.));
#15 = B_SPLINE_SURFACE_WITH_KNOTS('', 1, 1, ((#16, #17), (#18, #19)), .UNSPECIFIED., .F., .F., .U., (2, 2), (2, 2), (-7.00100000000024, 7.00100000000024), (-7.00100000000024, 7.00100000000024), .UNSPECIFIED.);
#16 = CARTESIAN_POINT('', (7.00100000000024, -7.00100000000024, -78.));
#17 = CARTESIAN_POINT('', (7.00100000000024, 7.00100000000024, -78.));
#18 = CARTESIAN_POINT('', (-7.00100000000023, -7.00100000000024, -78.));
#19 = CARTESIAN_POINT('', (-7.00100000000023, 7.00100000000024, -78.));
#20 = ADVANCED_FACE('', (#21), #32, .T.);
#21 = FACE_OUTER_BOUND('', #22, .T.);
#22 = EDGE_LOOP('', (#23));
#23 = ORIENTED_EDGE('', *, *, #24, .T.);
#24 = EDGE_CURVE('', #25, #25, #27, .T.);
#25 = VERTEX_POINT('', #26);
#26 = CARTESIAN_POINT('', (6.20000000000024, 0., 0.));
#27 = CIRCLE('', #28, 6.20000000000024);
#28 = AXIS2_PLACEMENT_3D('', #29, #30, #31);
#29 = CARTESIAN_POINT('', (1.99840144432528E-15, 1.4432899320127E-15, 0.));
#30 = DIRECTION('', (0., 0., 1.));
#31 = DIRECTION('', (1., -2.32788698711717E-16, 0.));
#32 = B_SPLINE_SURFACE_WITH_KNOTS('', 1, 1, ((#33, #34), (#35, #36)), .UNSPECIFIED., .F., .F., .U., (2, 2), (2, 2), (-6.20100000000019, 6.20100000000029), (-6.20100000000024, 6.20100000000024), .UNSPECIFIED.);
#33 = CARTESIAN_POINT('', (6.20100000000024, 6.20100000000024, 0.));
#34 = CARTESIAN_POINT('', (6.20100000000024, -6.20100000000024, 0.));
#35 = CARTESIAN_POINT('', (-6.20100000000024, 6.20100000000024, 0.));
#36 = CARTESIAN_POINT('', (-6.20100000000024, -6.20100000000024, 0.));
#37 = ADVANCED_FACE('', (#38), #66, .T.);
#38 = FACE_OUTER_BOUND('', #39, .T.);
#39 = EDGE_LOOP('', (#40, #48, #49, #50, #59));
#40 = ORIENTED_EDGE('', *, *, #41, .T.);
#41 = EDGE_CURVE('', #42, #25, #44, .T.);
#42 = VERTEX_POINT('', #43);
#43 = CARTESIAN_POINT('', (7.00000000000024, 0., -0.799999999999995));
#44 = LINE('', #45, #46);
#45 = CARTESIAN_POINT('', (7.00000000000024, 3.92397251031101E-15, -0.799999999999998));
#46 = VECTOR('', #47, 1.13137084989847);
#47 = DIRECTION('', (-0.799999999999998, -3.91907366822572E-15, 0.799999999999997));
#48 = ORIENTED_EDGE('', *, *, #24, .F.);
#49 = ORIENTED_EDGE('', *, *, #41, .F.);
#50 = ORIENTED_EDGE('', *, *, #51, .F.);
#51 = EDGE_CURVE('', #52, #42, #54, .T.);
#52 = VERTEX_POINT('', #53);
#53 = CARTESIAN_POINT('', (-7.00000000000024, -8.57252759403177E-16, -0.799999999999995));
#54 = CIRCLE('', #55, 7.00000000000024);
#55 = AXIS2_PLACEMENT_3D('', #56, #57, #58);
#56 = CARTESIAN_POINT('', (8.88178419700125E-16, -1.99840144432528E-15, -0.799999999999995));
#57 = DIRECTION('', (-1.5860328923216E-17, 5.15986709285831E-17, -1.));
#58 = DIRECTION('', (1., 2.85485920617888E-16, -1.5860328923216E-17));
#59 = ORIENTED_EDGE('', *, *, #60, .F.);
#60 = EDGE_CURVE('', #42, #52, #61, .T.);
#61 = CIRCLE('', #62, 7.00000000000024);
#62 = AXIS2_PLACEMENT_3D('', #63, #64, #65);
#63 = CARTESIAN_POINT('', (8.88178419700125E-16, -1.99840144432528E-15, -0.799999999999995));
#64 = DIRECTION('', (-1.5860328923216E-17, 5.15986709285831E-17, -1.));
#65 = DIRECTION('', (1., 2.85485920617888E-16, -1.5860328923216E-17));
#66 = (
   BOUNDED_SURFACE ()
   B_SPLINE_SURFACE (2, 1, ((#67, #68), (#69, #70), (#71, #72), (#73, #74), (#75, #76), (#77, #78), (#79, #80), (#81, #82), (#83, #84)), .UNSPECIFIED., .T., .F., .U.)
   B_SPLINE_SURFACE_WITH_KNOTS ((3, 2, 2, 2, 3), (2, 2), (0., 0.25, 0.5, 0.75, 1.), (0., 1.), .UNSPECIFIED.)
   GEOMETRIC_REPRESENTATION_ITEM ()
   RATIONAL_B_SPLINE_SURFACE (((1., 1.), (0.707106781186548, 0.707106781186548), (1., 1.), (0.707106781186548, 0.707106781186548), (1., 1.), (0.707106781186548, 0.707106781186548), (1., 1.), (0.707106781186548, 0.707106781186548), (1., 1.)))
   REPRESENTATION_ITEM ('')
   SURFACE ()
);
#67 = CARTESIAN_POINT('', (6.19900000000024, -4.93038065763132E-32, 0.001));
#68 = CARTESIAN_POINT('', (7.00100000000023, 3.92887135239628E-15, -0.800999999999995));
#69 = CARTESIAN_POINT('', (6.19900000000024, -6.19900000000024, 0.000999999999969965));
#70 = CARTESIAN_POINT('', (7.00100000000023, -7.00100000000023, -0.801000000000029));
#71 = CARTESIAN_POINT('', (1.85290246086334E-16, -6.19900000000024, 0.000999999999969965));
#72 = CARTESIAN_POINT('', (2.7748934894037E-16, -7.00100000000023, -0.801000000000029));
#73 = CARTESIAN_POINT('', (-6.19900000000024, -6.19900000000024, 0.000999999999969965));
#74 = CARTESIAN_POINT('', (-7.00100000000023, -7.00100000000023, -0.801000000000029));
#75 = CARTESIAN_POINT('', (-6.19900000000024, -1.42529236556657E-15, 0.001));
#76 = CARTESIAN_POINT('', (-7.00100000000024, 2.31918078112164E-15, -0.800999999999995));
#77 = CARTESIAN_POINT('', (-6.19900000000024, 6.19900000000024, 0.00100000000003003));
#78 = CARTESIAN_POINT('', (-7.00100000000024, 7.00100000000024, -0.800999999999961));
#79 = CARTESIAN_POINT('', (-1.99916067027171E-15, 6.19900000000024, 0.00100000000003003));
#80 = CARTESIAN_POINT('', (-2.18957644641736E-15, 7.00100000000024, -0.800999999999961));
#81 = CARTESIAN_POINT('', (6.19900000000024, 6.19900000000024, 0.00100000000003003));
#82 = CARTESIAN_POINT('', (7.00100000000023, 7.00100000000024, -0.800999999999961));
#83 = CARTESIAN_POINT('', (6.19900000000024, -4.93038065763132E-32, 0.001));
#84 = CARTESIAN_POINT('', (7.00100000000023, 3.92887135239628E-15, -0.800999999999995));
#85 = ADVANCED_FACE('', (#86), #98, .T.);
#86 = FACE_OUTER_BOUND('', #87, .T.);
#87 = EDGE_LOOP('', (#88, #94, #95, #96, #97));
#88 = ORIENTED_EDGE('', *, *, #89, .T.);
#89 = EDGE_CURVE('', #52, #8, #90, .T.);
#90 = LINE('', #91, #92);
#91 = CARTESIAN_POINT('', (-7.00000000000024, 3.94430452610506E-31, -0.799999999999995));
#92 = VECTOR('', #93, 77.2);
#93 = DIRECTION('', (0., 0., -77.2));
#94 = ORIENTED_EDGE('', *, *, #7, .T.);
#95 = ORIENTED_EDGE('', *, *, #89, .F.);
#96 = ORIENTED_EDGE('', *, *, #51, .T.);
#97 = ORIENTED_EDGE('', *, *, #60, .T.);
#98 = (
   BOUNDED_SURFACE ()
   B_SPLINE_SURFACE (2, 1, ((#99, #100), (#101, #102), (#103, #104), (#105, #106), (#107, #108), (#109, #110), (#111, #112), (#113, #114), (#115, #116)), .UNSPECIFIED., .T., .F., .U.)
   B_SPLINE_SURFACE_WITH_KNOTS ((3, 2, 2, 2, 3), (2, 2), (0., 0.25, 0.5, 0.75, 1.), (0., 1.), .UNSPECIFIED.)
   GEOMETRIC_REPRESENTATION_ITEM ()
   RATIONAL_B_SPLINE_SURFACE (((1., 1.), (0.707106781186548, 0.707106781186548), (1., 1.), (0.707106781186548, 0.707106781186548), (1., 1.), (0.707106781186548, 0.707106781186548), (1., 1.), (0.707106781186548, 0.707106781186548), (1., 1.)))
   REPRESENTATION_ITEM ('')
   SURFACE ()
);
#99 = CARTESIAN_POINT('', (-7.00000000000024, 3.94430452610506E-31, -85.7212));
#100 = CARTESIAN_POINT('', (-7.00000000000024, 3.94430452610506E-31, 6.92120000000001));
#101 = CARTESIAN_POINT('', (-7.00000000000024, -7.00000000000024, -85.7212));
#102 = CARTESIAN_POINT('', (-7.00000000000024, -7.00000000000024, 6.92120000000001));
#103 = CARTESIAN_POINT('', (-3.06540606318634E-15, -7.00000000000024, -85.7212));
#104 = CARTESIAN_POINT('', (-3.06540606318634E-15, -7.00000000000024, 6.92120000000001));
#105 = CARTESIAN_POINT('', (7.00000000000024, -7.00000000000024, -85.7212));
#106 = CARTESIAN_POINT('', (7.00000000000024, -7.00000000000024, 6.92120000000001));
#107 = CARTESIAN_POINT('', (7.00000000000024, -4.40996643820368E-15, -85.7212));
#108 = CARTESIAN_POINT('', (7.00000000000024, -4.40996643820368E-15, 6.92120000000001));
#109 = CARTESIAN_POINT('', (7.00000000000024, 7.00000000000024, -85.7212));
#110 = CARTESIAN_POINT('', (7.00000000000024, 7.00000000000024, 6.92120000000001));
#111 = CARTESIAN_POINT('', (2.20181313442052E-15, 7.00000000000024, -85.7212));
#112 = CARTESIAN_POINT('', (2.20181313442052E-15, 7.00000000000024, 6.92120000000001));
#113 = CARTESIAN_POINT('', (-7.00000000000024, 7.00000000000024, -85.7212));
#114 = CARTESIAN_POINT('', (-7.00000000000024, 7.00000000000024, 6.92120000000001));
#115 = CARTESIAN_POINT('', (-7.00000000000024, 3.94430452610506E-31, -85.7212));
#116 = CARTESIAN_POINT('', (-7.00000000000024, 3.94430452610506E-31, 6.92120000000001));
#117 = DRAUGHTING_MODEL('', (#125, #239, #286, #291, #296, #301, #306, #311), #325);
#118 = PRESENTATION_STYLE_ASSIGNMENT((#119));
#119 = SURFACE_STYLE_USAGE(.POSITIVE., #120);
#120 = SURFACE_SIDE_STYLE('', (#121));
#121 = SURFACE_STYLE_FILL_AREA(#122);
#122 = FILL_AREA_STYLE('', (#123));
#123 = FILL_AREA_STYLE_COLOUR('', #124);
#124 = COLOUR_RGB('', 0.50196078431373, 0.50196078431373, 0.50196078431373);
#125 = STYLED_ITEM('', (#118), #1);
#126 = MANIFOLD_SOLID_BREP('CUT', #127);
#127 = CLOSED_SHELL('', (#128, #145, #192, #223));
#128 = ADVANCED_FACE('', (#129), #140, .T.);
#129 = FACE_OUTER_BOUND('', #130, .T.);
#130 = EDGE_LOOP('', (#131));
#131 = ORIENTED_EDGE('', *, *, #132, .T.);
#132 = EDGE_CURVE('', #133, #133, #135, .T.);
#133 = VERTEX_POINT('', #134);
#134 = CARTESIAN_POINT('', (-6.85000000000024, 0., -104.));
#135 = CIRCLE('', #136, 6.85000000000024);
#136 = AXIS2_PLACEMENT_3D('', #137, #138, #139);
#137 = CARTESIAN_POINT('', (4.9960036108132E-16, -8.88178419700125E-16, -104.));
#138 = DIRECTION('', (0., 0., -1.));
#139 = DIRECTION('', (-1., 1.29661083167897E-16, 0.));
#140 = B_SPLINE_SURFACE_WITH_KNOTS('', 1, 1, ((#141, #142), (#143, #144)), .UNSPECIFIED., .F., .F., .U., (2, 2), (2, 2), (-13.8510000000005, -0.149000000000028), (-6.85100000000024, 6.85100000000024), .UNSPECIFIED.);
#141 = CARTESIAN_POINT('', (-6.85100000000024, 6.85100000000024, -104.));
#142 = CARTESIAN_POINT('', (-6.85100000000024, -6.85100000000024, -104.));
#143 = CARTESIAN_POINT('', (6.85100000000024, 6.85100000000024, -104.));
#144 = CARTESIAN_POINT('', (6.85100000000024, -6.85100000000024, -104.));
#145 = ADVANCED_FACE('', (#146), #173, .T.);
#146 = FACE_OUTER_BOUND('', #147, .T.);
#147 = EDGE_LOOP('', (#148, #158, #165, #166));
#148 = ORIENTED_EDGE('', *, *, #149, .T.);
#149 = EDGE_CURVE('', #150, #152, #154, .T.);
#150 = VERTEX_POINT('', #151);
#151 = CARTESIAN_POINT('', (-7.00000000000024, 0., -78.));
#152 = VERTEX_POINT('', #153);
#153 = CARTESIAN_POINT('', (-7.00000000000024, 0., -103.85));
#154 = LINE('', #155, #156);
#155 = CARTESIAN_POINT('', (-7.00000000000018, -1.44290594352588E-29, -78.));
#156 = VECTOR('', #157, 25.85);
#157 = DIRECTION('', (-5.24025267623074E-14, 1.34753312187079E-29, -25.85));
#158 = ORIENTED_EDGE('', *, *, #159, .T.);
#159 = EDGE_CURVE('', #152, #152, #160, .T.);
#160 = CIRCLE('', #161, 7.00000000000024);
#161 = AXIS2_PLACEMENT_3D('', #162, #163, #164);
#162 = CARTESIAN_POINT('', (-8.88178419700125E-16, -1.99840144432528E-15, -103.85));
#163 = DIRECTION('', (1.97259267890644E-30, 6.9095970639711E-15, 1.));
#164 = DIRECTION('', (-1., 2.85485920617888E-16, 0.));
#165 = ORIENTED_EDGE('', *, *, #149, .F.);
#166 = ORIENTED_EDGE('', *, *, #167, .F.);
#167 = EDGE_CURVE('', #150, #150, #168, .T.);
#168 = CIRCLE('', #169, 7.00000000000024);
#169 = AXIS2_PLACEMENT_3D('', #170, #171, #172);
#170 = CARTESIAN_POINT('', (-8.88178419700125E-16, -1.99840144432528E-15, -78.));
#171 = DIRECTION('', (1.97259267890644E-30, 6.9095970639711E-15, 1.));
#172 = DIRECTION('', (-1., 2.85485920617888E-16, 0.));
#173 = (
   BOUNDED_SURFACE ()
   B_SPLINE_SURFACE (2, 1, ((#174, #175), (#176, #177), (#178, #179), (#180, #181), (#182, #183), (#184, #185), (#186, #187), (#188, #189), (#190, #191)), .UNSPECIFIED., .T., .F., .U.)
   B_SPLINE_SURFACE_WITH_KNOTS ((3, 2, 2, 2, 3), (2, 2), (0., 0.25, 0.5, 0.75, 1.), (0., 1.), .UNSPECIFIED.)
   GEOMETRIC_REPRESENTATION_ITEM ()
   RATIONAL_B_SPLINE_SURFACE (((1., 1.), (0.707106781186548, 0.707106781186548), (1., 1.), (0.707106781186548, 0.707106781186548), (1., 1.), (0.707106781186548, 0.707106781186548), (1., 1.), (0.707106781186548, 0.707106781186548), (1., 1.)))
   REPRESENTATION_ITEM ('')
   SURFACE ()
);
#174 = CARTESIAN_POINT('', (-7.00000000000024, 3.94430452610506E-31, -106.4362));
#175 = CARTESIAN_POINT('', (-7.00000000000018, -1.57772181044202E-29, -75.4138));
#176 = CARTESIAN_POINT('', (-7.00000000000024, -7.00000000000024, -106.4362));
#177 = CARTESIAN_POINT('', (-7.00000000000018, -7.00000000000024, -75.4138));
#178 = CARTESIAN_POINT('', (-3.06540606318634E-15, -7.00000000000024, -106.4362));
#179 = CARTESIAN_POINT('', (5.99138538392234E-14, -7.00000000000024, -75.4138));
#180 = CARTESIAN_POINT('', (7.00000000000024, -7.00000000000024, -106.4362));
#181 = CARTESIAN_POINT('', (7.0000000000003, -7.00000000000024, -75.4138));
#182 = CARTESIAN_POINT('', (7.00000000000024, -4.40996643820368E-15, -106.4362));
#183 = CARTESIAN_POINT('', (7.0000000000003, -4.40996643820369E-15, -75.4138));
#184 = CARTESIAN_POINT('', (7.00000000000024, 7.00000000000024, -106.4362));
#185 = CARTESIAN_POINT('', (7.0000000000003, 7.00000000000024, -75.4138));
#186 = CARTESIAN_POINT('', (2.20181313442052E-15, 7.00000000000024, -106.4362));
#187 = CARTESIAN_POINT('', (6.51810730368302E-14, 7.00000000000024, -75.4138));
#188 = CARTESIAN_POINT('', (-7.00000000000024, 7.00000000000024, -106.4362));
#189 = CARTESIAN_POINT('', (-7.00000000000017, 7.00000000000024, -75.4138));
#190 = CARTESIAN_POINT('', (-7.00000000000024, 3.94430452610506E-31, -106.4362));
#191 = CARTESIAN_POINT('', (-7.00000000000018, -1.57772181044202E-29, -75.4138));
#192 = ADVANCED_FACE('', (#193), #204, .T.);
#193 = FACE_OUTER_BOUND('', #194, .T.);
#194 = EDGE_LOOP('', (#195, #201, #202, #203));
#195 = ORIENTED_EDGE('', *, *, #196, .T.);
#196 = EDGE_CURVE('', #152, #133, #197, .T.);
#197 = LINE('', #198, #199);
#198 = CARTESIAN_POINT('', (-7.00000000000024, -2.24989663650353E-15, -103.85));
#199 = VECTOR('', #200, 0.212132034355971);
#200 = DIRECTION('', (0.150000000000004, 2.23499665877798E-15, -0.150000000000006));
#201 = ORIENTED_EDGE('', *, *, #132, .F.);
#202 = ORIENTED_EDGE('', *, *, #196, .F.);
#203 = ORIENTED_EDGE('', *, *, #159, .F.);
#204 = (
   BOUNDED_SURFACE ()
   B_SPLINE_SURFACE (2, 1, ((#205, #206), (#207, #208), (#209, #210), (#211, #212), (#213, #214), (#215, #216), (#217, #218), (#219, #220), (#221, #222)), .UNSPECIFIED., .T., .F., .U.)
   B_SPLINE_SURFACE_WITH_KNOTS ((3, 2, 2, 2, 3), (2, 2), (0., 0.25, 0.5, 0.75, 1.), (0., 1.), .UNSPECIFIED.)
   GEOMETRIC_REPRESENTATION_ITEM ()
   RATIONAL_B_SPLINE_SURFACE (((1., 1.), (0.707106781186548, 0.707106781186548), (1., 1.), (0.707106781186548, 0.707106781186548), (1., 1.), (0.707106781186548, 0.707106781186548), (1., 1.), (0.707106781186548, 0.707106781186548), (1., 1.)))
   REPRESENTATION_ITEM ('')
   SURFACE ()
);
#205 = CARTESIAN_POINT('', (-6.84900000000021, 3.94430452610506E-31, -104.001));
#206 = CARTESIAN_POINT('', (-7.00100000000024, -2.26479661422878E-15, -103.849));
#207 = CARTESIAN_POINT('', (-6.84900000000021, -6.84900000000021, -104.001));
#208 = CARTESIAN_POINT('', (-7.00100000000024, -7.00100000000025, -103.849));
#209 = CARTESIAN_POINT('', (2.24515496273235E-15, -6.84900000000021, -104.001));
#210 = CARTESIAN_POINT('', (2.28019821203729E-15, -7.00100000000024, -103.849));
#211 = CARTESIAN_POINT('', (6.84900000000021, -6.84900000000021, -104.001));
#212 = CARTESIAN_POINT('', (7.00100000000025, -7.00100000000024, -103.849));
#213 = CARTESIAN_POINT('', (6.84900000000021, 3.15804229591452E-15, -104.001));
#214 = CARTESIAN_POINT('', (7.00100000000025, 9.63332180295623E-16, -103.849));
#215 = CARTESIAN_POINT('', (6.84900000000021, 6.84900000000021, -104.001));
#216 = CARTESIAN_POINT('', (7.00100000000024, 7.00100000000025, -103.849));
#217 = CARTESIAN_POINT('', (-7.41267404461155E-17, 6.84900000000021, -104.001));
#218 = CARTESIAN_POINT('', (-9.0555358404013E-17, 7.00100000000024, -103.849));
#219 = CARTESIAN_POINT('', (-6.84900000000021, 6.84900000000021, -104.001));
#220 = CARTESIAN_POINT('', (-7.00100000000024, 7.00100000000024, -103.849));
#221 = CARTESIAN_POINT('', (-6.84900000000021, 3.94430452610506E-31, -104.001));
#222 = CARTESIAN_POINT('', (-7.00100000000024, -2.26479661422878E-15, -103.849));
#223 = ADVANCED_FACE('', (#224), #227, .T.);
#224 = FACE_OUTER_BOUND('', #225, .T.);
#225 = EDGE_LOOP('', (#226));
#226 = ORIENTED_EDGE('', *, *, #167, .T.);
#227 = B_SPLINE_SURFACE_WITH_KNOTS('', 1, 1, ((#228, #229), (#230, #231)), .UNSPECIFIED., .F., .F., .U., (2, 2), (2, 2), (-7.00100000000024, 7.00100000000024), (-7.00100000000024, 7.00100000000024), .UNSPECIFIED.);
#228 = CARTESIAN_POINT('', (-7.00100000000024, -7.00100000000024, -78.));
#229 = CARTESIAN_POINT('', (-7.00100000000024, 7.00100000000024, -78.));
#230 = CARTESIAN_POINT('', (7.00100000000024, -7.00100000000024, -78.));
#231 = CARTESIAN_POINT('', (7.00100000000024, 7.00100000000024, -78.));
#232 = PRESENTATION_STYLE_ASSIGNMENT((#233));
#233 = SURFACE_STYLE_USAGE(.POSITIVE., #234);
#234 = SURFACE_SIDE_STYLE('', (#235));
#235 = SURFACE_STYLE_FILL_AREA(#236);
#236 = FILL_AREA_STYLE('', (#237));
#237 = FILL_AREA_STYLE_COLOUR('', #238);
#238 = COLOUR_RGB('', 0.8, 0.8, 0.8);
#239 = STYLED_ITEM('', (#232), #126);
#240 = TRIMMED_CURVE('cutting part line', #241, (#245), (#246), .T., .CARTESIAN.);
#241 = LINE('', #242, #243);
#242 = CARTESIAN_POINT('', (-2.77555756156289E-16, 0., -104.));
#243 = VECTOR('', #244, 6.85000000000024);
#244 = DIRECTION('', (6.85000000000024, 0., 1.4210854715202E-14));
#245 = CARTESIAN_POINT('', (-2.77555756156289E-16, 0., -104.));
#246 = CARTESIAN_POINT('', (6.85000000000024, 0., -104.));
#247 = TRIMMED_CURVE('cutting part line', #248, (#252), (#253), .T., .CARTESIAN.);
#248 = LINE('', #249, #250);
#249 = CARTESIAN_POINT('', (6.85000000000013, 1.99511674339092E-15, -104.));
#250 = VECTOR('', #251, 0.212132034356317);
#251 = DIRECTION('', (0.150000000000252, -2.1908959189789E-15, 0.150000000000247));
#252 = CARTESIAN_POINT('', (6.85000000000013, 1.99511674339092E-15, -104.));
#253 = CARTESIAN_POINT('', (7.00000000000038, -1.95779175587977E-16, -103.85));
#254 = TRIMMED_CURVE('cutting part line', #255, (#259), (#260), .T., .CARTESIAN.);
#255 = LINE('', #256, #257);
#256 = CARTESIAN_POINT('', (7.00000000000024, 0., -103.85));
#257 = VECTOR('', #258, 25.85);
#258 = DIRECTION('', (5.24025267623074E-14, 9.15878839748037E-16, 25.85));
#259 = CARTESIAN_POINT('', (7.00000000000024, 0., -103.85));
#260 = CARTESIAN_POINT('', (7.0000000000003, 9.15878839748037E-16, -78.));
#261 = TRIMMED_CURVE('cutting part line', #262, (#266), (#267), .T., .CARTESIAN.);
#262 = LINE('', #263, #264);
#263 = CARTESIAN_POINT('', (7.00000000000024, 0., -78.));
#264 = VECTOR('', #265, 7.00000000000024);
#265 = DIRECTION('', (-7.00000000000024, 0., -1.4210854715202E-14));
#266 = CARTESIAN_POINT('', (7.00000000000024, 0., -78.));
#267 = CARTESIAN_POINT('', (1.38777878078145E-17, 0., -78.));
#268 = TRIMMED_CURVE('cutting part line', #269, (#273), (#274), .T., .CARTESIAN.);
#269 = LINE('', #270, #271);
#270 = CARTESIAN_POINT('', (0., 0., -77.9999999999999));
#271 = VECTOR('', #272, 26.);
#272 = DIRECTION('', (0., 0., -26.));
#273 = CARTESIAN_POINT('', (0., 0., -77.9999999999999));
#274 = CARTESIAN_POINT('', (0., 0., -104.));
#275 = COMPOSITE_CURVE('cutting part line', (#276, #277, #278, #279, #280), .U.);
#276 = COMPOSITE_CURVE_SEGMENT(.CONTINUOUS., .T., #240);
#277 = COMPOSITE_CURVE_SEGMENT(.CONTINUOUS., .T., #247);
#278 = COMPOSITE_CURVE_SEGMENT(.CONTINUOUS., .T., #254);
#279 = COMPOSITE_CURVE_SEGMENT(.CONTINUOUS., .T., #261);
#280 = COMPOSITE_CURVE_SEGMENT(.CONTINUOUS., .T., #268);
#281 = GEOMETRIC_SET('', (#275, #324));
#282 = PRESENTATION_STYLE_ASSIGNMENT((#283));
#283 = CURVE_STYLE('', #285, POSITIVE_LENGTH_MEASURE(1.E-6), #284);
#284 = COLOUR_RGB('', 0., 0., 1.);
#285 = DRAUGHTING_PRE_DEFINED_CURVE_FONT('continuous');
#286 = STYLED_ITEM('', (#282), #275);
#287 = PRESENTATION_STYLE_ASSIGNMENT((#288));
#288 = CURVE_STYLE('', #290, POSITIVE_LENGTH_MEASURE(1.E-6), #289);
#289 = COLOUR_RGB('', 0., 0., 1.);
#290 = DRAUGHTING_PRE_DEFINED_CURVE_FONT('continuous');
#291 = OVER_RIDING_STYLED_ITEM('', (#287), #240, #286);
#292 = PRESENTATION_STYLE_ASSIGNMENT((#293));
#293 = CURVE_STYLE('', #295, POSITIVE_LENGTH_MEASURE(1.E-6), #294);
#294 = COLOUR_RGB('', 0., 0., 1.);
#295 = DRAUGHTING_PRE_DEFINED_CURVE_FONT('continuous');
#296 = OVER_RIDING_STYLED_ITEM('', (#292), #247, #286);
#297 = PRESENTATION_STYLE_ASSIGNMENT((#298));
#298 = CURVE_STYLE('', #300, POSITIVE_LENGTH_MEASURE(1.E-6), #299);
#299 = COLOUR_RGB('', 0., 0., 1.);
#300 = DRAUGHTING_PRE_DEFINED_CURVE_FONT('continuous');
#301 = OVER_RIDING_STYLED_ITEM('', (#297), #254, #286);
#302 = PRESENTATION_STYLE_ASSIGNMENT((#303));
#303 = CURVE_STYLE('', #305, POSITIVE_LENGTH_MEASURE(1.E-6), #304);
#304 = COLOUR_RGB('', 0., 0., 1.);
#305 = DRAUGHTING_PRE_DEFINED_CURVE_FONT('continuous');
#306 = OVER_RIDING_STYLED_ITEM('', (#302), #261, #286);
#307 = PRESENTATION_STYLE_ASSIGNMENT((#308));
#308 = CURVE_STYLE('', #310, POSITIVE_LENGTH_MEASURE(1.E-6), #309);
#309 = COLOUR_RGB('', 0., 0., 1.);
#310 = DRAUGHTING_PRE_DEFINED_CURVE_FONT('continuous');
#311 = OVER_RIDING_STYLED_ITEM('', (#307), #268, #286);
#312 = AXIS2_PLACEMENT_3D('MCS', #313, #314, #315);
#313 = CARTESIAN_POINT('', (0., 0., -45.));
#314 = DIRECTION('', (0., 0., 1.));
#315 = DIRECTION('', (1., 0., 0.));
#316 = AXIS2_PLACEMENT_3D('PCS', #317, #318, #319);
#317 = CARTESIAN_POINT('', (0., 0., 0.));
#318 = DIRECTION('', (0., 0., 1.));
#319 = DIRECTION('', (1., 0., 0.));
#320 = AXIS2_PLACEMENT_3D('CIP', #321, #322, #323);
#321 = CARTESIAN_POINT('', (0., 0., -104.));
#322 = DIRECTION('', (0., 0., 1.));
#323 = DIRECTION('', (1., 0., 0.));
#324 = CARTESIAN_POINT('CRP', (7.00000000000038, 0., -104.));
#325 = (
   GEOMETRIC_REPRESENTATION_CONTEXT (3)
   GLOBAL_UNCERTAINTY_ASSIGNED_CONTEXT ((#327))
   GLOBAL_UNIT_ASSIGNED_CONTEXT ((#326, #328, #329))
   REPRESENTATION_CONTEXT ('', '3D')
);
#326 = (
   LENGTH_UNIT ()
   NAMED_UNIT (*)
   SI_UNIT (.MILLI., .METRE.)
);
#327 = UNCERTAINTY_MEASURE_WITH_UNIT(LENGTH_MEASURE(1.E-6), #326, 'DISTANCE_ACCURACY_VALUE', '');
#328 = (
   NAMED_UNIT (*)
   SI_UNIT ($, .STERADIAN.)
   SOLID_ANGLE_UNIT ()
);
#329 = (
   NAMED_UNIT (*)
   PLANE_ANGLE_UNIT ()
   SI_UNIT ($, .RADIAN.)
);
#330 = SHAPE_REPRESENTATION('', (), #325);
#331 = PRODUCT_DEFINITION_SHAPE('', '', #332);
#332 = PRODUCT_DEFINITION('', '', #335, #339);
#333 = APPLICATION_CONTEXT('configuration controlled 3D designs of mechanical parts and assemblies');
#334 = APPLICATION_PROTOCOL_DEFINITION('International Standard', 'automotive_design', 2002, #333);
#335 = PRODUCT_DEFINITION_FORMATION_WITH_SPECIFIED_SOURCE('', '', #336, .NOT_KNOWN.);
#336 = PRODUCT('R216.34-14050-AK26H-634160978845451250-1', 'R216.34-14050-AK26H 1620', '', (#337));
#337 = PRODUCT_CONTEXT('', #333, 'mechanical');
#338 = PRODUCT_RELATED_PRODUCT_CATEGORY('detail', '', (#336));
#339 = PRODUCT_DEFINITION_CONTEXT('part definition', #333, 'design');
#340 = SHAPE_DEFINITION_REPRESENTATION(#331, #330);
#341 = CONSTRUCTIVE_GEOMETRY_REPRESENTATION('supplemental geometry', (#312, #316, #320), #325);
#342 = CONSTRUCTIVE_GEOMETRY_REPRESENTATION_RELATIONSHIP('', '', #330, #341);
#343 = SHAPE_REPRESENTATION_RELATIONSHIP('', '', #330, #344);
#344 = SHAPE_REPRESENTATION('', (#281), #325);
#345 = SHAPE_REPRESENTATION_RELATIONSHIP('', '', #330, #346);
#346 = ADVANCED_BREP_SHAPE_REPRESENTATION('', (#1, #126), #325);
ENDSEC;
END-ISO-10303-21;
