ISO-10303-21;
HEADER;
FILE_DESCRIPTION(('STEP'), '1');
FILE_NAME('C:\\Users\\ds2002\\OneDrive - Sandvik\\HomeShare\\Documents\\Batchrepair\\CorSRT2\\NEW_MILSQ_SLD\\Output\\MOD000000000000000020084625700000.stp', '2019-01-02T12:10:49', (''), (''), 'Express v3.0.0.0', 'Express Tool', 'Unknown');
FILE_SCHEMA(('AUTOMOTIVE_DESIGN'));
ENDSEC;

DATA;
#1 = MANIFOLD_SOLID_BREP('NOCUT', #2);
#2 = CLOSED_SHELL('', (#3, #50, #59, #98));
#3 = ADVANCED_FACE('', (#4), #31, .T.);
#4 = FACE_OUTER_BOUND('', #5, .T.);
#5 = EDGE_LOOP('', (#6, #16, #23, #24));
#6 = ORIENTED_EDGE('', *, *, #7, .T.);
#7 = EDGE_CURVE('', #8, #10, #12, .T.);
#8 = VERTEX_POINT('', #9);
#9 = CARTESIAN_POINT('', (-6., 4.04133443718627E-16, -0.600000000000001));
#10 = VERTEX_POINT('', #11);
#11 = CARTESIAN_POINT('', (-5.4, 3.30654635769785E-16, 0.));
#12 = LINE('', #13, #14);
#13 = CARTESIAN_POINT('', (-6., 4.04133443718627E-16, -0.600000000000001));
#14 = VECTOR('', #15, 0.848528137423857);
#15 = DIRECTION('', (0.6, -7.3478807948842E-17, 0.600000000000001));
#16 = ORIENTED_EDGE('', *, *, #17, .T.);
#17 = EDGE_CURVE('', #10, #10, #18, .T.);
#18 = CIRCLE('', #19, 5.4);
#19 = AXIS2_PLACEMENT_3D('', #20, #21, #22);
#20 = CARTESIAN_POINT('', (6.93889390390723E-16, -1.11022302462516E-16, 1.23259516440783E-32));
#21 = DIRECTION('', (7.29090075504589E-33, 6.12323399573677E-17, -1.));
#22 = DIRECTION('', (-1., -1.63137334230896E-16, -1.72801814644108E-32));
#23 = ORIENTED_EDGE('', *, *, #7, .F.);
#24 = ORIENTED_EDGE('', *, *, #25, .F.);
#25 = EDGE_CURVE('', #8, #8, #26, .T.);
#26 = CIRCLE('', #27, 6.);
#27 = AXIS2_PLACEMENT_3D('', #28, #29, #30);
#28 = CARTESIAN_POINT('', (-1.22124532708767E-15, -2.1094237467878E-15, -0.600000000000001));
#29 = DIRECTION('', (-1.85037170770859E-17, 1.2317654765601E-16, -1.));
#30 = DIRECTION('', (-1., 1.73996838588266E-16, 1.85037170770859E-17));
#31 = (
   BOUNDED_SURFACE ()
   B_SPLINE_SURFACE (1, 2, ((#32, #33, #34, #35, #36, #37, #38, #39, #40), (#41, #42, #43, #44, #45, #46, #47, #48, #49)), .UNSPECIFIED., .F., .T., .U.)
   B_SPLINE_SURFACE_WITH_KNOTS ((2, 2), (3, 2, 2, 2, 3), (0., 1.), (0., 0.25, 0.5, 0.75, 1.), .UNSPECIFIED.)
   GEOMETRIC_REPRESENTATION_ITEM ()
   RATIONAL_B_SPLINE_SURFACE (((1., 0.707106781186548, 1., 0.707106781186548, 1., 0.707106781186548, 1., 0.707106781186548, 1.), (1., 0.707106781186548, 1., 0.707106781186548, 1., 0.707106781186548, 1., 0.707106781186548, 1.)))
   REPRESENTATION_ITEM ('')
   SURFACE ()
);
#32 = CARTESIAN_POINT('', (-6., 2.98258605330568E-15, -0.600000000000001));
#33 = CARTESIAN_POINT('', (-6., 6., -0.599999999999978));
#34 = CARTESIAN_POINT('', (4.68298239692583E-15, 6., -0.599999999999978));
#35 = CARTESIAN_POINT('', (6., 6., -0.599999999999978));
#36 = CARTESIAN_POINT('', (6., -2.69188718366733E-15, -0.600000000000001));
#37 = CARTESIAN_POINT('', (6., -6., -0.600000000000024));
#38 = CARTESIAN_POINT('', (-2.56702760558774E-16, -6., -0.600000000000024));
#39 = CARTESIAN_POINT('', (-6., -6., -0.600000000000024));
#40 = CARTESIAN_POINT('', (-6., 2.98258605330568E-15, -0.600000000000001));
#41 = CARTESIAN_POINT('', (-5.4, 3.30654635769784E-16, -6.56858655152258E-47));
#42 = CARTESIAN_POINT('', (-5.4, 5.4, 2.09832151654154E-14));
#43 = CARTESIAN_POINT('', (4.39925873507718E-15, 5.4, 2.09832151654154E-14));
#44 = CARTESIAN_POINT('', (5.4, 5.4, 2.09832151654154E-14));
#45 = CARTESIAN_POINT('', (5.4, -4.77637127750593E-15, 2.27387988935674E-30));
#46 = CARTESIAN_POINT('', (5.4, -5.40000000000001, -2.09832151654154E-14));
#47 = CARTESIAN_POINT('', (-4.64579066589654E-17, -5.4, -2.09832151654154E-14));
#48 = CARTESIAN_POINT('', (-5.4, -5.4, -2.09832151654154E-14));
#49 = CARTESIAN_POINT('', (-5.4, 3.30654635769784E-16, -6.56858655152258E-47));
#50 = ADVANCED_FACE('', (#51), #54, .T.);
#51 = FACE_OUTER_BOUND('', #52, .T.);
#52 = EDGE_LOOP('', (#53));
#53 = ORIENTED_EDGE('', *, *, #17, .F.);
#54 = B_SPLINE_SURFACE_WITH_KNOTS('', 1, 1, ((#55, #56), (#57, #58)), .UNSPECIFIED., .F., .F., .U., (2, 2), (2, 2), (3.00042856049618, 13.8004285604962), (3.00042856049619, 13.8004285604962), .UNSPECIFIED.);
#55 = CARTESIAN_POINT('', (5.4, -5.4, -7.43608199337083E-15));
#56 = CARTESIAN_POINT('', (-5.4, -5.4, -7.43608199337083E-15));
#57 = CARTESIAN_POINT('', (5.4, 5.4, 7.43608199337074E-15));
#58 = CARTESIAN_POINT('', (-5.4, 5.4, 7.43608199337074E-15));
#59 = ADVANCED_FACE('', (#60), #79, .T.);
#60 = FACE_OUTER_BOUND('', #61, .T.);
#61 = EDGE_LOOP('', (#62, #71, #77, #78));
#62 = ORIENTED_EDGE('', *, *, #63, .F.);
#63 = EDGE_CURVE('', #64, #64, #66, .T.);
#64 = VERTEX_POINT('', #65);
#65 = CARTESIAN_POINT('', (-6., 3.85763741731416E-15, -57.));
#66 = CIRCLE('', #67, 6.);
#67 = AXIS2_PLACEMENT_3D('', #68, #69, #70);
#68 = CARTESIAN_POINT('', (1.80411241501588E-15, 2.22044604925031E-16, -57.));
#69 = DIRECTION('', (1.1842378929335E-15, -3.85270076266768E-15, -1.));
#70 = DIRECTION('', (-1., 6.05932135398188E-16, -1.1842378929335E-15));
#71 = ORIENTED_EDGE('', *, *, #72, .T.);
#72 = EDGE_CURVE('', #64, #8, #73, .T.);
#73 = LINE('', #74, #75);
#74 = CARTESIAN_POINT('', (-6., 3.85763741731416E-15, -57.));
#75 = VECTOR('', #76, 56.4);
#76 = DIRECTION('', (0., -3.45350397359553E-15, 56.4));
#77 = ORIENTED_EDGE('', *, *, #25, .T.);
#78 = ORIENTED_EDGE('', *, *, #72, .F.);
#79 = (
   BOUNDED_SURFACE ()
   B_SPLINE_SURFACE (1, 2, ((#80, #81, #82, #83, #84, #85, #86, #87, #88), (#89, #90, #91, #92, #93, #94, #95, #96, #97)), .UNSPECIFIED., .F., .T., .U.)
   B_SPLINE_SURFACE_WITH_KNOTS ((2, 2), (3, 2, 2, 2, 3), (-0.270270270270271, 1.), (0., 0.25, 0.5, 0.75, 1.), .UNSPECIFIED.)
   GEOMETRIC_REPRESENTATION_ITEM ()
   RATIONAL_B_SPLINE_SURFACE (((1., 0.707106781186548, 1., 0.707106781186548, 1., 0.707106781186548, 1., 0.707106781186548, 1.), (1., 0.707106781186548, 1., 0.707106781186548, 1., 0.707106781186548, 1., 0.707106781186548, 1.)))
   REPRESENTATION_ITEM ('')
   SURFACE ()
);
#80 = CARTESIAN_POINT('', (-6., 1.07026725849372E-15, -57.));
#81 = CARTESIAN_POINT('', (-6., 6., -57.));
#82 = CARTESIAN_POINT('', (1.15806465884583E-15, 6., -57.));
#83 = CARTESIAN_POINT('', (6., 6., -57.));
#84 = CARTESIAN_POINT('', (6., -2.77796983318065E-15, -57.));
#85 = CARTESIAN_POINT('', (6., -6., -57.));
#86 = CARTESIAN_POINT('', (-1.95538435334013E-15, -6., -57.));
#87 = CARTESIAN_POINT('', (-6., -6., -57.));
#88 = CARTESIAN_POINT('', (-6., 1.07026725849372E-15, -57.));
#89 = CARTESIAN_POINT('', (-6., 4.04133443718627E-16, -0.600000000000001));
#90 = CARTESIAN_POINT('', (-6., 6., -0.600000000000001));
#91 = CARTESIAN_POINT('', (2.20167430199348E-15, 6., -0.600000000000001));
#92 = CARTESIAN_POINT('', (6., 6., -0.600000000000001));
#93 = CARTESIAN_POINT('', (6., -3.44410364795575E-15, -0.600000000000001));
#94 = CARTESIAN_POINT('', (6., -6., -0.600000000000001));
#95 = CARTESIAN_POINT('', (-9.11774710192486E-16, -6., -0.600000000000001));
#96 = CARTESIAN_POINT('', (-6., -6., -0.600000000000001));
#97 = CARTESIAN_POINT('', (-6., 4.04133443718627E-16, -0.600000000000001));
#98 = ADVANCED_FACE('', (#99), #102, .T.);
#99 = FACE_OUTER_BOUND('', #100, .T.);
#100 = EDGE_LOOP('', (#101));
#101 = ORIENTED_EDGE('', *, *, #63, .T.);
#102 = B_SPLINE_SURFACE_WITH_KNOTS('', 1, 1, ((#103, #104), (#105, #106)), .UNSPECIFIED., .F., .F., .U., (2, 2), (2, 2), (80.9581460811476, 92.9581460811476), (76.4762170923249, 88.4762170923249), .UNSPECIFIED.);
#103 = CARTESIAN_POINT('', (-6., 6.00000000000001, -57.));
#104 = CARTESIAN_POINT('', (-6.00000000000001, -6., -57.));
#105 = CARTESIAN_POINT('', (6., 6.00000000000001, -57.));
#106 = CARTESIAN_POINT('', (5.99999999999999, -6., -57.));
#107 = DRAUGHTING_MODEL('', (#115, #190, #229, #234, #239, #244, #249), #263);
#108 = PRESENTATION_STYLE_ASSIGNMENT((#109));
#109 = SURFACE_STYLE_USAGE(.POSITIVE., #110);
#110 = SURFACE_SIDE_STYLE('', (#111));
#111 = SURFACE_STYLE_FILL_AREA(#112);
#112 = FILL_AREA_STYLE('', (#113));
#113 = FILL_AREA_STYLE_COLOUR('', #114);
#114 = COLOUR_RGB('', 0.50196078431373, 0.50196078431373, 0.50196078431373);
#115 = STYLED_ITEM('', (#108), #1);
#116 = MANIFOLD_SOLID_BREP('CUT', #117);
#117 = CLOSED_SHELL('', (#118, #135, #174));
#118 = ADVANCED_FACE('', (#119), #130, .T.);
#119 = FACE_OUTER_BOUND('', #120, .T.);
#120 = EDGE_LOOP('', (#121));
#121 = ORIENTED_EDGE('', *, *, #122, .F.);
#122 = EDGE_CURVE('', #123, #123, #125, .T.);
#123 = VERTEX_POINT('', #124);
#124 = CARTESIAN_POINT('', (-6., 3.85763741731416E-15, -57.));
#125 = CIRCLE('', #126, 6.);
#126 = AXIS2_PLACEMENT_3D('', #127, #128, #129);
#127 = CARTESIAN_POINT('', (1.80411241501588E-15, 2.22044604925031E-16, -57.));
#128 = DIRECTION('', (1.1842378929335E-15, -3.85270076266768E-15, -1.));
#129 = DIRECTION('', (-1., 6.05932135398188E-16, -1.1842378929335E-15));
#130 = B_SPLINE_SURFACE_WITH_KNOTS('', 1, 1, ((#131, #132), (#133, #134)), .UNSPECIFIED., .F., .F., .U., (2, 2), (2, 2), (76.4762170923249, 88.4762170923249), (80.9581460811476, 92.9581460811476), .UNSPECIFIED.);
#131 = CARTESIAN_POINT('', (-6., 6.00000000000001, -57.));
#132 = CARTESIAN_POINT('', (6., 6.00000000000001, -57.));
#133 = CARTESIAN_POINT('', (-6., -6., -57.));
#134 = CARTESIAN_POINT('', (6., -6., -57.));
#135 = ADVANCED_FACE('', (#136), #155, .T.);
#136 = FACE_OUTER_BOUND('', #137, .T.);
#137 = EDGE_LOOP('', (#138, #139, #147, #154));
#138 = ORIENTED_EDGE('', *, *, #122, .T.);
#139 = ORIENTED_EDGE('', *, *, #140, .F.);
#140 = EDGE_CURVE('', #141, #123, #143, .T.);
#141 = VERTEX_POINT('', #142);
#142 = CARTESIAN_POINT('', (-6., 5.44967825620572E-15, -83.));
#143 = LINE('', #144, #145);
#144 = CARTESIAN_POINT('', (-6., 5.44967825620572E-15, -83.));
#145 = VECTOR('', #146, 26.);
#146 = DIRECTION('', (0., -1.59204083889156E-15, 26.));
#147 = ORIENTED_EDGE('', *, *, #148, .F.);
#148 = EDGE_CURVE('', #141, #141, #149, .T.);
#149 = CIRCLE('', #150, 6.);
#150 = AXIS2_PLACEMENT_3D('', #151, #152, #153);
#151 = CARTESIAN_POINT('', (-3.88578058618805E-16, -1.4432899320127E-15, -83.));
#152 = DIRECTION('', (0., 0., -1.));
#153 = DIRECTION('', (-1., 1.14882803136974E-15, 0.));
#154 = ORIENTED_EDGE('', *, *, #140, .T.);
#155 = (
   BOUNDED_SURFACE ()
   B_SPLINE_SURFACE (1, 2, ((#156, #157, #158, #159, #160, #161, #162, #163, #164), (#165, #166, #167, #168, #169, #170, #171, #172, #173)), .UNSPECIFIED., .F., .T., .U.)
   B_SPLINE_SURFACE_WITH_KNOTS ((2, 2), (3, 2, 2, 2, 3), (-0.855855855855856, -0.27027027027027), (0., 0.25, 0.5, 0.75, 1.), .UNSPECIFIED.)
   GEOMETRIC_REPRESENTATION_ITEM ()
   RATIONAL_B_SPLINE_SURFACE (((1., 0.707106781186548, 1., 0.707106781186548, 1., 0.707106781186548, 1., 0.707106781186548, 1.), (1., 0.707106781186548, 1., 0.707106781186548, 1., 0.707106781186548, 1., 0.707106781186548, 1.)))
   REPRESENTATION_ITEM ('')
   SURFACE ()
);
#156 = CARTESIAN_POINT('', (-6., -5.35721368707464E-15, -83.));
#157 = CARTESIAN_POINT('', (-6.00000000000001, 6., -83.));
#158 = CARTESIAN_POINT('', (-7.83403147360664E-15, 6., -83.));
#159 = CARTESIAN_POINT('', (5.99999999999999, 6.00000000000001, -83.));
#160 = CARTESIAN_POINT('', (6., 6.53609097641311E-15, -83.));
#161 = CARTESIAN_POINT('', (6.00000000000001, -5.99999999999999, -83.));
#162 = CARTESIAN_POINT('', (4.79406126936953E-15, -6., -83.));
#163 = CARTESIAN_POINT('', (-6., -6.00000000000001, -83.));
#164 = CARTESIAN_POINT('', (-6., -5.35721368707464E-15, -83.));
#165 = CARTESIAN_POINT('', (-6., 3.85763741731416E-15, -57.));
#166 = CARTESIAN_POINT('', (-6.00000000000001, 6., -57.));
#167 = CARTESIAN_POINT('', (-7.83403147360664E-15, 6.00000000000001, -57.));
#168 = CARTESIAN_POINT('', (5.99999999999999, 6.00000000000002, -57.));
#169 = CARTESIAN_POINT('', (6., 1.57509420808019E-14, -57.));
#170 = CARTESIAN_POINT('', (6.00000000000001, -5.99999999999998, -57.));
#171 = CARTESIAN_POINT('', (4.79406126936952E-15, -5.99999999999999, -57.));
#172 = CARTESIAN_POINT('', (-6., -6., -57.));
#173 = CARTESIAN_POINT('', (-6., 3.85763741731416E-15, -57.));
#174 = ADVANCED_FACE('', (#175), #178, .T.);
#175 = FACE_OUTER_BOUND('', #176, .T.);
#176 = EDGE_LOOP('', (#177));
#177 = ORIENTED_EDGE('', *, *, #148, .T.);
#178 = B_SPLINE_SURFACE_WITH_KNOTS('', 1, 1, ((#179, #180), (#181, #182)), .UNSPECIFIED., .F., .F., .U., (2, 2), (2, 2), (3.33380951166243, 15.3338095116624), (3.33380951166242, 15.3338095116624), .UNSPECIFIED.);
#179 = CARTESIAN_POINT('', (6., -6., -83.));
#180 = CARTESIAN_POINT('', (6., 6.00000000000001, -83.));
#181 = CARTESIAN_POINT('', (-6., -6., -83.));
#182 = CARTESIAN_POINT('', (-6., 6.00000000000001, -83.));
#183 = PRESENTATION_STYLE_ASSIGNMENT((#184));
#184 = SURFACE_STYLE_USAGE(.POSITIVE., #185);
#185 = SURFACE_SIDE_STYLE('', (#186));
#186 = SURFACE_STYLE_FILL_AREA(#187);
#187 = FILL_AREA_STYLE('', (#188));
#188 = FILL_AREA_STYLE_COLOUR('', #189);
#189 = COLOUR_RGB('', 0.8, 0.8, 0.8);
#190 = STYLED_ITEM('', (#183), #116);
#191 = TRIMMED_CURVE('cutting part line', #192, (#196), (#197), .T., .CARTESIAN.);
#192 = LINE('', #193, #194);
#193 = CARTESIAN_POINT('', (-6.41147307087945E-31, -3.49024337756996E-15, -57.));
#194 = VECTOR('', #195, 6.);
#195 = DIRECTION('', (6., -1.10218211923261E-15, 0.));
#196 = CARTESIAN_POINT('', (-6.41147307087945E-31, -3.49024337756996E-15, -57.));
#197 = CARTESIAN_POINT('', (6., -4.59242549680257E-15, -57.));
#198 = TRIMMED_CURVE('cutting part line', #199, (#203), (#204), .T., .CARTESIAN.);
#199 = LINE('', #200, #201);
#200 = CARTESIAN_POINT('', (6., -4.59242549680257E-15, -57.));
#201 = VECTOR('', #202, 26.);
#202 = DIRECTION('', (0., -1.59204083889156E-15, -26.));
#203 = CARTESIAN_POINT('', (6., -4.59242549680257E-15, -57.));
#204 = CARTESIAN_POINT('', (6., -6.18446633569413E-15, -83.));
#205 = TRIMMED_CURVE('cutting part line', #206, (#210), (#211), .T., .CARTESIAN.);
#206 = LINE('', #207, #208);
#207 = CARTESIAN_POINT('', (6., -6.18446633569413E-15, -83.));
#208 = VECTOR('', #209, 6.);
#209 = DIRECTION('', (-6., 1.10218211923261E-15, 0.));
#210 = CARTESIAN_POINT('', (6., -6.18446633569413E-15, -83.));
#211 = CARTESIAN_POINT('', (-6.22400309804671E-31, -5.08228421646152E-15, -83.));
#212 = TRIMMED_CURVE('cutting part line', #213, (#217), (#218), .T., .CARTESIAN.);
#213 = LINE('', #214, #215);
#214 = CARTESIAN_POINT('', (-9.33600464707006E-31, -5.08228421646152E-15, -83.));
#215 = VECTOR('', #216, 26.);
#216 = DIRECTION('', (2.92453157619062E-31, 1.59204083889156E-15, 26.));
#217 = CARTESIAN_POINT('', (-9.33600464707006E-31, -5.08228421646152E-15, -83.));
#218 = CARTESIAN_POINT('', (-6.41147307087945E-31, -3.49024337756996E-15, -57.));
#219 = COMPOSITE_CURVE('cutting part line', (#220, #221, #222, #223), .U.);
#220 = COMPOSITE_CURVE_SEGMENT(.CONTINUOUS., .T., #191);
#221 = COMPOSITE_CURVE_SEGMENT(.CONTINUOUS., .T., #198);
#222 = COMPOSITE_CURVE_SEGMENT(.CONTINUOUS., .T., #205);
#223 = COMPOSITE_CURVE_SEGMENT(.CONTINUOUS., .T., #212);
#224 = GEOMETRIC_SET('', (#219, #262));
#225 = PRESENTATION_STYLE_ASSIGNMENT((#226));
#226 = CURVE_STYLE('', #228, POSITIVE_LENGTH_MEASURE(1.E-6), #227);
#227 = COLOUR_RGB('', 0., 0., 1.);
#228 = DRAUGHTING_PRE_DEFINED_CURVE_FONT('continuous');
#229 = STYLED_ITEM('', (#225), #219);
#230 = PRESENTATION_STYLE_ASSIGNMENT((#231));
#231 = CURVE_STYLE('', #233, POSITIVE_LENGTH_MEASURE(1.E-6), #232);
#232 = COLOUR_RGB('', 0., 0., 1.);
#233 = DRAUGHTING_PRE_DEFINED_CURVE_FONT('continuous');
#234 = OVER_RIDING_STYLED_ITEM('', (#230), #191, #229);
#235 = PRESENTATION_STYLE_ASSIGNMENT((#236));
#236 = CURVE_STYLE('', #238, POSITIVE_LENGTH_MEASURE(1.E-6), #237);
#237 = COLOUR_RGB('', 0., 0., 1.);
#238 = DRAUGHTING_PRE_DEFINED_CURVE_FONT('continuous');
#239 = OVER_RIDING_STYLED_ITEM('', (#235), #198, #229);
#240 = PRESENTATION_STYLE_ASSIGNMENT((#241));
#241 = CURVE_STYLE('', #243, POSITIVE_LENGTH_MEASURE(1.E-6), #242);
#242 = COLOUR_RGB('', 0., 0., 1.);
#243 = DRAUGHTING_PRE_DEFINED_CURVE_FONT('continuous');
#244 = OVER_RIDING_STYLED_ITEM('', (#240), #205, #229);
#245 = PRESENTATION_STYLE_ASSIGNMENT((#246));
#246 = CURVE_STYLE('', #248, POSITIVE_LENGTH_MEASURE(1.E-6), #247);
#247 = COLOUR_RGB('', 0., 0., 1.);
#248 = DRAUGHTING_PRE_DEFINED_CURVE_FONT('continuous');
#249 = OVER_RIDING_STYLED_ITEM('', (#245), #212, #229);
#250 = AXIS2_PLACEMENT_3D('CIP', #251, #252, #253);
#251 = CARTESIAN_POINT('', (3.11200154902335E-31, 5.08228421646152E-15, -83.));
#252 = DIRECTION('', (-3.74939945665465E-33, -6.12323399573677E-17, 1.));
#253 = DIRECTION('', (1., -6.12323399573677E-17, 0.));
#254 = AXIS2_PLACEMENT_3D('MCS', #255, #256, #257);
#255 = CARTESIAN_POINT('', (1.68722975549459E-31, 2.75545529808154E-15, -45.));
#256 = DIRECTION('', (-3.74939945665465E-33, -6.12323399573677E-17, 1.));
#257 = DIRECTION('', (1., -6.12323399573677E-17, 0.));
#258 = AXIS2_PLACEMENT_3D('PCS', #259, #260, #261);
#259 = CARTESIAN_POINT('', (0., 0., 0.));
#260 = DIRECTION('', (0., 0., 1.));
#261 = DIRECTION('', (1., 0., 0.));
#262 = CARTESIAN_POINT('CRP', (6., 0., -83.));
#263 = (
   GEOMETRIC_REPRESENTATION_CONTEXT (3)
   GLOBAL_UNCERTAINTY_ASSIGNED_CONTEXT ((#265))
   GLOBAL_UNIT_ASSIGNED_CONTEXT ((#264, #266, #267))
   REPRESENTATION_CONTEXT ('', '3D')
);
#264 = (
   LENGTH_UNIT ()
   NAMED_UNIT (*)
   SI_UNIT (.MILLI., .METRE.)
);
#265 = UNCERTAINTY_MEASURE_WITH_UNIT(LENGTH_MEASURE(1.E-6), #264, 'DISTANCE_ACCURACY_VALUE', '');
#266 = (
   NAMED_UNIT (*)
   SI_UNIT ($, .STERADIAN.)
   SOLID_ANGLE_UNIT ()
);
#267 = (
   NAMED_UNIT (*)
   PLANE_ANGLE_UNIT ()
   SI_UNIT ($, .RADIAN.)
);
#268 = SHAPE_REPRESENTATION('', (), #263);
#269 = PRODUCT_DEFINITION_SHAPE('', '', #270);
#270 = PRODUCT_DEFINITION('', '', #273, #277);
#271 = APPLICATION_CONTEXT('configuration controlled 3D designs of mechanical parts and assemblies');
#272 = APPLICATION_PROTOCOL_DEFINITION('International Standard', 'automotive_design', 2002, #271);
#273 = PRODUCT_DEFINITION_FORMATION_WITH_SPECIFIED_SOURCE('', '', #274, .NOT_KNOWN.);
#274 = PRODUCT('EmptyName', 'EmptyName', '', (#275));
#275 = PRODUCT_CONTEXT('', #271, 'mechanical');
#276 = PRODUCT_RELATED_PRODUCT_CATEGORY('detail', '', (#274));
#277 = PRODUCT_DEFINITION_CONTEXT('part definition', #271, 'design');
#278 = SHAPE_DEFINITION_REPRESENTATION(#269, #268);
#279 = CONSTRUCTIVE_GEOMETRY_REPRESENTATION('supplemental geometry', (#250, #254, #258), #263);
#280 = CONSTRUCTIVE_GEOMETRY_REPRESENTATION_RELATIONSHIP('', '', #268, #279);
#281 = SHAPE_REPRESENTATION_RELATIONSHIP('', '', #268, #282);
#282 = SHAPE_REPRESENTATION('', (#224), #263);
#283 = SHAPE_REPRESENTATION_RELATIONSHIP('', '', #268, #284);
#284 = ADVANCED_BREP_SHAPE_REPRESENTATION('', (#1, #116), #263);
ENDSEC;
END-ISO-10303-21;
