ISO-10303-21;
HEADER;
FILE_DESCRIPTION(('STEP'), '1');
FILE_NAME('C:\\Users\\ds2002\\OneDrive - Sandvik\\HomeShare\\Documents\\Batchrepair\\CorSRT2\\NEW_MILSQ_SLD\\Output\\MOD000000000000000020084625000000.stp', '2019-01-02T12:11:10', (''), (''), 'Express v3.0.0.0', 'Express Tool', 'Unknown');
FILE_SCHEMA(('AUTOMOTIVE_DESIGN'));
ENDSEC;

DATA;
#1 = MANIFOLD_SOLID_BREP('NOCUT', #2);
#2 = CLOSED_SHELL('', (#3, #31, #78, #87, #118, #157));
#3 = ADVANCED_FACE('', (#4, #15), #26, .T.);
#4 = FACE_OUTER_BOUND('', #5, .T.);
#5 = EDGE_LOOP('', (#6));
#6 = ORIENTED_EDGE('', *, *, #7, .F.);
#7 = EDGE_CURVE('', #8, #8, #10, .T.);
#8 = VERTEX_POINT('', #9);
#9 = CARTESIAN_POINT('', (-5., 2.75545529808154E-15, -40.));
#10 = CIRCLE('', #11, 5.);
#11 = AXIS2_PLACEMENT_3D('', #12, #13, #14);
#12 = CARTESIAN_POINT('', (1.38777878078145E-16, 9.99200722162641E-16, -40.));
#13 = DIRECTION('', (0., 0., -1.));
#14 = DIRECTION('', (-1., 3.5125091518378E-16, 0.));
#15 = FACE_BOUND('', #16, .T.);
#16 = EDGE_LOOP('', (#17));
#17 = ORIENTED_EDGE('', *, *, #18, .T.);
#18 = EDGE_CURVE('', #19, #19, #21, .T.);
#19 = VERTEX_POINT('', #20);
#20 = CARTESIAN_POINT('', (-3., 2.63299061816681E-15, -40.));
#21 = CIRCLE('', #22, 3.);
#22 = AXIS2_PLACEMENT_3D('', #23, #24, #25);
#23 = CARTESIAN_POINT('', (-2.91433543964104E-16, 1.11022302462516E-15, -40.));
#24 = DIRECTION('', (0., 0., -1.));
#25 = DIRECTION('', (-1., 5.07589197847218E-16, 0.));
#26 = B_SPLINE_SURFACE_WITH_KNOTS('', 1, 1, ((#27, #28), (#29, #30)), .UNSPECIFIED., .F., .F., .U., (2, 2), (2, 2), (2.77817459305202, 12.778174593052), (2.77817459305202, 12.778174593052), .UNSPECIFIED.);
#27 = CARTESIAN_POINT('', (5., -5., -40.));
#28 = CARTESIAN_POINT('', (-5., -5., -40.));
#29 = CARTESIAN_POINT('', (5., 5., -40.));
#30 = CARTESIAN_POINT('', (-5., 5., -40.));
#31 = ADVANCED_FACE('', (#32), #59, .T.);
#32 = FACE_OUTER_BOUND('', #33, .T.);
#33 = EDGE_LOOP('', (#34, #44, #51, #52));
#34 = ORIENTED_EDGE('', *, *, #35, .T.);
#35 = EDGE_CURVE('', #36, #38, #40, .T.);
#36 = VERTEX_POINT('', #37);
#37 = CARTESIAN_POINT('', (-3., 2.02066721859313E-16, -0.299999999999997));
#38 = VERTEX_POINT('', #39);
#39 = CARTESIAN_POINT('', (-2.7, 1.65327317884893E-16, 0.));
#40 = LINE('', #41, #42);
#41 = CARTESIAN_POINT('', (-3., 2.02066721859313E-16, -0.299999999999997));
#42 = VECTOR('', #43, 0.424264068711926);
#43 = DIRECTION('', (0.3, -3.673940397442E-17, 0.299999999999997));
#44 = ORIENTED_EDGE('', *, *, #45, .T.);
#45 = EDGE_CURVE('', #38, #38, #46, .T.);
#46 = CIRCLE('', #47, 2.7);
#47 = AXIS2_PLACEMENT_3D('', #48, #49, #50);
#48 = CARTESIAN_POINT('', (3.46944695195361E-16, -5.55111512312578E-17, 0.));
#49 = DIRECTION('', (5.00831711725362E-33, 6.12323399573678E-17, -1.));
#50 = DIRECTION('', (-1., -1.63137334230896E-16, -1.49975978266186E-32));
#51 = ORIENTED_EDGE('', *, *, #35, .F.);
#52 = ORIENTED_EDGE('', *, *, #53, .F.);
#53 = EDGE_CURVE('', #36, #36, #54, .T.);
#54 = CIRCLE('', #55, 3.);
#55 = AXIS2_PLACEMENT_3D('', #56, #57, #58);
#56 = CARTESIAN_POINT('', (-8.32667268468867E-16, 1.66533453693773E-16, -0.299999999999997));
#57 = DIRECTION('', (7.45939217764516E-34, 6.29780982393227E-17, -1.));
#58 = DIRECTION('', (-1., 1.18444227218465E-17, 0.));
#59 = (
   BOUNDED_SURFACE ()
   B_SPLINE_SURFACE (1, 2, ((#60, #61, #62, #63, #64, #65, #66, #67, #68), (#69, #70, #71, #72, #73, #74, #75, #76, #77)), .UNSPECIFIED., .F., .T., .U.)
   B_SPLINE_SURFACE_WITH_KNOTS ((2, 2), (3, 2, 2, 2, 3), (0., 1.), (0., 0.25, 0.5, 0.75, 1.), .UNSPECIFIED.)
   GEOMETRIC_REPRESENTATION_ITEM ()
   RATIONAL_B_SPLINE_SURFACE (((1., 0.707106781186548, 1., 0.707106781186548, 1., 0.707106781186548, 1., 0.707106781186548, 1.), (1., 0.707106781186548, 1., 0.707106781186548, 1., 0.707106781186548, 1., 0.707106781186548, 1.)))
   REPRESENTATION_ITEM ('')
   SURFACE ()
);
#60 = CARTESIAN_POINT('', (-3., 1.49129302665284E-15, -0.299999999999997));
#61 = CARTESIAN_POINT('', (-3., 3., -0.299999999999985));
#62 = CARTESIAN_POINT('', (2.34149119846292E-15, 3., -0.299999999999985));
#63 = CARTESIAN_POINT('', (3., 3., -0.299999999999985));
#64 = CARTESIAN_POINT('', (3., -1.34594359183367E-15, -0.299999999999997));
#65 = CARTESIAN_POINT('', (3., -3., -0.300000000000009));
#66 = CARTESIAN_POINT('', (-1.28351380279387E-16, -3., -0.300000000000009));
#67 = CARTESIAN_POINT('', (-3., -3., -0.300000000000009));
#68 = CARTESIAN_POINT('', (-3., 1.49129302665284E-15, -0.299999999999997));
#69 = CARTESIAN_POINT('', (-2.7, 1.65327317884893E-16, -2.18952885050753E-47));
#70 = CARTESIAN_POINT('', (-2.7, 2.7, 1.04916075827078E-14));
#71 = CARTESIAN_POINT('', (2.19962936753859E-15, 2.7, 1.04916075827078E-14));
#72 = CARTESIAN_POINT('', (2.7, 2.7, 1.04916075827078E-14));
#73 = CARTESIAN_POINT('', (2.7, -2.38818563875297E-15, 1.12461399303431E-30));
#74 = CARTESIAN_POINT('', (2.7, -2.7, -1.04916075827078E-14));
#75 = CARTESIAN_POINT('', (-2.32289533294833E-17, -2.7, -1.04916075827078E-14));
#76 = CARTESIAN_POINT('', (-2.7, -2.7, -1.04916075827078E-14));
#77 = CARTESIAN_POINT('', (-2.7, 1.65327317884893E-16, -2.18952885050753E-47));
#78 = ADVANCED_FACE('', (#79), #82, .T.);
#79 = FACE_OUTER_BOUND('', #80, .T.);
#80 = EDGE_LOOP('', (#81));
#81 = ORIENTED_EDGE('', *, *, #45, .F.);
#82 = B_SPLINE_SURFACE_WITH_KNOTS('', 1, 1, ((#83, #84), (#85, #86)), .UNSPECIFIED., .F., .F., .U., (2, 2), (2, 2), (1.50021428024809, 6.90021428024809), (1.50021428024809, 6.90021428024809), .UNSPECIFIED.);
#83 = CARTESIAN_POINT('', (2.7, -2.7, -7.27075467548589E-15));
#84 = CARTESIAN_POINT('', (-2.7, -2.7, -7.27075467548589E-15));
#85 = CARTESIAN_POINT('', (2.7, 2.7, 7.27075467548589E-15));
#86 = CARTESIAN_POINT('', (-2.7, 2.7, 7.27075467548589E-15));
#87 = ADVANCED_FACE('', (#88), #99, .T.);
#88 = FACE_OUTER_BOUND('', #89, .T.);
#89 = EDGE_LOOP('', (#90, #96, #97, #98));
#90 = ORIENTED_EDGE('', *, *, #91, .T.);
#91 = EDGE_CURVE('', #19, #36, #92, .T.);
#92 = LINE('', #93, #94);
#93 = CARTESIAN_POINT('', (-3., 2.63299061816681E-15, -40.));
#94 = VECTOR('', #95, 39.7);
#95 = DIRECTION('', (0., -2.4309238963075E-15, 39.7));
#96 = ORIENTED_EDGE('', *, *, #53, .T.);
#97 = ORIENTED_EDGE('', *, *, #91, .F.);
#98 = ORIENTED_EDGE('', *, *, #18, .F.);
#99 = (
   BOUNDED_SURFACE ()
   B_SPLINE_SURFACE (1, 2, ((#100, #101, #102, #103, #104, #105, #106, #107, #108), (#109, #110, #111, #112, #113, #114, #115, #116, #117)), .UNSPECIFIED., .F., .T., .U.)
   B_SPLINE_SURFACE_WITH_KNOTS ((2, 2), (3, 2, 2, 2, 3), (0., 1.), (0., 4.7123889803847, 9.4247779607694, 14.1371669411541, 18.8495559215388), .UNSPECIFIED.)
   GEOMETRIC_REPRESENTATION_ITEM ()
   RATIONAL_B_SPLINE_SURFACE (((1., 0.707106781186548, 1., 0.707106781186548, 1., 0.707106781186548, 1., 0.707106781186548, 1.), (1., 0.707106781186548, 1., 0.707106781186548, 1., 0.707106781186548, 1., 0.707106781186548, 1.)))
   REPRESENTATION_ITEM ('')
   SURFACE ()
);
#100 = CARTESIAN_POINT('', (-3., 1.09024514155944E-15, -40.));
#101 = CARTESIAN_POINT('', (-3., 3., -40.));
#102 = CARTESIAN_POINT('', (2.51729669324767E-15, 3., -40.));
#103 = CARTESIAN_POINT('', (3., 3., -40.));
#104 = CARTESIAN_POINT('', (3., -2.72125254614051E-15, -40.));
#105 = CARTESIAN_POINT('', (3., -3., -40.));
#106 = CARTESIAN_POINT('', (-9.26806954708078E-16, -3., -40.));
#107 = CARTESIAN_POINT('', (-3., -3., -40.));
#108 = CARTESIAN_POINT('', (-3., 1.09024514155944E-15, -40.));
#109 = CARTESIAN_POINT('', (-3., 2.02066721859312E-16, -0.299999999999997));
#110 = CARTESIAN_POINT('', (-3., 3., -0.299999999999997));
#111 = CARTESIAN_POINT('', (3.25189426120798E-15, 3., -0.299999999999997));
#112 = CARTESIAN_POINT('', (3., 3., -0.299999999999997));
#113 = CARTESIAN_POINT('', (3., -3.60943096584064E-15, -0.299999999999997));
#114 = CARTESIAN_POINT('', (3., -3., -0.299999999999997));
#115 = CARTESIAN_POINT('', (-1.92209386747767E-16, -3., -0.299999999999997));
#116 = CARTESIAN_POINT('', (-3., -3., -0.299999999999997));
#117 = CARTESIAN_POINT('', (-3., 2.02066721859312E-16, -0.299999999999997));
#118 = ADVANCED_FACE('', (#119), #138, .T.);
#119 = FACE_OUTER_BOUND('', #120, .T.);
#120 = EDGE_LOOP('', (#121, #130, #136, #137));
#121 = ORIENTED_EDGE('', *, *, #122, .F.);
#122 = EDGE_CURVE('', #123, #123, #125, .T.);
#123 = VERTEX_POINT('', #124);
#124 = CARTESIAN_POINT('', (-5., 3.36777869765522E-15, -50.));
#125 = CIRCLE('', #126, 5.);
#126 = AXIS2_PLACEMENT_3D('', #127, #128, #129);
#127 = CARTESIAN_POINT('', (1.38777878078145E-16, 1.55431223447522E-15, -50.));
#128 = DIRECTION('', (0., 0., -1.));
#129 = DIRECTION('', (-1., 3.62693292636E-16, 0.));
#130 = ORIENTED_EDGE('', *, *, #131, .F.);
#131 = EDGE_CURVE('', #8, #123, #132, .T.);
#132 = LINE('', #133, #134);
#133 = CARTESIAN_POINT('', (-5., 2.75545529808154E-15, -40.));
#134 = VECTOR('', #135, 10.);
#135 = DIRECTION('', (0., 6.1232339957368E-16, -10.));
#136 = ORIENTED_EDGE('', *, *, #7, .T.);
#137 = ORIENTED_EDGE('', *, *, #131, .T.);
#138 = (
   BOUNDED_SURFACE ()
   B_SPLINE_SURFACE (2, 1, ((#139, #140), (#141, #142), (#143, #144), (#145, #146), (#147, #148), (#149, #150), (#151, #152), (#153, #154), (#155, #156)), .UNSPECIFIED., .T., .F., .U.)
   B_SPLINE_SURFACE_WITH_KNOTS ((3, 2, 2, 2, 3), (2, 2), (0., 7.85398163397448, 15.707963267949, 23.5619449019234, 31.4159265358979), (0., 0.313479623824451), .UNSPECIFIED.)
   GEOMETRIC_REPRESENTATION_ITEM ()
   RATIONAL_B_SPLINE_SURFACE (((1., 1.), (0.707106781186548, 0.707106781186548), (1., 1.), (0.707106781186548, 0.707106781186548), (1., 1.), (0.707106781186548, 0.707106781186548), (1., 1.), (0.707106781186548, 0.707106781186548), (1., 1.)))
   REPRESENTATION_ITEM ('')
   SURFACE ()
);
#139 = CARTESIAN_POINT('', (-5., 2.75545529808154E-15, -40.));
#140 = CARTESIAN_POINT('', (-5., 8.68076156218774E-16, -50.));
#141 = CARTESIAN_POINT('', (-5., 5., -40.));
#142 = CARTESIAN_POINT('', (-5., 5., -50.));
#143 = CARTESIAN_POINT('', (3.05991626183854E-15, 5., -40.));
#144 = CARTESIAN_POINT('', (3.05991626183854E-15, 5., -50.));
#145 = CARTESIAN_POINT('', (5., 5., -40.));
#146 = CARTESIAN_POINT('', (5., 5., -50.));
#147 = CARTESIAN_POINT('', (5., -1.6990426886578E-15, -40.));
#148 = CARTESIAN_POINT('', (5., -3.58642183052057E-15, -50.));
#149 = CARTESIAN_POINT('', (5., -5., -40.));
#150 = CARTESIAN_POINT('', (5., -5., -50.));
#151 = CARTESIAN_POINT('', (-7.82258325327126E-16, -5., -40.));
#152 = CARTESIAN_POINT('', (-7.82258325327127E-16, -5., -50.));
#153 = CARTESIAN_POINT('', (-5., -5., -40.));
#154 = CARTESIAN_POINT('', (-5., -5., -50.));
#155 = CARTESIAN_POINT('', (-5., 2.75545529808154E-15, -40.));
#156 = CARTESIAN_POINT('', (-5., 8.68076156218774E-16, -50.));
#157 = ADVANCED_FACE('', (#158), #161, .T.);
#158 = FACE_OUTER_BOUND('', #159, .T.);
#159 = EDGE_LOOP('', (#160));
#160 = ORIENTED_EDGE('', *, *, #122, .T.);
#161 = B_SPLINE_SURFACE_WITH_KNOTS('', 1, 1, ((#162, #163), (#164, #165)), .UNSPECIFIED., .F., .F., .U., (2, 2), (2, 2), (70.3201954408555, 80.3201954408555), (66.4313052124605, 76.4313052124605), .UNSPECIFIED.);
#162 = CARTESIAN_POINT('', (-5., 5., -50.));
#163 = CARTESIAN_POINT('', (-5., -5., -50.));
#164 = CARTESIAN_POINT('', (5., 5., -50.));
#165 = CARTESIAN_POINT('', (5., -5., -50.));
#166 = DRAUGHTING_MODEL('', (#174, #288, #335, #340, #345, #350, #355, #360), #374);
#167 = PRESENTATION_STYLE_ASSIGNMENT((#168));
#168 = SURFACE_STYLE_USAGE(.POSITIVE., #169);
#169 = SURFACE_SIDE_STYLE('', (#170));
#170 = SURFACE_STYLE_FILL_AREA(#171);
#171 = FILL_AREA_STYLE('', (#172));
#172 = FILL_AREA_STYLE_COLOUR('', #173);
#173 = COLOUR_RGB('', 0.50196078431373, 0.50196078431373, 0.50196078431373);
#174 = STYLED_ITEM('', (#167), #1);
#175 = MANIFOLD_SOLID_BREP('CUT', #176);
#176 = CLOSED_SHELL('', (#177, #194, #233, #272));
#177 = ADVANCED_FACE('', (#178), #189, .T.);
#178 = FACE_OUTER_BOUND('', #179, .T.);
#179 = EDGE_LOOP('', (#180));
#180 = ORIENTED_EDGE('', *, *, #181, .F.);
#181 = EDGE_CURVE('', #182, #182, #184, .T.);
#182 = VERTEX_POINT('', #183);
#183 = CARTESIAN_POINT('', (-5., 3.36777869765522E-15, -50.));
#184 = CIRCLE('', #185, 5.);
#185 = AXIS2_PLACEMENT_3D('', #186, #187, #188);
#186 = CARTESIAN_POINT('', (1.38777878078145E-16, 1.55431223447522E-15, -50.));
#187 = DIRECTION('', (0., 0., -1.));
#188 = DIRECTION('', (-1., 3.62693292636E-16, 0.));
#189 = B_SPLINE_SURFACE_WITH_KNOTS('', 1, 1, ((#190, #191), (#192, #193)), .UNSPECIFIED., .F., .F., .U., (2, 2), (2, 2), (66.4313052124605, 76.4313052124605), (70.3201954408555, 80.3201954408555), .UNSPECIFIED.);
#190 = CARTESIAN_POINT('', (-5., 5., -50.));
#191 = CARTESIAN_POINT('', (5., 5., -50.));
#192 = CARTESIAN_POINT('', (-5., -5., -50.));
#193 = CARTESIAN_POINT('', (5., -5., -50.));
#194 = ADVANCED_FACE('', (#195), #214, .T.);
#195 = FACE_OUTER_BOUND('', #196, .T.);
#196 = EDGE_LOOP('', (#197, #198, #206, #213));
#197 = ORIENTED_EDGE('', *, *, #181, .T.);
#198 = ORIENTED_EDGE('', *, *, #199, .T.);
#199 = EDGE_CURVE('', #182, #200, #202, .T.);
#200 = VERTEX_POINT('', #201);
#201 = CARTESIAN_POINT('', (-5., 4.70876694272157E-15, -71.9));
#202 = LINE('', #203, #204);
#203 = CARTESIAN_POINT('', (-5., 3.36777869765522E-15, -50.));
#204 = VECTOR('', #205, 21.9);
#205 = DIRECTION('', (0., 1.34098824506635E-15, -21.9));
#206 = ORIENTED_EDGE('', *, *, #207, .F.);
#207 = EDGE_CURVE('', #200, #200, #208, .T.);
#208 = CIRCLE('', #209, 5.);
#209 = AXIS2_PLACEMENT_3D('', #210, #211, #212);
#210 = CARTESIAN_POINT('', (5.55111512312578E-17, 2.88657986402541E-15, -71.9));
#211 = DIRECTION('', (0., 0., -1.));
#212 = DIRECTION('', (-1., 3.64437415739233E-16, 0.));
#213 = ORIENTED_EDGE('', *, *, #199, .F.);
#214 = (
   BOUNDED_SURFACE ()
   B_SPLINE_SURFACE (2, 1, ((#215, #216), (#217, #218), (#219, #220), (#221, #222), (#223, #224), (#225, #226), (#227, #228), (#229, #230), (#231, #232)), .UNSPECIFIED., .T., .F., .U.)
   B_SPLINE_SURFACE_WITH_KNOTS ((3, 2, 2, 2, 3), (2, 2), (0., 7.85398163397448, 15.707963267949, 23.5619449019234, 31.4159265358979), (0.313479623824451, 1.), .UNSPECIFIED.)
   GEOMETRIC_REPRESENTATION_ITEM ()
   RATIONAL_B_SPLINE_SURFACE (((1., 1.), (0.707106781186548, 0.707106781186548), (1., 1.), (0.707106781186548, 0.707106781186548), (1., 1.), (0.707106781186548, 0.707106781186548), (1., 1.), (0.707106781186548, 0.707106781186548), (1., 1.)))
   REPRESENTATION_ITEM ('')
   SURFACE ()
);
#215 = CARTESIAN_POINT('', (-5., 3.36777869765522E-15, -50.));
#216 = CARTESIAN_POINT('', (-5., 3.47880100011773E-15, -71.9));
#217 = CARTESIAN_POINT('', (-4.99999999999999, 5., -50.));
#218 = CARTESIAN_POINT('', (-4.99999999999999, 5., -71.9));
#219 = CARTESIAN_POINT('', (5.7677856203922E-15, 5., -50.));
#220 = CARTESIAN_POINT('', (5.7677856203922E-15, 5., -71.9));
#221 = CARTESIAN_POINT('', (5.00000000000001, 4.99999999999999, -50.));
#222 = CARTESIAN_POINT('', (5.00000000000001, 4.99999999999999, -71.9));
#223 = CARTESIAN_POINT('', (5., -6.08612437195701E-15, -50.));
#224 = CARTESIAN_POINT('', (5., -5.9751020694945E-15, -71.9));
#225 = CARTESIAN_POINT('', (5., -5.00000000000001, -50.));
#226 = CARTESIAN_POINT('', (5., -5.00000000000001, -71.9));
#227 = CARTESIAN_POINT('', (-3.07379404964635E-15, -5., -50.));
#228 = CARTESIAN_POINT('', (-3.07379404964635E-15, -5., -71.9));
#229 = CARTESIAN_POINT('', (-5., -5., -50.));
#230 = CARTESIAN_POINT('', (-5., -5., -71.9));
#231 = CARTESIAN_POINT('', (-5., 3.36777869765522E-15, -50.));
#232 = CARTESIAN_POINT('', (-5., 3.47880100011773E-15, -71.9));
#233 = ADVANCED_FACE('', (#234), #253, .T.);
#234 = FACE_OUTER_BOUND('', #235, .T.);
#235 = EDGE_LOOP('', (#236, #244, #245, #246));
#236 = ORIENTED_EDGE('', *, *, #237, .F.);
#237 = EDGE_CURVE('', #200, #238, #240, .T.);
#238 = VERTEX_POINT('', #239);
#239 = CARTESIAN_POINT('', (-4.9, 4.70876694272157E-15, -72.));
#240 = LINE('', #241, #242);
#241 = CARTESIAN_POINT('', (-5., 4.70876694272157E-15, -71.9));
#242 = VECTOR('', #243, 0.141421356237305);
#243 = DIRECTION('', (0.0999999999999996, 0., -0.0999999999999943));
#244 = ORIENTED_EDGE('', *, *, #207, .T.);
#245 = ORIENTED_EDGE('', *, *, #237, .T.);
#246 = ORIENTED_EDGE('', *, *, #247, .F.);
#247 = EDGE_CURVE('', #238, #238, #248, .T.);
#248 = CIRCLE('', #249, 4.9);
#249 = AXIS2_PLACEMENT_3D('', #250, #251, #252);
#250 = CARTESIAN_POINT('', (2.91433543964104E-16, -2.33146835171283E-15, -72.));
#251 = DIRECTION('', (0., 0., -1.));
#252 = DIRECTION('', (-1., 1.43678271314988E-15, 0.));
#253 = (
   BOUNDED_SURFACE ()
   B_SPLINE_SURFACE (2, 1, ((#254, #255), (#256, #257), (#258, #259), (#260, #261), (#262, #263), (#264, #265), (#266, #267), (#268, #269), (#270, #271)), .UNSPECIFIED., .T., .F., .U.)
   B_SPLINE_SURFACE_WITH_KNOTS ((3, 2, 2, 2, 3), (2, 2), (0., 0.25, 0.5, 0.75, 1.), (0., 1.), .UNSPECIFIED.)
   GEOMETRIC_REPRESENTATION_ITEM ()
   RATIONAL_B_SPLINE_SURFACE (((1., 1.), (0.707106781186548, 0.707106781186548), (1., 1.), (0.707106781186548, 0.707106781186548), (1., 1.), (0.707106781186548, 0.707106781186548), (1., 1.), (0.707106781186548, 0.707106781186548), (1., 1.)))
   REPRESENTATION_ITEM ('')
   SURFACE ()
);
#254 = CARTESIAN_POINT('', (-5., 4.70876694272157E-15, -71.9));
#255 = CARTESIAN_POINT('', (-4.9, 8.89561158682174E-15, -72.));
#256 = CARTESIAN_POINT('', (-4.99999999999999, 5., -71.8999999999998));
#257 = CARTESIAN_POINT('', (-4.89999999999999, 4.90000000000001, -71.9999999999998));
#258 = CARTESIAN_POINT('', (6.69244023122412E-15, 5., -71.8999999999998));
#259 = CARTESIAN_POINT('', (6.55553831328192E-15, 4.9, -71.9999999999998));
#260 = CARTESIAN_POINT('', (5.00000000000001, 4.99999999999999, -71.8999999999998));
#261 = CARTESIAN_POINT('', (4.90000000000001, 4.9, -71.9999999999998));
#262 = CARTESIAN_POINT('', (5., -8.98142485149858E-15, -71.9));
#263 = CARTESIAN_POINT('', (4.9, -4.52077637151401E-15, -72.));
#264 = CARTESIAN_POINT('', (4.99999999999999, -5.00000000000001, -71.9000000000002));
#265 = CARTESIAN_POINT('', (4.89999999999999, -4.9, -72.0000000000002));
#266 = CARTESIAN_POINT('', (-6.38542816342236E-15, -5., -71.9000000000002));
#267 = CARTESIAN_POINT('', (-6.26077271347162E-15, -4.9, -72.0000000000002));
#268 = CARTESIAN_POINT('', (-5.00000000000001, -5., -71.9000000000002));
#269 = CARTESIAN_POINT('', (-4.90000000000001, -4.89999999999999, -72.0000000000002));
#270 = CARTESIAN_POINT('', (-5., 4.70876694272157E-15, -71.9));
#271 = CARTESIAN_POINT('', (-4.9, 8.89561158682174E-15, -72.));
#272 = ADVANCED_FACE('', (#273), #276, .T.);
#273 = FACE_OUTER_BOUND('', #274, .T.);
#274 = EDGE_LOOP('', (#275));
#275 = ORIENTED_EDGE('', *, *, #247, .T.);
#276 = B_SPLINE_SURFACE_WITH_KNOTS('', 1, 1, ((#277, #278), (#279, #280)), .UNSPECIFIED., .F., .F., .U., (2, 2), (2, 2), (2.72261110119098, 12.522611101191), (2.72261110119098, 12.522611101191), .UNSPECIFIED.);
#277 = CARTESIAN_POINT('', (4.9, -4.9, -72.));
#278 = CARTESIAN_POINT('', (4.9, 4.9, -72.));
#279 = CARTESIAN_POINT('', (-4.9, -4.9, -72.));
#280 = CARTESIAN_POINT('', (-4.9, 4.9, -72.));
#281 = PRESENTATION_STYLE_ASSIGNMENT((#282));
#282 = SURFACE_STYLE_USAGE(.POSITIVE., #283);
#283 = SURFACE_SIDE_STYLE('', (#284));
#284 = SURFACE_STYLE_FILL_AREA(#285);
#285 = FILL_AREA_STYLE('', (#286));
#286 = FILL_AREA_STYLE_COLOUR('', #287);
#287 = COLOUR_RGB('', 0.8, 0.8, 0.8);
#288 = STYLED_ITEM('', (#281), #175);
#289 = TRIMMED_CURVE('cutting part line', #290, (#294), (#295), .T., .CARTESIAN.);
#290 = LINE('', #291, #292);
#291 = CARTESIAN_POINT('', (-5.62409918498196E-31, -3.06161699786838E-15, -50.));
#292 = VECTOR('', #293, 5.);
#293 = DIRECTION('', (5., -9.18485099360517E-16, 0.));
#294 = CARTESIAN_POINT('', (-5.62409918498196E-31, -3.06161699786838E-15, -50.));
#295 = CARTESIAN_POINT('', (5., -3.9801020972289E-15, -50.));
#296 = TRIMMED_CURVE('cutting part line', #297, (#301), (#302), .T., .CARTESIAN.);
#297 = LINE('', #298, #299);
#298 = CARTESIAN_POINT('', (5., -3.9801020972289E-15, -50.));
#299 = VECTOR('', #300, 21.9);
#300 = DIRECTION('', (0., -1.34098824506635E-15, -21.9));
#301 = CARTESIAN_POINT('', (5., -3.9801020972289E-15, -50.));
#302 = CARTESIAN_POINT('', (5., -5.32109034229525E-15, -71.9));
#303 = TRIMMED_CURVE('cutting part line', #304, (#308), (#309), .T., .CARTESIAN.);
#304 = LINE('', #305, #306);
#305 = CARTESIAN_POINT('', (5., -5.32109034229525E-15, -71.9));
#306 = VECTOR('', #307, 0.141421356237305);
#307 = DIRECTION('', (-0.0999999999999996, 1.22464679914734E-17, -0.0999999999999943));
#308 = CARTESIAN_POINT('', (5., -5.32109034229525E-15, -71.9));
#309 = CARTESIAN_POINT('', (4.9, -5.30884387430377E-15, -72.));
#310 = TRIMMED_CURVE('cutting part line', #311, (#315), (#316), .T., .CARTESIAN.);
#311 = LINE('', #312, #313);
#312 = CARTESIAN_POINT('', (4.9, -5.30884387430377E-15, -72.));
#313 = VECTOR('', #314, 4.9);
#314 = DIRECTION('', (-4.9, 9.00115397373303E-16, 0.));
#315 = CARTESIAN_POINT('', (4.9, -5.30884387430377E-15, -72.));
#316 = CARTESIAN_POINT('', (-5.39913521758269E-31, -4.40872847693047E-15, -72.));
#317 = TRIMMED_CURVE('cutting part line', #318, (#322), (#323), .T., .CARTESIAN.);
#318 = LINE('', #319, #320);
#319 = CARTESIAN_POINT('', (-8.09870282637403E-31, -4.40872847693047E-15, -72.));
#320 = VECTOR('', #321, 22.);
#321 = DIRECTION('', (2.47460364139207E-31, 1.34711147906209E-15, 22.));
#322 = CARTESIAN_POINT('', (-8.09870282637403E-31, -4.40872847693047E-15, -72.));
#323 = CARTESIAN_POINT('', (-5.62409918498196E-31, -3.06161699786838E-15, -50.));
#324 = COMPOSITE_CURVE('cutting part line', (#325, #326, #327, #328, #329), .U.);
#325 = COMPOSITE_CURVE_SEGMENT(.CONTINUOUS., .T., #289);
#326 = COMPOSITE_CURVE_SEGMENT(.CONTINUOUS., .T., #296);
#327 = COMPOSITE_CURVE_SEGMENT(.CONTINUOUS., .T., #303);
#328 = COMPOSITE_CURVE_SEGMENT(.CONTINUOUS., .T., #310);
#329 = COMPOSITE_CURVE_SEGMENT(.CONTINUOUS., .T., #317);
#330 = GEOMETRIC_SET('', (#324, #373));
#331 = PRESENTATION_STYLE_ASSIGNMENT((#332));
#332 = CURVE_STYLE('', #334, POSITIVE_LENGTH_MEASURE(1.E-6), #333);
#333 = COLOUR_RGB('', 0., 0., 1.);
#334 = DRAUGHTING_PRE_DEFINED_CURVE_FONT('continuous');
#335 = STYLED_ITEM('', (#331), #324);
#336 = PRESENTATION_STYLE_ASSIGNMENT((#337));
#337 = CURVE_STYLE('', #339, POSITIVE_LENGTH_MEASURE(1.E-6), #338);
#338 = COLOUR_RGB('', 0., 0., 1.);
#339 = DRAUGHTING_PRE_DEFINED_CURVE_FONT('continuous');
#340 = OVER_RIDING_STYLED_ITEM('', (#336), #289, #335);
#341 = PRESENTATION_STYLE_ASSIGNMENT((#342));
#342 = CURVE_STYLE('', #344, POSITIVE_LENGTH_MEASURE(1.E-6), #343);
#343 = COLOUR_RGB('', 0., 0., 1.);
#344 = DRAUGHTING_PRE_DEFINED_CURVE_FONT('continuous');
#345 = OVER_RIDING_STYLED_ITEM('', (#341), #296, #335);
#346 = PRESENTATION_STYLE_ASSIGNMENT((#347));
#347 = CURVE_STYLE('', #349, POSITIVE_LENGTH_MEASURE(1.E-6), #348);
#348 = COLOUR_RGB('', 0., 0., 1.);
#349 = DRAUGHTING_PRE_DEFINED_CURVE_FONT('continuous');
#350 = OVER_RIDING_STYLED_ITEM('', (#346), #303, #335);
#351 = PRESENTATION_STYLE_ASSIGNMENT((#352));
#352 = CURVE_STYLE('', #354, POSITIVE_LENGTH_MEASURE(1.E-6), #353);
#353 = COLOUR_RGB('', 0., 0., 1.);
#354 = DRAUGHTING_PRE_DEFINED_CURVE_FONT('continuous');
#355 = OVER_RIDING_STYLED_ITEM('', (#351), #310, #335);
#356 = PRESENTATION_STYLE_ASSIGNMENT((#357));
#357 = CURVE_STYLE('', #359, POSITIVE_LENGTH_MEASURE(1.E-6), #358);
#358 = COLOUR_RGB('', 0., 0., 1.);
#359 = DRAUGHTING_PRE_DEFINED_CURVE_FONT('continuous');
#360 = OVER_RIDING_STYLED_ITEM('', (#356), #317, #335);
#361 = AXIS2_PLACEMENT_3D('CIP', #362, #363, #364);
#362 = CARTESIAN_POINT('', (2.69956760879134E-31, 4.40872847693047E-15, -72.));
#363 = DIRECTION('', (-3.74939945665465E-33, -6.12323399573677E-17, 1.));
#364 = DIRECTION('', (1., -6.12323399573677E-17, 0.));
#365 = AXIS2_PLACEMENT_3D('MCS', #366, #367, #368);
#366 = CARTESIAN_POINT('', (1.49975978266186E-31, 2.44929359829471E-15, -40.));
#367 = DIRECTION('', (-3.74939945665465E-33, -6.12323399573677E-17, 1.));
#368 = DIRECTION('', (1., -6.12323399573677E-17, 0.));
#369 = AXIS2_PLACEMENT_3D('PCS', #370, #371, #372);
#370 = CARTESIAN_POINT('', (0., 0., 0.));
#371 = DIRECTION('', (0., 0., 1.));
#372 = DIRECTION('', (1., 0., 0.));
#373 = CARTESIAN_POINT('CRP', (5., 0., -72.));
#374 = (
   GEOMETRIC_REPRESENTATION_CONTEXT (3)
   GLOBAL_UNCERTAINTY_ASSIGNED_CONTEXT ((#376))
   GLOBAL_UNIT_ASSIGNED_CONTEXT ((#375, #377, #378))
   REPRESENTATION_CONTEXT ('', '3D')
);
#375 = (
   LENGTH_UNIT ()
   NAMED_UNIT (*)
   SI_UNIT (.MILLI., .METRE.)
);
#376 = UNCERTAINTY_MEASURE_WITH_UNIT(LENGTH_MEASURE(1.E-6), #375, 'DISTANCE_ACCURACY_VALUE', '');
#377 = (
   NAMED_UNIT (*)
   SI_UNIT ($, .STERADIAN.)
   SOLID_ANGLE_UNIT ()
);
#378 = (
   NAMED_UNIT (*)
   PLANE_ANGLE_UNIT ()
   SI_UNIT ($, .RADIAN.)
);
#379 = SHAPE_REPRESENTATION('', (), #374);
#380 = PRODUCT_DEFINITION_SHAPE('', '', #381);
#381 = PRODUCT_DEFINITION('', '', #384, #388);
#382 = APPLICATION_CONTEXT('configuration controlled 3D designs of mechanical parts and assemblies');
#383 = APPLICATION_PROTOCOL_DEFINITION('International Standard', 'automotive_design', 2002, #382);
#384 = PRODUCT_DEFINITION_FORMATION_WITH_SPECIFIED_SOURCE('', '', #385, .NOT_KNOWN.);
#385 = PRODUCT('EmptyName', 'EmptyName', '', (#386));
#386 = PRODUCT_CONTEXT('', #382, 'mechanical');
#387 = PRODUCT_RELATED_PRODUCT_CATEGORY('detail', '', (#385));
#388 = PRODUCT_DEFINITION_CONTEXT('part definition', #382, 'design');
#389 = SHAPE_DEFINITION_REPRESENTATION(#380, #379);
#390 = CONSTRUCTIVE_GEOMETRY_REPRESENTATION('supplemental geometry', (#361, #365, #369), #374);
#391 = CONSTRUCTIVE_GEOMETRY_REPRESENTATION_RELATIONSHIP('', '', #379, #390);
#392 = SHAPE_REPRESENTATION_RELATIONSHIP('', '', #379, #393);
#393 = SHAPE_REPRESENTATION('', (#330), #374);
#394 = SHAPE_REPRESENTATION_RELATIONSHIP('', '', #379, #395);
#395 = ADVANCED_BREP_SHAPE_REPRESENTATION('', (#1, #175), #374);
ENDSEC;
END-ISO-10303-21;
