ISO-10303-21;
HEADER;
FILE_DESCRIPTION(('STEP'), '1');
FILE_NAME('C:\\Users\\ds2002\\OneDrive - Sandvik\\HomeShare\\Documents\\Batchrepair\\CorSRT2\\NEW_MILSQ_SLD\\Output\\MOD000000000000000020084623400000.stp', '2019-01-02T12:10:26', (''), (''), 'Express v3.0.0.0', 'Express Tool', 'Unknown');
FILE_SCHEMA(('AUTOMOTIVE_DESIGN'));
ENDSEC;

DATA;
#1 = MANIFOLD_SOLID_BREP('NOCUT', #2);
#2 = CLOSED_SHELL('', (#3, #20, #37, #85));
#3 = ADVANCED_FACE('', (#4), #15, .T.);
#4 = FACE_OUTER_BOUND('', #5, .T.);
#5 = EDGE_LOOP('', (#6));
#6 = ORIENTED_EDGE('', *, *, #7, .F.);
#7 = EDGE_CURVE('', #8, #8, #10, .T.);
#8 = VERTEX_POINT('', #9);
#9 = CARTESIAN_POINT('', (-4.0000000000002, 0., -61.));
#10 = CIRCLE('', #11, 4.0000000000002);
#11 = AXIS2_PLACEMENT_3D('', #12, #13, #14);
#12 = CARTESIAN_POINT('', (1.2490009027033E-16, 1.11022302462516E-16, -61.));
#13 = DIRECTION('', (0., 0., 1.));
#14 = DIRECTION('', (-1., -2.77555756156275E-17, 0.));
#15 = B_SPLINE_SURFACE_WITH_KNOTS('', 1, 1, ((#16, #17), (#18, #19)), .UNSPECIFIED., .F., .F., .U., (2, 2), (2, 2), (-4.0010000000002, 4.0010000000002), (-4.0010000000002, 4.0010000000002), .UNSPECIFIED.);
#16 = CARTESIAN_POINT('', (4.0010000000002, -4.0010000000002, -61.));
#17 = CARTESIAN_POINT('', (4.0010000000002, 4.0010000000002, -61.));
#18 = CARTESIAN_POINT('', (-4.0010000000002, -4.0010000000002, -61.));
#19 = CARTESIAN_POINT('', (-4.0010000000002, 4.0010000000002, -61.));
#20 = ADVANCED_FACE('', (#21), #32, .T.);
#21 = FACE_OUTER_BOUND('', #22, .T.);
#22 = EDGE_LOOP('', (#23));
#23 = ORIENTED_EDGE('', *, *, #24, .T.);
#24 = EDGE_CURVE('', #25, #25, #27, .T.);
#25 = VERTEX_POINT('', #26);
#26 = CARTESIAN_POINT('', (3.40000000000019, 0., 0.));
#27 = CIRCLE('', #28, 3.40000000000019);
#28 = AXIS2_PLACEMENT_3D('', #29, #30, #31);
#29 = CARTESIAN_POINT('', (1.40165656858926E-15, -1.16573417585641E-15, 0.));
#30 = DIRECTION('', (0., 0., 1.));
#31 = DIRECTION('', (1., 3.42862992898926E-16, 0.));
#32 = B_SPLINE_SURFACE_WITH_KNOTS('', 1, 1, ((#33, #34), (#35, #36)), .UNSPECIFIED., .F., .F., .U., (2, 2), (2, 2), (-3.40100000000014, 3.40100000000024), (-3.40100000000019, 3.40100000000019), .UNSPECIFIED.);
#33 = CARTESIAN_POINT('', (3.40100000000019, 3.40100000000019, 0.));
#34 = CARTESIAN_POINT('', (3.40100000000019, -3.40100000000019, 0.));
#35 = CARTESIAN_POINT('', (-3.40100000000019, 3.40100000000019, 0.));
#36 = CARTESIAN_POINT('', (-3.40100000000019, -3.40100000000019, 0.));
#37 = ADVANCED_FACE('', (#38), #66, .T.);
#38 = FACE_OUTER_BOUND('', #39, .T.);
#39 = EDGE_LOOP('', (#40, #48, #49, #50, #59));
#40 = ORIENTED_EDGE('', *, *, #41, .T.);
#41 = EDGE_CURVE('', #42, #25, #44, .T.);
#42 = VERTEX_POINT('', #43);
#43 = CARTESIAN_POINT('', (4.0000000000002, 0., -0.600000000000003));
#44 = LINE('', #45, #46);
#45 = CARTESIAN_POINT('', (4.00000000000019, -6.65027280199062E-16, -0.600000000000009));
#46 = VECTOR('', #47, 0.848528137423866);
#47 = DIRECTION('', (-0.600000000000004, 6.63920745623024E-16, 0.600000000000009));
#48 = ORIENTED_EDGE('', *, *, #24, .F.);
#49 = ORIENTED_EDGE('', *, *, #41, .F.);
#50 = ORIENTED_EDGE('', *, *, #51, .F.);
#51 = EDGE_CURVE('', #52, #42, #54, .T.);
#52 = VERTEX_POINT('', #53);
#53 = CARTESIAN_POINT('', (-4.0000000000002, -4.89858719658966E-16, -0.600000000000003));
#54 = CIRCLE('', #55, 4.0000000000002);
#55 = AXIS2_PLACEMENT_3D('', #56, #57, #58);
#56 = CARTESIAN_POINT('', (-1.2490009027033E-16, 1.11022302462516E-16, -0.600000000000003));
#57 = DIRECTION('', (0., 0., -1.));
#58 = DIRECTION('', (1., -2.77555756156275E-17, 0.));
#59 = ORIENTED_EDGE('', *, *, #60, .F.);
#60 = EDGE_CURVE('', #42, #52, #61, .T.);
#61 = CIRCLE('', #62, 4.0000000000002);
#62 = AXIS2_PLACEMENT_3D('', #63, #64, #65);
#63 = CARTESIAN_POINT('', (-1.2490009027033E-16, 1.11022302462516E-16, -0.600000000000003));
#64 = DIRECTION('', (0., 0., -1.));
#65 = DIRECTION('', (1., -2.77555756156275E-17, 0.));
#66 = (
   BOUNDED_SURFACE ()
   B_SPLINE_SURFACE (2, 1, ((#67, #68), (#69, #70), (#71, #72), (#73, #74), (#75, #76), (#77, #78), (#79, #80), (#81, #82), (#83, #84)), .UNSPECIFIED., .T., .F., .U.)
   B_SPLINE_SURFACE_WITH_KNOTS ((3, 2, 2, 2, 3), (2, 2), (0., 0.25, 0.5, 0.75, 1.), (0., 1.), .UNSPECIFIED.)
   GEOMETRIC_REPRESENTATION_ITEM ()
   RATIONAL_B_SPLINE_SURFACE (((1., 1.), (0.707106781186548, 0.707106781186548), (1., 1.), (0.707106781186548, 0.707106781186548), (1., 1.), (0.707106781186548, 0.707106781186548), (1., 1.), (0.707106781186548, 0.707106781186548), (1., 1.)))
   REPRESENTATION_ITEM ('')
   SURFACE ()
);
#67 = CARTESIAN_POINT('', (3.39900000000019, 0., 0.001));
#68 = CARTESIAN_POINT('', (4.00100000000019, -6.66133814775094E-16, -0.601000000000003));
#69 = CARTESIAN_POINT('', (3.39900000000019, -3.39900000000019, 0.00100000000000376));
#70 = CARTESIAN_POINT('', (4.00100000000019, -4.00100000000019, -0.600999999999999));
#71 = CARTESIAN_POINT('', (-6.38416332761577E-16, -3.39900000000019, 0.00100000000000376));
#72 = CARTESIAN_POINT('', (-6.01554464107242E-16, -4.00100000000019, -0.600999999999999));
#73 = CARTESIAN_POINT('', (-3.39900000000019, -3.39900000000019, 0.00100000000000376));
#74 = CARTESIAN_POINT('', (-4.00100000000019, -4.00100000000019, -0.600999999999999));
#75 = CARTESIAN_POINT('', (-3.39900000000019, -4.16257447030209E-16, 0.001));
#76 = CARTESIAN_POINT('', (-4.00100000000019, -1.15611499911397E-15, -0.601000000000003));
#77 = CARTESIAN_POINT('', (-3.39900000000019, 3.39900000000019, 0.000999999999996239));
#78 = CARTESIAN_POINT('', (-4.00100000000019, 4.00100000000019, -0.601000000000007));
#79 = CARTESIAN_POINT('', (-1.47093122682199E-15, 3.39900000000019, 0.000999999999996239));
#80 = CARTESIAN_POINT('', (-1.581516832785E-15, 4.00100000000019, -0.601000000000007));
#81 = CARTESIAN_POINT('', (3.39900000000019, 3.39900000000019, 0.000999999999996239));
#82 = CARTESIAN_POINT('', (4.00100000000019, 4.00100000000019, -0.601000000000007));
#83 = CARTESIAN_POINT('', (3.39900000000019, 0., 0.001));
#84 = CARTESIAN_POINT('', (4.00100000000019, -6.66133814775094E-16, -0.601000000000003));
#85 = ADVANCED_FACE('', (#86), #98, .T.);
#86 = FACE_OUTER_BOUND('', #87, .T.);
#87 = EDGE_LOOP('', (#88, #94, #95, #96, #97));
#88 = ORIENTED_EDGE('', *, *, #89, .T.);
#89 = EDGE_CURVE('', #52, #8, #90, .T.);
#90 = LINE('', #91, #92);
#91 = CARTESIAN_POINT('', (-4.0000000000002, -1.97215226305253E-31, -0.600000000000003));
#92 = VECTOR('', #93, 60.4);
#93 = DIRECTION('', (0., 0., -60.4));
#94 = ORIENTED_EDGE('', *, *, #7, .T.);
#95 = ORIENTED_EDGE('', *, *, #89, .F.);
#96 = ORIENTED_EDGE('', *, *, #51, .T.);
#97 = ORIENTED_EDGE('', *, *, #60, .T.);
#98 = (
   BOUNDED_SURFACE ()
   B_SPLINE_SURFACE (2, 1, ((#99, #100), (#101, #102), (#103, #104), (#105, #106), (#107, #108), (#109, #110), (#111, #112), (#113, #114), (#115, #116)), .UNSPECIFIED., .T., .F., .U.)
   B_SPLINE_SURFACE_WITH_KNOTS ((3, 2, 2, 2, 3), (2, 2), (0., 0.25, 0.5, 0.75, 1.), (0., 1.), .UNSPECIFIED.)
   GEOMETRIC_REPRESENTATION_ITEM ()
   RATIONAL_B_SPLINE_SURFACE (((1., 1.), (0.707106781186548, 0.707106781186548), (1., 1.), (0.707106781186548, 0.707106781186548), (1., 1.), (0.707106781186548, 0.707106781186548), (1., 1.), (0.707106781186548, 0.707106781186548), (1., 1.)))
   REPRESENTATION_ITEM ('')
   SURFACE ()
);
#99 = CARTESIAN_POINT('', (-4.0000000000002, -1.97215226305253E-31, -67.0412));
#100 = CARTESIAN_POINT('', (-4.0000000000002, -1.97215226305253E-31, 5.44119999999999));
#101 = CARTESIAN_POINT('', (-4.0000000000002, -4.0000000000002, -67.0412));
#102 = CARTESIAN_POINT('', (-4.0000000000002, -4.0000000000002, 5.44119999999999));
#103 = CARTESIAN_POINT('', (-1.45229689910934E-15, -4.0000000000002, -67.0412));
#104 = CARTESIAN_POINT('', (-1.45229689910934E-15, -4.0000000000002, 5.44119999999999));
#105 = CARTESIAN_POINT('', (4.0000000000002, -4.0000000000002, -67.0412));
#106 = CARTESIAN_POINT('', (4.0000000000002, -4.0000000000002, 5.44119999999999));
#107 = CARTESIAN_POINT('', (4.0000000000002, -2.71030476890928E-15, -67.0412));
#108 = CARTESIAN_POINT('', (4.0000000000002, -2.71030476890928E-15, 5.44119999999999));
#109 = CARTESIAN_POINT('', (4.0000000000002, 4.0000000000002, -67.0412));
#110 = CARTESIAN_POINT('', (4.0000000000002, 4.0000000000002, 5.44119999999999));
#111 = CARTESIAN_POINT('', (1.7478665894589E-15, 4.0000000000002, -67.0412));
#112 = CARTESIAN_POINT('', (1.7478665894589E-15, 4.0000000000002, 5.44119999999999));
#113 = CARTESIAN_POINT('', (-4.0000000000002, 4.0000000000002, -67.0412));
#114 = CARTESIAN_POINT('', (-4.0000000000002, 4.0000000000002, 5.44119999999999));
#115 = CARTESIAN_POINT('', (-4.0000000000002, -1.97215226305253E-31, -67.0412));
#116 = CARTESIAN_POINT('', (-4.0000000000002, -1.97215226305253E-31, 5.44119999999999));
#117 = DRAUGHTING_MODEL('', (#125, #239, #286, #291, #296, #301, #306, #311), #325);
#118 = PRESENTATION_STYLE_ASSIGNMENT((#119));
#119 = SURFACE_STYLE_USAGE(.POSITIVE., #120);
#120 = SURFACE_SIDE_STYLE('', (#121));
#121 = SURFACE_STYLE_FILL_AREA(#122);
#122 = FILL_AREA_STYLE('', (#123));
#123 = FILL_AREA_STYLE_COLOUR('', #124);
#124 = COLOUR_RGB('', 0.50196078431373, 0.50196078431373, 0.50196078431373);
#125 = STYLED_ITEM('', (#118), #1);
#126 = MANIFOLD_SOLID_BREP('CUT', #127);
#127 = CLOSED_SHELL('', (#128, #145, #192, #223));
#128 = ADVANCED_FACE('', (#129), #140, .T.);
#129 = FACE_OUTER_BOUND('', #130, .T.);
#130 = EDGE_LOOP('', (#131));
#131 = ORIENTED_EDGE('', *, *, #132, .T.);
#132 = EDGE_CURVE('', #133, #133, #135, .T.);
#133 = VERTEX_POINT('', #134);
#134 = CARTESIAN_POINT('', (-3.90000000000019, 0., -80.));
#135 = CIRCLE('', #136, 3.90000000000019);
#136 = AXIS2_PLACEMENT_3D('', #137, #138, #139);
#137 = CARTESIAN_POINT('', (-4.9960036108132E-16, 1.33226762955019E-15, -80.));
#138 = DIRECTION('', (-4.23655670683379E-30, 1.24018408840505E-14, -1.));
#139 = DIRECTION('', (-1., -3.41607084500032E-16, 0.));
#140 = B_SPLINE_SURFACE_WITH_KNOTS('', 1, 1, ((#141, #142), (#143, #144)), .UNSPECIFIED., .F., .F., .U., (2, 2), (2, 2), (-7.90100000000041, -0.09900000000003), (-3.90100000000019, 3.90100000000019), .UNSPECIFIED.);
#141 = CARTESIAN_POINT('', (-3.90100000000019, 3.90100000000019, -80.));
#142 = CARTESIAN_POINT('', (-3.90100000000019, -3.90100000000019, -80.));
#143 = CARTESIAN_POINT('', (3.90100000000019, 3.90100000000019, -80.));
#144 = CARTESIAN_POINT('', (3.90100000000019, -3.90100000000019, -80.));
#145 = ADVANCED_FACE('', (#146), #173, .T.);
#146 = FACE_OUTER_BOUND('', #147, .T.);
#147 = EDGE_LOOP('', (#148, #158, #165, #166));
#148 = ORIENTED_EDGE('', *, *, #149, .T.);
#149 = EDGE_CURVE('', #150, #152, #154, .T.);
#150 = VERTEX_POINT('', #151);
#151 = CARTESIAN_POINT('', (-4.0000000000002, 0., -61.));
#152 = VERTEX_POINT('', #153);
#153 = CARTESIAN_POINT('', (-4.0000000000002, 0., -79.9));
#154 = LINE('', #155, #156);
#155 = CARTESIAN_POINT('', (-4.0000000000002, -1.97215226305253E-31, -61.));
#156 = VECTOR('', #157, 18.9);
#157 = DIRECTION('', (0., 0., -18.9));
#158 = ORIENTED_EDGE('', *, *, #159, .T.);
#159 = EDGE_CURVE('', #152, #152, #160, .T.);
#160 = CIRCLE('', #161, 4.0000000000002);
#161 = AXIS2_PLACEMENT_3D('', #162, #163, #164);
#162 = CARTESIAN_POINT('', (1.2490009027033E-16, 1.11022302462516E-16, -79.9));
#163 = DIRECTION('', (0., 0., 1.));
#164 = DIRECTION('', (-1., -2.77555756156275E-17, 0.));
#165 = ORIENTED_EDGE('', *, *, #149, .F.);
#166 = ORIENTED_EDGE('', *, *, #167, .F.);
#167 = EDGE_CURVE('', #150, #150, #168, .T.);
#168 = CIRCLE('', #169, 4.0000000000002);
#169 = AXIS2_PLACEMENT_3D('', #170, #171, #172);
#170 = CARTESIAN_POINT('', (1.2490009027033E-16, 1.11022302462516E-16, -61.));
#171 = DIRECTION('', (0., 0., 1.));
#172 = DIRECTION('', (-1., -2.77555756156275E-17, 0.));
#173 = (
   BOUNDED_SURFACE ()
   B_SPLINE_SURFACE (2, 1, ((#174, #175), (#176, #177), (#178, #179), (#180, #181), (#182, #183), (#184, #185), (#186, #187), (#188, #189), (#190, #191)), .UNSPECIFIED., .T., .F., .U.)
   B_SPLINE_SURFACE_WITH_KNOTS ((3, 2, 2, 2, 3), (2, 2), (0., 0.25, 0.5, 0.75, 1.), (0., 1.), .UNSPECIFIED.)
   GEOMETRIC_REPRESENTATION_ITEM ()
   RATIONAL_B_SPLINE_SURFACE (((1., 1.), (0.707106781186548, 0.707106781186548), (1., 1.), (0.707106781186548, 0.707106781186548), (1., 1.), (0.707106781186548, 0.707106781186548), (1., 1.), (0.707106781186548, 0.707106781186548), (1., 1.)))
   REPRESENTATION_ITEM ('')
   SURFACE ()
);
#174 = CARTESIAN_POINT('', (-4.0000000000002, -1.97215226305253E-31, -81.7912));
#175 = CARTESIAN_POINT('', (-4.0000000000002, -1.97215226305253E-31, -59.1088));
#176 = CARTESIAN_POINT('', (-4.0000000000002, -4.0000000000002, -81.7912));
#177 = CARTESIAN_POINT('', (-4.0000000000002, -4.0000000000002, -59.1088));
#178 = CARTESIAN_POINT('', (-1.45229689910934E-15, -4.0000000000002, -81.7912));
#179 = CARTESIAN_POINT('', (-1.45229689910934E-15, -4.0000000000002, -59.1088));
#180 = CARTESIAN_POINT('', (4.0000000000002, -4.0000000000002, -81.7912));
#181 = CARTESIAN_POINT('', (4.0000000000002, -4.0000000000002, -59.1088));
#182 = CARTESIAN_POINT('', (4.0000000000002, -2.71030476890928E-15, -81.7912));
#183 = CARTESIAN_POINT('', (4.0000000000002, -2.71030476890928E-15, -59.1088));
#184 = CARTESIAN_POINT('', (4.0000000000002, 4.0000000000002, -81.7912));
#185 = CARTESIAN_POINT('', (4.0000000000002, 4.0000000000002, -59.1088));
#186 = CARTESIAN_POINT('', (1.7478665894589E-15, 4.0000000000002, -81.7912));
#187 = CARTESIAN_POINT('', (1.7478665894589E-15, 4.0000000000002, -59.1088));
#188 = CARTESIAN_POINT('', (-4.0000000000002, 4.0000000000002, -81.7912));
#189 = CARTESIAN_POINT('', (-4.0000000000002, 4.0000000000002, -59.1088));
#190 = CARTESIAN_POINT('', (-4.0000000000002, -1.97215226305253E-31, -81.7912));
#191 = CARTESIAN_POINT('', (-4.0000000000002, -1.97215226305253E-31, -59.1088));
#192 = ADVANCED_FACE('', (#193), #204, .T.);
#193 = FACE_OUTER_BOUND('', #194, .T.);
#194 = EDGE_LOOP('', (#195, #201, #202, #203));
#195 = ORIENTED_EDGE('', *, *, #196, .T.);
#196 = EDGE_CURVE('', #152, #133, #197, .T.);
#197 = LINE('', #198, #199);
#198 = CARTESIAN_POINT('', (-4.0000000000002, -2.35750163530011E-15, -79.9));
#199 = VECTOR('', #200, 0.141421356237317);
#200 = DIRECTION('', (0.100000000000002, 2.3341600349507E-15, -0.100000000000009));
#201 = ORIENTED_EDGE('', *, *, #132, .F.);
#202 = ORIENTED_EDGE('', *, *, #196, .F.);
#203 = ORIENTED_EDGE('', *, *, #159, .F.);
#204 = (
   BOUNDED_SURFACE ()
   B_SPLINE_SURFACE (2, 1, ((#205, #206), (#207, #208), (#209, #210), (#211, #212), (#213, #214), (#215, #216), (#217, #218), (#219, #220), (#221, #222)), .UNSPECIFIED., .T., .F., .U.)
   B_SPLINE_SURFACE_WITH_KNOTS ((3, 2, 2, 2, 3), (2, 2), (0., 0.25, 0.5, 0.75, 1.), (0., 1.), .UNSPECIFIED.)
   GEOMETRIC_REPRESENTATION_ITEM ()
   RATIONAL_B_SPLINE_SURFACE (((1., 1.), (0.707106781186548, 0.707106781186548), (1., 1.), (0.707106781186548, 0.707106781186548), (1., 1.), (0.707106781186548, 0.707106781186548), (1., 1.), (0.707106781186548, 0.707106781186548), (1., 1.)))
   REPRESENTATION_ITEM ('')
   SURFACE ()
);
#205 = CARTESIAN_POINT('', (-3.8990000000002, 3.94430452610506E-31, -80.001));
#206 = CARTESIAN_POINT('', (-4.00100000000021, -2.38084323564973E-15, -79.899));
#207 = CARTESIAN_POINT('', (-3.8990000000002, -3.8990000000002, -80.0010000000001));
#208 = CARTESIAN_POINT('', (-4.0010000000002, -4.00100000000021, -79.8990000000001));
#209 = CARTESIAN_POINT('', (2.10660124602685E-15, -3.8990000000002, -80.0010000000001));
#210 = CARTESIAN_POINT('', (2.14973043128811E-15, -4.00100000000021, -79.8990000000001));
#211 = CARTESIAN_POINT('', (3.89900000000021, -3.8990000000002, -80.0010000000001));
#212 = CARTESIAN_POINT('', (4.00100000000021, -4.00100000000021, -79.8990000000001));
#213 = CARTESIAN_POINT('', (3.8990000000002, 3.29726849673795E-15, -80.001));
#214 = CARTESIAN_POINT('', (4.00100000000021, 1.00268363161073E-15, -79.899));
#215 = CARTESIAN_POINT('', (3.8990000000002, 3.89900000000021, -80.0009999999999));
#216 = CARTESIAN_POINT('', (4.00100000000021, 4.00100000000021, -79.8989999999999));
#217 = CARTESIAN_POINT('', (-7.13177463723522E-16, 3.89900000000021, -80.0009999999999));
#218 = CARTESIAN_POINT('', (-7.43815251633472E-16, 4.00100000000021, -79.8989999999999));
#219 = CARTESIAN_POINT('', (-3.8990000000002, 3.8990000000002, -80.0009999999999));
#220 = CARTESIAN_POINT('', (-4.00100000000021, 4.0010000000002, -79.8989999999999));
#221 = CARTESIAN_POINT('', (-3.8990000000002, 3.94430452610506E-31, -80.001));
#222 = CARTESIAN_POINT('', (-4.00100000000021, -2.38084323564973E-15, -79.899));
#223 = ADVANCED_FACE('', (#224), #227, .T.);
#224 = FACE_OUTER_BOUND('', #225, .T.);
#225 = EDGE_LOOP('', (#226));
#226 = ORIENTED_EDGE('', *, *, #167, .T.);
#227 = B_SPLINE_SURFACE_WITH_KNOTS('', 1, 1, ((#228, #229), (#230, #231)), .UNSPECIFIED., .F., .F., .U., (2, 2), (2, 2), (-4.0010000000002, 4.0010000000002), (-4.0010000000002, 4.0010000000002), .UNSPECIFIED.);
#228 = CARTESIAN_POINT('', (-4.0010000000002, -4.0010000000002, -61.));
#229 = CARTESIAN_POINT('', (-4.0010000000002, 4.0010000000002, -61.));
#230 = CARTESIAN_POINT('', (4.0010000000002, -4.0010000000002, -61.));
#231 = CARTESIAN_POINT('', (4.0010000000002, 4.0010000000002, -61.));
#232 = PRESENTATION_STYLE_ASSIGNMENT((#233));
#233 = SURFACE_STYLE_USAGE(.POSITIVE., #234);
#234 = SURFACE_SIDE_STYLE('', (#235));
#235 = SURFACE_STYLE_FILL_AREA(#236);
#236 = FILL_AREA_STYLE('', (#237));
#237 = FILL_AREA_STYLE_COLOUR('', #238);
#238 = COLOUR_RGB('', 0.8, 0.8, 0.8);
#239 = STYLED_ITEM('', (#232), #126);
#240 = TRIMMED_CURVE('cutting part line', #241, (#245), (#246), .T., .CARTESIAN.);
#241 = LINE('', #242, #243);
#242 = CARTESIAN_POINT('', (2.35922392732846E-16, 0., -80.));
#243 = VECTOR('', #244, 3.90000000000019);
#244 = DIRECTION('', (3.90000000000019, 0., 0.));
#245 = CARTESIAN_POINT('', (2.35922392732846E-16, 0., -80.));
#246 = CARTESIAN_POINT('', (3.90000000000019, 0., -80.));
#247 = TRIMMED_CURVE('cutting part line', #248, (#252), (#253), .T., .CARTESIAN.);
#248 = LINE('', #249, #250);
#249 = CARTESIAN_POINT('', (3.90000000000017, 1.87223025950963E-15, -80.));
#250 = VECTOR('', #251, 0.141421356237481);
#251 = DIRECTION('', (0.10000000000012, -2.2854051546989E-15, 0.100000000000122));
#252 = CARTESIAN_POINT('', (3.90000000000017, 1.87223025950963E-15, -80.));
#253 = CARTESIAN_POINT('', (4.00000000000029, -4.13174895189276E-16, -79.8999999999999));
#254 = TRIMMED_CURVE('cutting part line', #255, (#259), (#260), .T., .CARTESIAN.);
#255 = LINE('', #256, #257);
#256 = CARTESIAN_POINT('', (4.0000000000002, 0., -79.9));
#257 = VECTOR('', #258, 18.9);
#258 = DIRECTION('', (0., 0., 18.9));
#259 = CARTESIAN_POINT('', (4.0000000000002, 0., -79.9));
#260 = CARTESIAN_POINT('', (4.0000000000002, 0., -61.));
#261 = TRIMMED_CURVE('cutting part line', #262, (#266), (#267), .T., .CARTESIAN.);
#262 = LINE('', #263, #264);
#263 = CARTESIAN_POINT('', (4.0000000000002, 0., -61.));
#264 = VECTOR('', #265, 4.0000000000002);
#265 = DIRECTION('', (-4.0000000000002, 0., 7.105427357601E-15));
#266 = CARTESIAN_POINT('', (4.0000000000002, 0., -61.));
#267 = CARTESIAN_POINT('', (-1.38777878078145E-17, 0., -61.));
#268 = TRIMMED_CURVE('cutting part line', #269, (#273), (#274), .T., .CARTESIAN.);
#269 = LINE('', #270, #271);
#270 = CARTESIAN_POINT('', (0., 0., -61.));
#271 = VECTOR('', #272, 19.0000000000001);
#272 = DIRECTION('', (0., 0., -19.0000000000001));
#273 = CARTESIAN_POINT('', (0., 0., -61.));
#274 = CARTESIAN_POINT('', (0., 0., -80.));
#275 = COMPOSITE_CURVE('cutting part line', (#276, #277, #278, #279, #280), .U.);
#276 = COMPOSITE_CURVE_SEGMENT(.CONTINUOUS., .T., #240);
#277 = COMPOSITE_CURVE_SEGMENT(.CONTINUOUS., .T., #247);
#278 = COMPOSITE_CURVE_SEGMENT(.CONTINUOUS., .T., #254);
#279 = COMPOSITE_CURVE_SEGMENT(.CONTINUOUS., .T., #261);
#280 = COMPOSITE_CURVE_SEGMENT(.CONTINUOUS., .T., #268);
#281 = GEOMETRIC_SET('', (#275, #324));
#282 = PRESENTATION_STYLE_ASSIGNMENT((#283));
#283 = CURVE_STYLE('', #285, POSITIVE_LENGTH_MEASURE(1.E-6), #284);
#284 = COLOUR_RGB('', 0., 0., 1.);
#285 = DRAUGHTING_PRE_DEFINED_CURVE_FONT('continuous');
#286 = STYLED_ITEM('', (#282), #275);
#287 = PRESENTATION_STYLE_ASSIGNMENT((#288));
#288 = CURVE_STYLE('', #290, POSITIVE_LENGTH_MEASURE(1.E-6), #289);
#289 = COLOUR_RGB('', 0., 0., 1.);
#290 = DRAUGHTING_PRE_DEFINED_CURVE_FONT('continuous');
#291 = OVER_RIDING_STYLED_ITEM('', (#287), #240, #286);
#292 = PRESENTATION_STYLE_ASSIGNMENT((#293));
#293 = CURVE_STYLE('', #295, POSITIVE_LENGTH_MEASURE(1.E-6), #294);
#294 = COLOUR_RGB('', 0., 0., 1.);
#295 = DRAUGHTING_PRE_DEFINED_CURVE_FONT('continuous');
#296 = OVER_RIDING_STYLED_ITEM('', (#292), #247, #286);
#297 = PRESENTATION_STYLE_ASSIGNMENT((#298));
#298 = CURVE_STYLE('', #300, POSITIVE_LENGTH_MEASURE(1.E-6), #299);
#299 = COLOUR_RGB('', 0., 0., 1.);
#300 = DRAUGHTING_PRE_DEFINED_CURVE_FONT('continuous');
#301 = OVER_RIDING_STYLED_ITEM('', (#297), #254, #286);
#302 = PRESENTATION_STYLE_ASSIGNMENT((#303));
#303 = CURVE_STYLE('', #305, POSITIVE_LENGTH_MEASURE(1.E-6), #304);
#304 = COLOUR_RGB('', 0., 0., 1.);
#305 = DRAUGHTING_PRE_DEFINED_CURVE_FONT('continuous');
#306 = OVER_RIDING_STYLED_ITEM('', (#302), #261, #286);
#307 = PRESENTATION_STYLE_ASSIGNMENT((#308));
#308 = CURVE_STYLE('', #310, POSITIVE_LENGTH_MEASURE(1.E-6), #309);
#309 = COLOUR_RGB('', 0., 0., 1.);
#310 = DRAUGHTING_PRE_DEFINED_CURVE_FONT('continuous');
#311 = OVER_RIDING_STYLED_ITEM('', (#307), #268, #286);
#312 = AXIS2_PLACEMENT_3D('MCS', #313, #314, #315);
#313 = CARTESIAN_POINT('', (0., 0., -36.));
#314 = DIRECTION('', (0., 0., 1.));
#315 = DIRECTION('', (1., 0., 0.));
#316 = AXIS2_PLACEMENT_3D('PCS', #317, #318, #319);
#317 = CARTESIAN_POINT('', (0., 0., 0.));
#318 = DIRECTION('', (0., 0., 1.));
#319 = DIRECTION('', (1., 0., 0.));
#320 = AXIS2_PLACEMENT_3D('CIP', #321, #322, #323);
#321 = CARTESIAN_POINT('', (0., 0., -80.));
#322 = DIRECTION('', (0., 0., 1.));
#323 = DIRECTION('', (1., 0., 0.));
#324 = CARTESIAN_POINT('CRP', (4.00000000000029, 0., -80.));
#325 = (
   GEOMETRIC_REPRESENTATION_CONTEXT (3)
   GLOBAL_UNCERTAINTY_ASSIGNED_CONTEXT ((#327))
   GLOBAL_UNIT_ASSIGNED_CONTEXT ((#326, #328, #329))
   REPRESENTATION_CONTEXT ('', '3D')
);
#326 = (
   LENGTH_UNIT ()
   NAMED_UNIT (*)
   SI_UNIT (.MILLI., .METRE.)
);
#327 = UNCERTAINTY_MEASURE_WITH_UNIT(LENGTH_MEASURE(1.E-6), #326, 'DISTANCE_ACCURACY_VALUE', '');
#328 = (
   NAMED_UNIT (*)
   SI_UNIT ($, .STERADIAN.)
   SOLID_ANGLE_UNIT ()
);
#329 = (
   NAMED_UNIT (*)
   PLANE_ANGLE_UNIT ()
   SI_UNIT ($, .RADIAN.)
);
#330 = SHAPE_REPRESENTATION('', (), #325);
#331 = PRODUCT_DEFINITION_SHAPE('', '', #332);
#332 = PRODUCT_DEFINITION('', '', #335, #339);
#333 = APPLICATION_CONTEXT('configuration controlled 3D designs of mechanical parts and assemblies');
#334 = APPLICATION_PROTOCOL_DEFINITION('International Standard', 'automotive_design', 2002, #333);
#335 = PRODUCT_DEFINITION_FORMATION_WITH_SPECIFIED_SOURCE('', '', #336, .NOT_KNOWN.);
#336 = PRODUCT('R216.34-08050-AK19H-634160976073888750-1', 'R216.34-08050-AK19H 1620', '', (#337));
#337 = PRODUCT_CONTEXT('', #333, 'mechanical');
#338 = PRODUCT_RELATED_PRODUCT_CATEGORY('detail', '', (#336));
#339 = PRODUCT_DEFINITION_CONTEXT('part definition', #333, 'design');
#340 = SHAPE_DEFINITION_REPRESENTATION(#331, #330);
#341 = CONSTRUCTIVE_GEOMETRY_REPRESENTATION('supplemental geometry', (#312, #316, #320), #325);
#342 = CONSTRUCTIVE_GEOMETRY_REPRESENTATION_RELATIONSHIP('', '', #330, #341);
#343 = SHAPE_REPRESENTATION_RELATIONSHIP('', '', #330, #344);
#344 = SHAPE_REPRESENTATION('', (#281), #325);
#345 = SHAPE_REPRESENTATION_RELATIONSHIP('', '', #330, #346);
#346 = ADVANCED_BREP_SHAPE_REPRESENTATION('', (#1, #126), #325);
ENDSEC;
END-ISO-10303-21;
