ISO-10303-21;
HEADER;
FILE_DESCRIPTION(('STEP'), '1');
FILE_NAME('C:\\Users\\ds2002\\OneDrive - Sandvik\\HomeShare\\Documents\\Batchrepair\\CorSRT2\\NEW_MILSQ_SLD\\Output\\MOD000000000000000020084621100000.stp', '2019-01-02T12:10:25', (''), (''), 'Express v3.0.0.0', 'Express Tool', 'Unknown');
FILE_SCHEMA(('AUTOMOTIVE_DESIGN'));
ENDSEC;

DATA;
#1 = MANIFOLD_SOLID_BREP('NOCUT', #2);
#2 = CLOSED_SHELL('', (#3, #50, #59, #98));
#3 = ADVANCED_FACE('', (#4), #31, .T.);
#4 = FACE_OUTER_BOUND('', #5, .T.);
#5 = EDGE_LOOP('', (#6, #16, #23, #24));
#6 = ORIENTED_EDGE('', *, *, #7, .T.);
#7 = EDGE_CURVE('', #8, #10, #12, .T.);
#8 = VERTEX_POINT('', #9);
#9 = CARTESIAN_POINT('', (-3., 2.02066721859313E-16, -0.299999999999997));
#10 = VERTEX_POINT('', #11);
#11 = CARTESIAN_POINT('', (-2.7, 1.65327317884893E-16, 0.));
#12 = LINE('', #13, #14);
#13 = CARTESIAN_POINT('', (-3., 2.02066721859313E-16, -0.299999999999997));
#14 = VECTOR('', #15, 0.424264068711926);
#15 = DIRECTION('', (0.3, -3.673940397442E-17, 0.299999999999997));
#16 = ORIENTED_EDGE('', *, *, #17, .T.);
#17 = EDGE_CURVE('', #10, #10, #18, .T.);
#18 = CIRCLE('', #19, 2.7);
#19 = AXIS2_PLACEMENT_3D('', #20, #21, #22);
#20 = CARTESIAN_POINT('', (6.24500451351651E-17, -1.88737914186277E-15, -1.07852076885685E-31));
#21 = DIRECTION('', (6.60738625565492E-33, 6.12323399573678E-17, -1.));
#22 = DIRECTION('', (-1., 7.60261651758392E-16, 3.99452136613649E-32));
#23 = ORIENTED_EDGE('', *, *, #7, .F.);
#24 = ORIENTED_EDGE('', *, *, #25, .F.);
#25 = EDGE_CURVE('', #8, #8, #26, .T.);
#26 = CIRCLE('', #27, 3.);
#27 = AXIS2_PLACEMENT_3D('', #28, #29, #30);
#28 = CARTESIAN_POINT('', (-8.32667268468867E-16, 1.66533453693773E-16, -0.299999999999997));
#29 = DIRECTION('', (7.45939217764516E-34, 6.29780982393227E-17, -1.));
#30 = DIRECTION('', (-1., 1.18444227218465E-17, 0.));
#31 = (
   BOUNDED_SURFACE ()
   B_SPLINE_SURFACE (1, 2, ((#32, #33, #34, #35, #36, #37, #38, #39, #40), (#41, #42, #43, #44, #45, #46, #47, #48, #49)), .UNSPECIFIED., .F., .T., .U.)
   B_SPLINE_SURFACE_WITH_KNOTS ((2, 2), (3, 2, 2, 2, 3), (0., 1.), (0., 0.25, 0.5, 0.75, 1.), .UNSPECIFIED.)
   GEOMETRIC_REPRESENTATION_ITEM ()
   RATIONAL_B_SPLINE_SURFACE (((1., 0.707106781186548, 1., 0.707106781186548, 1., 0.707106781186548, 1., 0.707106781186548, 1.), (1., 0.707106781186548, 1., 0.707106781186548, 1., 0.707106781186548, 1., 0.707106781186548, 1.)))
   REPRESENTATION_ITEM ('')
   SURFACE ()
);
#32 = CARTESIAN_POINT('', (-3., 1.49129302665284E-15, -0.299999999999997));
#33 = CARTESIAN_POINT('', (-3., 3., -0.299999999999985));
#34 = CARTESIAN_POINT('', (2.34149119846292E-15, 3., -0.299999999999985));
#35 = CARTESIAN_POINT('', (3., 3., -0.299999999999985));
#36 = CARTESIAN_POINT('', (3., -1.34594359183367E-15, -0.299999999999997));
#37 = CARTESIAN_POINT('', (3., -3., -0.300000000000009));
#38 = CARTESIAN_POINT('', (-1.28351380279387E-16, -3., -0.300000000000009));
#39 = CARTESIAN_POINT('', (-3., -3., -0.300000000000009));
#40 = CARTESIAN_POINT('', (-3., 1.49129302665284E-15, -0.299999999999997));
#41 = CARTESIAN_POINT('', (-2.7, 1.65327317884893E-16, -2.18952885050753E-47));
#42 = CARTESIAN_POINT('', (-2.7, 2.7, 1.04916075827078E-14));
#43 = CARTESIAN_POINT('', (2.19962936753859E-15, 2.7, 1.04916075827078E-14));
#44 = CARTESIAN_POINT('', (2.7, 2.7, 1.04916075827078E-14));
#45 = CARTESIAN_POINT('', (2.7, -2.38818563875297E-15, 1.12461399303431E-30));
#46 = CARTESIAN_POINT('', (2.7, -2.7, -1.04916075827078E-14));
#47 = CARTESIAN_POINT('', (-2.32289533294833E-17, -2.7, -1.04916075827078E-14));
#48 = CARTESIAN_POINT('', (-2.7, -2.7, -1.04916075827078E-14));
#49 = CARTESIAN_POINT('', (-2.7, 1.65327317884893E-16, -2.18952885050753E-47));
#50 = ADVANCED_FACE('', (#51), #54, .T.);
#51 = FACE_OUTER_BOUND('', #52, .T.);
#52 = EDGE_LOOP('', (#53));
#53 = ORIENTED_EDGE('', *, *, #17, .F.);
#54 = B_SPLINE_SURFACE_WITH_KNOTS('', 1, 1, ((#55, #56), (#57, #58)), .UNSPECIFIED., .F., .F., .U., (2, 2), (2, 2), (1.50021428024809, 6.90021428024809), (1.50021428024809, 6.90021428024809), .UNSPECIFIED.);
#55 = CARTESIAN_POINT('', (2.7, -2.7, 6.94010003971609E-15));
#56 = CARTESIAN_POINT('', (-2.7, -2.7, -7.27075467548589E-15));
#57 = CARTESIAN_POINT('', (2.7, 2.7, 7.27075467548587E-15));
#58 = CARTESIAN_POINT('', (-2.7, 2.7, -6.9401000397161E-15));
#59 = ADVANCED_FACE('', (#60), #79, .T.);
#60 = FACE_OUTER_BOUND('', #61, .T.);
#61 = EDGE_LOOP('', (#62, #71, #77, #78));
#62 = ORIENTED_EDGE('', *, *, #63, .F.);
#63 = EDGE_CURVE('', #64, #64, #66, .T.);
#64 = VERTEX_POINT('', #65);
#65 = CARTESIAN_POINT('', (-3., 2.87791997799628E-15, -44.));
#66 = CIRCLE('', #67, 3.);
#67 = AXIS2_PLACEMENT_3D('', #68, #69, #70);
#68 = CARTESIAN_POINT('', (1.12410081243297E-15, 4.44089209850063E-16, -44.));
#69 = DIRECTION('', (0., 0., -1.));
#70 = DIRECTION('', (-1., 8.11276922715405E-16, 0.));
#71 = ORIENTED_EDGE('', *, *, #72, .T.);
#72 = EDGE_CURVE('', #64, #8, #73, .T.);
#73 = LINE('', #74, #75);
#74 = CARTESIAN_POINT('', (-3., 2.87791997799628E-15, -44.));
#75 = VECTOR('', #76, 43.7);
#76 = DIRECTION('', (0., -2.67585325613697E-15, 43.7));
#77 = ORIENTED_EDGE('', *, *, #25, .T.);
#78 = ORIENTED_EDGE('', *, *, #72, .F.);
#79 = (
   BOUNDED_SURFACE ()
   B_SPLINE_SURFACE (1, 2, ((#80, #81, #82, #83, #84, #85, #86, #87, #88), (#89, #90, #91, #92, #93, #94, #95, #96, #97)), .UNSPECIFIED., .F., .T., .U.)
   B_SPLINE_SURFACE_WITH_KNOTS ((2, 2), (3, 2, 2, 2, 3), (-0.224089635854342, 1.), (0., 0.25, 0.5, 0.75, 1.), .UNSPECIFIED.)
   GEOMETRIC_REPRESENTATION_ITEM ()
   RATIONAL_B_SPLINE_SURFACE (((1., 0.707106781186548, 1., 0.707106781186548, 1., 0.707106781186548, 1., 0.707106781186548, 1.), (1., 0.707106781186548, 1., 0.707106781186548, 1., 0.707106781186548, 1., 0.707106781186548, 1.)))
   REPRESENTATION_ITEM ('')
   SURFACE ()
);
#80 = CARTESIAN_POINT('', (-3., 2.36700161987837E-15, -44.));
#81 = CARTESIAN_POINT('', (-3., 3., -44.));
#82 = CARTESIAN_POINT('', (4.48581124029458E-16, 3., -44.));
#83 = CARTESIAN_POINT('', (3., 3., -44.));
#84 = CARTESIAN_POINT('', (3., 1.9971953085164E-15, -44.));
#85 = CARTESIAN_POINT('', (3., -3., -44.));
#86 = CARTESIAN_POINT('', (4.46168852411697E-16, -3., -44.));
#87 = CARTESIAN_POINT('', (-3., -3., -44.));
#88 = CARTESIAN_POINT('', (-3., 2.36700161987837E-15, -44.));
#89 = CARTESIAN_POINT('', (-3., 2.02066721859313E-16, -0.299999999999997));
#90 = CARTESIAN_POINT('', (-3., 3., -0.299999999999997));
#91 = CARTESIAN_POINT('', (4.48581124029458E-16, 3., -0.299999999999997));
#92 = CARTESIAN_POINT('', (3., 3., -0.299999999999997));
#93 = CARTESIAN_POINT('', (3., -1.67739589502654E-16, -0.299999999999997));
#94 = CARTESIAN_POINT('', (3., -3., -0.299999999999997));
#95 = CARTESIAN_POINT('', (4.46168852411697E-16, -3., -0.299999999999997));
#96 = CARTESIAN_POINT('', (-3., -3., -0.299999999999997));
#97 = CARTESIAN_POINT('', (-3., 2.02066721859313E-16, -0.299999999999997));
#98 = ADVANCED_FACE('', (#99), #102, .T.);
#99 = FACE_OUTER_BOUND('', #100, .T.);
#100 = EDGE_LOOP('', (#101));
#101 = ORIENTED_EDGE('', *, *, #63, .T.);
#102 = B_SPLINE_SURFACE_WITH_KNOTS('', 1, 1, ((#103, #104), (#105, #106)), .UNSPECIFIED., .F., .F., .U., (2, 2), (2, 2), (56.2597028468154, 62.2597028468154), (52.9965430056337, 58.9965430056337), .UNSPECIFIED.);
#103 = CARTESIAN_POINT('', (-3., 3.00000000000001, -44.));
#104 = CARTESIAN_POINT('', (-3., -3., -44.));
#105 = CARTESIAN_POINT('', (3., 3.00000000000001, -44.));
#106 = CARTESIAN_POINT('', (3., -3., -44.));
#107 = DRAUGHTING_MODEL('', (#115, #190, #229, #234, #239, #244, #249), #263);
#108 = PRESENTATION_STYLE_ASSIGNMENT((#109));
#109 = SURFACE_STYLE_USAGE(.POSITIVE., #110);
#110 = SURFACE_SIDE_STYLE('', (#111));
#111 = SURFACE_STYLE_FILL_AREA(#112);
#112 = FILL_AREA_STYLE('', (#113));
#113 = FILL_AREA_STYLE_COLOUR('', #114);
#114 = COLOUR_RGB('', 0.50196078431373, 0.50196078431373, 0.50196078431373);
#115 = STYLED_ITEM('', (#108), #1);
#116 = MANIFOLD_SOLID_BREP('CUT', #117);
#117 = CLOSED_SHELL('', (#118, #135, #174));
#118 = ADVANCED_FACE('', (#119), #130, .T.);
#119 = FACE_OUTER_BOUND('', #120, .T.);
#120 = EDGE_LOOP('', (#121));
#121 = ORIENTED_EDGE('', *, *, #122, .F.);
#122 = EDGE_CURVE('', #123, #123, #125, .T.);
#123 = VERTEX_POINT('', #124);
#124 = CARTESIAN_POINT('', (-3., 2.87791997799628E-15, -44.));
#125 = CIRCLE('', #126, 3.);
#126 = AXIS2_PLACEMENT_3D('', #127, #128, #129);
#127 = CARTESIAN_POINT('', (1.12410081243297E-15, 4.44089209850063E-16, -44.));
#128 = DIRECTION('', (0., 0., -1.));
#129 = DIRECTION('', (-1., 8.11276922715405E-16, 0.));
#130 = B_SPLINE_SURFACE_WITH_KNOTS('', 1, 1, ((#131, #132), (#133, #134)), .UNSPECIFIED., .F., .F., .U., (2, 2), (2, 2), (52.9965430056337, 58.9965430056337), (56.2597028468154, 62.2597028468154), .UNSPECIFIED.);
#131 = CARTESIAN_POINT('', (-3., 3.00000000000001, -44.));
#132 = CARTESIAN_POINT('', (3., 3.00000000000001, -44.));
#133 = CARTESIAN_POINT('', (-3., -3., -44.));
#134 = CARTESIAN_POINT('', (3., -3., -44.));
#135 = ADVANCED_FACE('', (#136), #155, .T.);
#136 = FACE_OUTER_BOUND('', #137, .T.);
#137 = EDGE_LOOP('', (#138, #139, #147, #154));
#138 = ORIENTED_EDGE('', *, *, #122, .T.);
#139 = ORIENTED_EDGE('', *, *, #140, .F.);
#140 = EDGE_CURVE('', #141, #123, #143, .T.);
#141 = VERTEX_POINT('', #142);
#142 = CARTESIAN_POINT('', (-3., 3.67394039744206E-15, -57.));
#143 = LINE('', #144, #145);
#144 = CARTESIAN_POINT('', (-3., 3.67394039744206E-15, -57.));
#145 = VECTOR('', #146, 13.);
#146 = DIRECTION('', (0., -7.9602041944578E-16, 13.));
#147 = ORIENTED_EDGE('', *, *, #148, .F.);
#148 = EDGE_CURVE('', #141, #141, #149, .T.);
#149 = CIRCLE('', #150, 3.);
#150 = AXIS2_PLACEMENT_3D('', #151, #152, #153);
#151 = CARTESIAN_POINT('', (9.71445146547012E-17, -1.11022302462516E-16, -57.));
#152 = DIRECTION('', (0., 0., -1.));
#153 = DIRECTION('', (-1., 1.01672487347206E-15, 0.));
#154 = ORIENTED_EDGE('', *, *, #140, .T.);
#155 = (
   BOUNDED_SURFACE ()
   B_SPLINE_SURFACE (1, 2, ((#156, #157, #158, #159, #160, #161, #162, #163, #164), (#165, #166, #167, #168, #169, #170, #171, #172, #173)), .UNSPECIFIED., .F., .T., .U.)
   B_SPLINE_SURFACE_WITH_KNOTS ((2, 2), (3, 2, 2, 2, 3), (-0.588235294117647, -0.224089635854342), (0., 0.25, 0.5, 0.75, 1.), .UNSPECIFIED.)
   GEOMETRIC_REPRESENTATION_ITEM ()
   RATIONAL_B_SPLINE_SURFACE (((1., 0.707106781186548, 1., 0.707106781186548, 1., 0.707106781186548, 1., 0.707106781186548, 1.), (1., 0.707106781186548, 1., 0.707106781186548, 1., 0.707106781186548, 1., 0.707106781186548, 1.)))
   REPRESENTATION_ITEM ('')
   SURFACE ()
);
#156 = CARTESIAN_POINT('', (-3., 3.65507609523389E-15, -57.));
#157 = CARTESIAN_POINT('', (-3., 3., -57.));
#158 = CARTESIAN_POINT('', (1.73665559938498E-15, 3., -57.));
#159 = CARTESIAN_POINT('', (3., 3., -57.));
#160 = CARTESIAN_POINT('', (3., 2.2634330676361E-15, -57.));
#161 = CARTESIAN_POINT('', (3., -3., -57.));
#162 = CARTESIAN_POINT('', (7.12406611531396E-16, -3., -57.));
#163 = CARTESIAN_POINT('', (-3., -3., -57.));
#164 = CARTESIAN_POINT('', (-3., 3.65507609523389E-15, -57.));
#165 = CARTESIAN_POINT('', (-3., 2.87791997799628E-15, -44.));
#166 = CARTESIAN_POINT('', (-3., 3., -44.));
#167 = CARTESIAN_POINT('', (1.73665559938498E-15, 3., -44.));
#168 = CARTESIAN_POINT('', (3., 3., -44.));
#169 = CARTESIAN_POINT('', (3., 1.48627695039849E-15, -44.));
#170 = CARTESIAN_POINT('', (3., -3., -44.));
#171 = CARTESIAN_POINT('', (7.12406611531395E-16, -3., -44.));
#172 = CARTESIAN_POINT('', (-3., -3., -44.));
#173 = CARTESIAN_POINT('', (-3., 2.87791997799628E-15, -44.));
#174 = ADVANCED_FACE('', (#175), #178, .T.);
#175 = FACE_OUTER_BOUND('', #176, .T.);
#176 = EDGE_LOOP('', (#177));
#177 = ORIENTED_EDGE('', *, *, #148, .T.);
#178 = B_SPLINE_SURFACE_WITH_KNOTS('', 1, 1, ((#179, #180), (#181, #182)), .UNSPECIFIED., .F., .F., .U., (2, 2), (2, 2), (1.66690475583121, 7.66690475583121), (1.66690475583121, 7.66690475583121), .UNSPECIFIED.);
#179 = CARTESIAN_POINT('', (3., -3., -57.));
#180 = CARTESIAN_POINT('', (3., 3., -57.));
#181 = CARTESIAN_POINT('', (-3., -3., -57.));
#182 = CARTESIAN_POINT('', (-3., 3., -57.));
#183 = PRESENTATION_STYLE_ASSIGNMENT((#184));
#184 = SURFACE_STYLE_USAGE(.POSITIVE., #185);
#185 = SURFACE_SIDE_STYLE('', (#186));
#186 = SURFACE_STYLE_FILL_AREA(#187);
#187 = FILL_AREA_STYLE('', (#188));
#188 = FILL_AREA_STYLE_COLOUR('', #189);
#189 = COLOUR_RGB('', 0.8, 0.8, 0.8);
#190 = STYLED_ITEM('', (#183), #116);
#191 = TRIMMED_CURVE('cutting part line', #192, (#196), (#197), .T., .CARTESIAN.);
#192 = LINE('', #193, #194);
#193 = CARTESIAN_POINT('', (-4.94920728278413E-31, -2.69422295812418E-15, -44.));
#194 = VECTOR('', #195, 3.);
#195 = DIRECTION('', (3., -5.51091059616306E-16, 0.));
#196 = CARTESIAN_POINT('', (-4.94920728278413E-31, -2.69422295812418E-15, -44.));
#197 = CARTESIAN_POINT('', (3., -3.24531401774049E-15, -44.));
#198 = TRIMMED_CURVE('cutting part line', #199, (#203), (#204), .T., .CARTESIAN.);
#199 = LINE('', #200, #201);
#200 = CARTESIAN_POINT('', (3., -3.24531401774049E-15, -44.));
#201 = VECTOR('', #202, 13.);
#202 = DIRECTION('', (0., -7.9602041944578E-16, -13.));
#203 = CARTESIAN_POINT('', (3., -3.24531401774049E-15, -44.));
#204 = CARTESIAN_POINT('', (3., -4.04133443718627E-15, -57.));
#205 = TRIMMED_CURVE('cutting part line', #206, (#210), (#211), .T., .CARTESIAN.);
#206 = LINE('', #207, #208);
#207 = CARTESIAN_POINT('', (3., -4.04133443718627E-15, -57.));
#208 = VECTOR('', #209, 3.);
#209 = DIRECTION('', (-3., 5.51091059616306E-16, 0.));
#210 = CARTESIAN_POINT('', (3., -4.04133443718627E-15, -57.));
#211 = CARTESIAN_POINT('', (-4.2743153805863E-31, -3.49024337756996E-15, -57.));
#212 = TRIMMED_CURVE('cutting part line', #213, (#217), (#218), .T., .CARTESIAN.);
#213 = LINE('', #214, #215);
#214 = CARTESIAN_POINT('', (-6.41147307087945E-31, -3.49024337756996E-15, -57.));
#215 = VECTOR('', #216, 13.);
#216 = DIRECTION('', (1.46226578809532E-31, 7.9602041944578E-16, 13.));
#217 = CARTESIAN_POINT('', (-6.41147307087945E-31, -3.49024337756996E-15, -57.));
#218 = CARTESIAN_POINT('', (-4.94920728278413E-31, -2.69422295812418E-15, -44.));
#219 = COMPOSITE_CURVE('cutting part line', (#220, #221, #222, #223), .U.);
#220 = COMPOSITE_CURVE_SEGMENT(.CONTINUOUS., .T., #191);
#221 = COMPOSITE_CURVE_SEGMENT(.CONTINUOUS., .T., #198);
#222 = COMPOSITE_CURVE_SEGMENT(.CONTINUOUS., .T., #205);
#223 = COMPOSITE_CURVE_SEGMENT(.CONTINUOUS., .T., #212);
#224 = GEOMETRIC_SET('', (#219, #262));
#225 = PRESENTATION_STYLE_ASSIGNMENT((#226));
#226 = CURVE_STYLE('', #228, POSITIVE_LENGTH_MEASURE(1.E-6), #227);
#227 = COLOUR_RGB('', 0., 0., 1.);
#228 = DRAUGHTING_PRE_DEFINED_CURVE_FONT('continuous');
#229 = STYLED_ITEM('', (#225), #219);
#230 = PRESENTATION_STYLE_ASSIGNMENT((#231));
#231 = CURVE_STYLE('', #233, POSITIVE_LENGTH_MEASURE(1.E-6), #232);
#232 = COLOUR_RGB('', 0., 0., 1.);
#233 = DRAUGHTING_PRE_DEFINED_CURVE_FONT('continuous');
#234 = OVER_RIDING_STYLED_ITEM('', (#230), #191, #229);
#235 = PRESENTATION_STYLE_ASSIGNMENT((#236));
#236 = CURVE_STYLE('', #238, POSITIVE_LENGTH_MEASURE(1.E-6), #237);
#237 = COLOUR_RGB('', 0., 0., 1.);
#238 = DRAUGHTING_PRE_DEFINED_CURVE_FONT('continuous');
#239 = OVER_RIDING_STYLED_ITEM('', (#235), #198, #229);
#240 = PRESENTATION_STYLE_ASSIGNMENT((#241));
#241 = CURVE_STYLE('', #243, POSITIVE_LENGTH_MEASURE(1.E-6), #242);
#242 = COLOUR_RGB('', 0., 0., 1.);
#243 = DRAUGHTING_PRE_DEFINED_CURVE_FONT('continuous');
#244 = OVER_RIDING_STYLED_ITEM('', (#240), #205, #229);
#245 = PRESENTATION_STYLE_ASSIGNMENT((#246));
#246 = CURVE_STYLE('', #248, POSITIVE_LENGTH_MEASURE(1.E-6), #247);
#247 = COLOUR_RGB('', 0., 0., 1.);
#248 = DRAUGHTING_PRE_DEFINED_CURVE_FONT('continuous');
#249 = OVER_RIDING_STYLED_ITEM('', (#245), #212, #229);
#250 = AXIS2_PLACEMENT_3D('CIP', #251, #252, #253);
#251 = CARTESIAN_POINT('', (2.13715769029315E-31, 3.49024337756996E-15, -57.));
#252 = DIRECTION('', (-3.74939945665465E-33, -6.12323399573677E-17, 1.));
#253 = DIRECTION('', (1., -6.12323399573677E-17, 0.));
#254 = AXIS2_PLACEMENT_3D('MCS', #255, #256, #257);
#255 = CARTESIAN_POINT('', (1.34978380439567E-31, 2.20436423846524E-15, -36.));
#256 = DIRECTION('', (-3.74939945665465E-33, -6.12323399573677E-17, 1.));
#257 = DIRECTION('', (1., -6.12323399573677E-17, 0.));
#258 = AXIS2_PLACEMENT_3D('PCS', #259, #260, #261);
#259 = CARTESIAN_POINT('', (0., 0., 0.));
#260 = DIRECTION('', (0., 0., 1.));
#261 = DIRECTION('', (1., 0., 0.));
#262 = CARTESIAN_POINT('CRP', (3., 0., -57.));
#263 = (
   GEOMETRIC_REPRESENTATION_CONTEXT (3)
   GLOBAL_UNCERTAINTY_ASSIGNED_CONTEXT ((#265))
   GLOBAL_UNIT_ASSIGNED_CONTEXT ((#264, #266, #267))
   REPRESENTATION_CONTEXT ('', '3D')
);
#264 = (
   LENGTH_UNIT ()
   NAMED_UNIT (*)
   SI_UNIT (.MILLI., .METRE.)
);
#265 = UNCERTAINTY_MEASURE_WITH_UNIT(LENGTH_MEASURE(1.E-6), #264, 'DISTANCE_ACCURACY_VALUE', '');
#266 = (
   NAMED_UNIT (*)
   SI_UNIT ($, .STERADIAN.)
   SOLID_ANGLE_UNIT ()
);
#267 = (
   NAMED_UNIT (*)
   PLANE_ANGLE_UNIT ()
   SI_UNIT ($, .RADIAN.)
);
#268 = SHAPE_REPRESENTATION('', (), #263);
#269 = PRODUCT_DEFINITION_SHAPE('', '', #270);
#270 = PRODUCT_DEFINITION('', '', #273, #277);
#271 = APPLICATION_CONTEXT('configuration controlled 3D designs of mechanical parts and assemblies');
#272 = APPLICATION_PROTOCOL_DEFINITION('International Standard', 'automotive_design', 2002, #271);
#273 = PRODUCT_DEFINITION_FORMATION_WITH_SPECIFIED_SOURCE('', '', #274, .NOT_KNOWN.);
#274 = PRODUCT('EmptyName', 'EmptyName', '', (#275));
#275 = PRODUCT_CONTEXT('', #271, 'mechanical');
#276 = PRODUCT_RELATED_PRODUCT_CATEGORY('detail', '', (#274));
#277 = PRODUCT_DEFINITION_CONTEXT('part definition', #271, 'design');
#278 = SHAPE_DEFINITION_REPRESENTATION(#269, #268);
#279 = CONSTRUCTIVE_GEOMETRY_REPRESENTATION('supplemental geometry', (#250, #254, #258), #263);
#280 = CONSTRUCTIVE_GEOMETRY_REPRESENTATION_RELATIONSHIP('', '', #268, #279);
#281 = SHAPE_REPRESENTATION_RELATIONSHIP('', '', #268, #282);
#282 = SHAPE_REPRESENTATION('', (#224), #263);
#283 = SHAPE_REPRESENTATION_RELATIONSHIP('', '', #268, #284);
#284 = ADVANCED_BREP_SHAPE_REPRESENTATION('', (#1, #116), #263);
ENDSEC;
END-ISO-10303-21;
