ISO-10303-21;
HEADER;
FILE_DESCRIPTION(('STEP'), '1');
FILE_NAME('C:\\Users\\ds2002\\OneDrive - Sandvik\\HomeShare\\Documents\\Batchrepair\\CorSRT2\\NEW_MILSQ_SLD\\Output\\MOD000000000000000020084615400000.stp', '2019-01-02T12:09:18', (''), (''), 'Express v3.0.0.0', 'Express Tool', 'Unknown');
FILE_SCHEMA(('AUTOMOTIVE_DESIGN'));
ENDSEC;

DATA;
#1 = MANIFOLD_SOLID_BREP('NOCUT', #2);
#2 = CLOSED_SHELL('', (#3, #59, #76, #108));
#3 = ADVANCED_FACE('', (#4), #40, .T.);
#4 = FACE_OUTER_BOUND('', #5, .T.);
#5 = EDGE_LOOP('', (#6, #16, #23, #24, #33));
#6 = ORIENTED_EDGE('', *, *, #7, .T.);
#7 = EDGE_CURVE('', #8, #10, #12, .T.);
#8 = VERTEX_POINT('', #9);
#9 = CARTESIAN_POINT('', (-6.00000000000019, -7.34788079488435E-16, -0.799999999999995));
#10 = VERTEX_POINT('', #11);
#11 = CARTESIAN_POINT('', (-6.00000000000019, 0., -57.));
#12 = LINE('', #13, #14);
#13 = CARTESIAN_POINT('', (-6.00000000000019, 0., -0.799999999999995));
#14 = VECTOR('', #15, 56.2);
#15 = DIRECTION('', (0., 0., -56.2));
#16 = ORIENTED_EDGE('', *, *, #17, .T.);
#17 = EDGE_CURVE('', #10, #10, #18, .T.);
#18 = CIRCLE('', #19, 6.00000000000019);
#19 = AXIS2_PLACEMENT_3D('', #20, #21, #22);
#20 = CARTESIAN_POINT('', (1.33226762955019E-15, 6.66133814775094E-16, -57.));
#21 = DIRECTION('', (0., 0., 1.));
#22 = DIRECTION('', (-1., -1.11022302462512E-16, 0.));
#23 = ORIENTED_EDGE('', *, *, #7, .F.);
#24 = ORIENTED_EDGE('', *, *, #25, .T.);
#25 = EDGE_CURVE('', #8, #26, #28, .T.);
#26 = VERTEX_POINT('', #27);
#27 = CARTESIAN_POINT('', (6.00000000000019, 0., -0.799999999999995));
#28 = CIRCLE('', #29, 6.00000000000019);
#29 = AXIS2_PLACEMENT_3D('', #30, #31, #32);
#30 = CARTESIAN_POINT('', (-1.33226762955019E-15, 6.66133814775094E-16, -0.799999999999995));
#31 = DIRECTION('', (-1.85037170770853E-17, 6.01984494166803E-17, -1.));
#32 = DIRECTION('', (1., -1.11022302462512E-16, -1.85037170770853E-17));
#33 = ORIENTED_EDGE('', *, *, #34, .T.);
#34 = EDGE_CURVE('', #26, #8, #35, .T.);
#35 = CIRCLE('', #36, 6.00000000000019);
#36 = AXIS2_PLACEMENT_3D('', #37, #38, #39);
#37 = CARTESIAN_POINT('', (-1.33226762955019E-15, 6.66133814775094E-16, -0.799999999999995));
#38 = DIRECTION('', (-1.85037170770853E-17, 6.01984494166803E-17, -1.));
#39 = DIRECTION('', (1., -1.11022302462512E-16, -1.85037170770853E-17));
#40 = (
   BOUNDED_SURFACE ()
   B_SPLINE_SURFACE (2, 1, ((#41, #42), (#43, #44), (#45, #46), (#47, #48), (#49, #50), (#51, #52), (#53, #54), (#55, #56), (#57, #58)), .UNSPECIFIED., .T., .F., .U.)
   B_SPLINE_SURFACE_WITH_KNOTS ((3, 2, 2, 2, 3), (2, 2), (0., 0.25, 0.5, 0.75, 1.), (0., 1.), .UNSPECIFIED.)
   GEOMETRIC_REPRESENTATION_ITEM ()
   RATIONAL_B_SPLINE_SURFACE (((1., 1.), (0.707106781186548, 0.707106781186548), (1., 1.), (0.707106781186548, 0.707106781186548), (1., 1.), (0.707106781186548, 0.707106781186548), (1., 1.), (0.707106781186548, 0.707106781186548), (1., 1.)))
   REPRESENTATION_ITEM ('')
   SURFACE ()
);
#41 = CARTESIAN_POINT('', (-6.00000000000019, 0., -62.6212));
#42 = CARTESIAN_POINT('', (-6.00000000000019, 0., 4.82120000000002));
#43 = CARTESIAN_POINT('', (-6.00000000000019, -6.00000000000019, -62.6212));
#44 = CARTESIAN_POINT('', (-6.00000000000019, -6.00000000000019, 4.82120000000002));
#45 = CARTESIAN_POINT('', (-1.47761706436937E-15, -6.00000000000019, -62.6212));
#46 = CARTESIAN_POINT('', (-1.47761706436937E-15, -6.00000000000019, 4.82120000000002));
#47 = CARTESIAN_POINT('', (6.00000000000019, -6.00000000000019, -62.6212));
#48 = CARTESIAN_POINT('', (6.00000000000019, -6.00000000000019, 4.82120000000002));
#49 = CARTESIAN_POINT('', (6.00000000000019, -3.17727873366378E-15, -62.6212));
#50 = CARTESIAN_POINT('', (6.00000000000019, -3.17727873366378E-15, 4.82120000000002));
#51 = CARTESIAN_POINT('', (6.00000000000019, 6.00000000000019, -62.6212));
#52 = CARTESIAN_POINT('', (6.00000000000019, 6.00000000000019, 4.82120000000002));
#53 = CARTESIAN_POINT('', (2.43444974878284E-15, 6.00000000000019, -62.6212));
#54 = CARTESIAN_POINT('', (2.43444974878284E-15, 6.00000000000019, 4.82120000000002));
#55 = CARTESIAN_POINT('', (-6.00000000000019, 6.00000000000019, -62.6212));
#56 = CARTESIAN_POINT('', (-6.00000000000019, 6.00000000000019, 4.82120000000002));
#57 = CARTESIAN_POINT('', (-6.00000000000019, 0., -62.6212));
#58 = CARTESIAN_POINT('', (-6.00000000000019, 0., 4.82120000000002));
#59 = ADVANCED_FACE('', (#60), #71, .T.);
#60 = FACE_OUTER_BOUND('', #61, .T.);
#61 = EDGE_LOOP('', (#62));
#62 = ORIENTED_EDGE('', *, *, #63, .T.);
#63 = EDGE_CURVE('', #64, #64, #66, .T.);
#64 = VERTEX_POINT('', #65);
#65 = CARTESIAN_POINT('', (5.20000000000019, 0., 0.));
#66 = CIRCLE('', #67, 5.20000000000019);
#67 = AXIS2_PLACEMENT_3D('', #68, #69, #70);
#68 = CARTESIAN_POINT('', (3.46944695195361E-16, 2.44249065417534E-15, 0.));
#69 = DIRECTION('', (0., 0., 1.));
#70 = DIRECTION('', (1., -4.69709741187549E-16, 0.));
#71 = B_SPLINE_SURFACE_WITH_KNOTS('', 1, 1, ((#72, #73), (#74, #75)), .UNSPECIFIED., .F., .F., .U., (2, 2), (2, 2), (-5.20100000000014, 5.20100000000024), (-5.20100000000019, 5.20100000000019), .UNSPECIFIED.);
#72 = CARTESIAN_POINT('', (5.20100000000019, 5.20100000000019, 0.));
#73 = CARTESIAN_POINT('', (5.20100000000019, -5.20100000000019, 0.));
#74 = CARTESIAN_POINT('', (-5.20100000000019, 5.20100000000019, 0.));
#75 = CARTESIAN_POINT('', (-5.20100000000019, -5.20100000000019, 0.));
#76 = ADVANCED_FACE('', (#77), #89, .T.);
#77 = FACE_OUTER_BOUND('', #78, .T.);
#78 = EDGE_LOOP('', (#79, #85, #86, #87, #88));
#79 = ORIENTED_EDGE('', *, *, #80, .T.);
#80 = EDGE_CURVE('', #26, #64, #81, .T.);
#81 = LINE('', #82, #83);
#82 = CARTESIAN_POINT('', (6.00000000000019, -1.27103755957245E-15, -0.799999999999998));
#83 = VECTOR('', #84, 1.13137084989847);
#84 = DIRECTION('', (-0.799999999999998, 1.26945074613977E-15, 0.799999999999997));
#85 = ORIENTED_EDGE('', *, *, #63, .F.);
#86 = ORIENTED_EDGE('', *, *, #80, .F.);
#87 = ORIENTED_EDGE('', *, *, #25, .F.);
#88 = ORIENTED_EDGE('', *, *, #34, .F.);
#89 = (
   BOUNDED_SURFACE ()
   B_SPLINE_SURFACE (2, 1, ((#90, #91), (#92, #93), (#94, #95), (#96, #97), (#98, #99), (#100, #101), (#102, #103), (#104, #105), (#106, #107)), .UNSPECIFIED., .T., .F., .U.)
   B_SPLINE_SURFACE_WITH_KNOTS ((3, 2, 2, 2, 3), (2, 2), (0., 0.25, 0.5, 0.75, 1.), (0., 1.), .UNSPECIFIED.)
   GEOMETRIC_REPRESENTATION_ITEM ()
   RATIONAL_B_SPLINE_SURFACE (((1., 1.), (0.707106781186548, 0.707106781186548), (1., 1.), (0.707106781186548, 0.707106781186548), (1., 1.), (0.707106781186548, 0.707106781186548), (1., 1.), (0.707106781186548, 0.707106781186548), (1., 1.)))
   REPRESENTATION_ITEM ('')
   SURFACE ()
);
#90 = CARTESIAN_POINT('', (5.19900000000019, 4.93038065763132E-32, 0.001));
#91 = CARTESIAN_POINT('', (6.00100000000018, -1.27262437300512E-15, -0.800999999999995));
#92 = CARTESIAN_POINT('', (5.19900000000019, -5.19900000000019, 0.00100000000000792));
#93 = CARTESIAN_POINT('', (6.00100000000018, -6.00100000000019, -0.800999999999986));
#94 = CARTESIAN_POINT('', (-6.80853786724275E-16, -5.19900000000019, 0.00100000000000792));
#95 = CARTESIAN_POINT('', (-6.83124495995912E-16, -6.00100000000019, -0.800999999999986));
#96 = CARTESIAN_POINT('', (-5.19900000000019, -5.19900000000019, 0.00100000000000792));
#97 = CARTESIAN_POINT('', (-6.00100000000019, -6.00100000000019, -0.800999999999986));
#98 = CARTESIAN_POINT('', (-5.19900000000019, 2.94399438983617E-17, 0.001));
#99 = CARTESIAN_POINT('', (-6.00100000000019, -1.23864301056348E-15, -0.800999999999995));
#100 = CARTESIAN_POINT('', (-5.19900000000019, 5.19900000000019, 0.000999999999992083));
#101 = CARTESIAN_POINT('', (-6.00100000000019, 6.00100000000018, -0.801000000000004));
#102 = CARTESIAN_POINT('', (-1.28810771370265E-15, 5.19900000000019, 0.000999999999992083));
#103 = CARTESIAN_POINT('', (-1.38405367772263E-15, 6.00100000000018, -0.801000000000004));
#104 = CARTESIAN_POINT('', (5.19900000000019, 5.19900000000019, 0.000999999999992083));
#105 = CARTESIAN_POINT('', (6.00100000000018, 6.00100000000019, -0.801000000000004));
#106 = CARTESIAN_POINT('', (5.19900000000019, 4.93038065763132E-32, 0.001));
#107 = CARTESIAN_POINT('', (6.00100000000018, -1.27262437300512E-15, -0.800999999999995));
#108 = ADVANCED_FACE('', (#109), #112, .T.);
#109 = FACE_OUTER_BOUND('', #110, .T.);
#110 = EDGE_LOOP('', (#111));
#111 = ORIENTED_EDGE('', *, *, #17, .F.);
#112 = B_SPLINE_SURFACE_WITH_KNOTS('', 1, 1, ((#113, #114), (#115, #116)), .UNSPECIFIED., .F., .F., .U., (2, 2), (2, 2), (-6.00100000000019, 6.00100000000019), (-6.00100000000019, 6.00100000000019), .UNSPECIFIED.);
#113 = CARTESIAN_POINT('', (6.00100000000019, -6.00100000000019, -57.));
#114 = CARTESIAN_POINT('', (6.00100000000019, 6.00100000000019, -57.));
#115 = CARTESIAN_POINT('', (-6.00100000000019, -6.00100000000019, -57.));
#116 = CARTESIAN_POINT('', (-6.00100000000019, 6.00100000000019, -57.));
#117 = DRAUGHTING_MODEL('', (#125, #210, #249, #254, #259, #264, #269), #283);
#118 = PRESENTATION_STYLE_ASSIGNMENT((#119));
#119 = SURFACE_STYLE_USAGE(.POSITIVE., #120);
#120 = SURFACE_SIDE_STYLE('', (#121));
#121 = SURFACE_STYLE_FILL_AREA(#122);
#122 = FILL_AREA_STYLE('', (#123));
#123 = FILL_AREA_STYLE_COLOUR('', #124);
#124 = COLOUR_RGB('', 0.50196078431373, 0.50196078431373, 0.50196078431373);
#125 = STYLED_ITEM('', (#118), #1);
#126 = MANIFOLD_SOLID_BREP('CUT', #127);
#127 = CLOSED_SHELL('', (#128, #154, #194));
#128 = ADVANCED_FACE('', (#129), #149, .T.);
#129 = FACE_OUTER_BOUND('', #130, .T.);
#130 = EDGE_LOOP('', (#131, #142));
#131 = ORIENTED_EDGE('', *, *, #132, .F.);
#132 = EDGE_CURVE('', #133, #135, #137, .T.);
#133 = VERTEX_POINT('', #134);
#134 = CARTESIAN_POINT('', (-6.00000000000023, 7.3478807948844E-16, -83.));
#135 = VERTEX_POINT('', #136);
#136 = CARTESIAN_POINT('', (6.00000000000023, 0., -83.));
#137 = CIRCLE('', #138, 6.00000000000023);
#138 = AXIS2_PLACEMENT_3D('', #139, #140, #141);
#139 = CARTESIAN_POINT('', (1.52655665885959E-15, 7.7715611723761E-16, -83.));
#140 = DIRECTION('', (0., 0., 1.));
#141 = DIRECTION('', (1., -1.29526019539597E-16, 0.));
#142 = ORIENTED_EDGE('', *, *, #143, .F.);
#143 = EDGE_CURVE('', #135, #133, #144, .T.);
#144 = CIRCLE('', #145, 6.00000000000023);
#145 = AXIS2_PLACEMENT_3D('', #146, #147, #148);
#146 = CARTESIAN_POINT('', (1.52655665885959E-15, 7.7715611723761E-16, -83.));
#147 = DIRECTION('', (0., 0., 1.));
#148 = DIRECTION('', (1., -1.29526019539597E-16, 0.));
#149 = B_SPLINE_SURFACE_WITH_KNOTS('', 1, 1, ((#150, #151), (#152, #153)), .UNSPECIFIED., .F., .F., .U., (2, 2), (2, 2), (-12.0010000000005, 0.00100000000000033), (-6.00100000000023, 6.00100000000023), .UNSPECIFIED.);
#150 = CARTESIAN_POINT('', (-6.00100000000023, 6.00100000000023, -83.));
#151 = CARTESIAN_POINT('', (-6.00100000000023, -6.00100000000023, -83.));
#152 = CARTESIAN_POINT('', (6.00100000000023, 6.00100000000023, -83.));
#153 = CARTESIAN_POINT('', (6.00100000000023, -6.00100000000023, -83.));
#154 = ADVANCED_FACE('', (#155), #175, .T.);
#155 = FACE_OUTER_BOUND('', #156, .T.);
#156 = EDGE_LOOP('', (#157, #165, #166, #167, #168));
#157 = ORIENTED_EDGE('', *, *, #158, .T.);
#158 = EDGE_CURVE('', #159, #133, #161, .T.);
#159 = VERTEX_POINT('', #160);
#160 = CARTESIAN_POINT('', (-6.00000000000019, 0., -57.));
#161 = LINE('', #162, #163);
#162 = CARTESIAN_POINT('', (-6.00000000000019, 3.77989529903752E-31, -57.));
#163 = VECTOR('', #164, 26.);
#164 = DIRECTION('', (0., -1.64333380891745E-31, -26.));
#165 = ORIENTED_EDGE('', *, *, #132, .T.);
#166 = ORIENTED_EDGE('', *, *, #143, .T.);
#167 = ORIENTED_EDGE('', *, *, #158, .F.);
#168 = ORIENTED_EDGE('', *, *, #169, .F.);
#169 = EDGE_CURVE('', #159, #159, #170, .T.);
#170 = CIRCLE('', #171, 6.00000000000019);
#171 = AXIS2_PLACEMENT_3D('', #172, #173, #174);
#172 = CARTESIAN_POINT('', (1.33226762955019E-15, 6.66133814775094E-16, -57.));
#173 = DIRECTION('', (0., 0., 1.));
#174 = DIRECTION('', (-1., -1.11022302462512E-16, 0.));
#175 = (
   BOUNDED_SURFACE ()
   B_SPLINE_SURFACE (2, 1, ((#176, #177), (#178, #179), (#180, #181), (#182, #183), (#184, #185), (#186, #187), (#188, #189), (#190, #191), (#192, #193)), .UNSPECIFIED., .T., .F., .U.)
   B_SPLINE_SURFACE_WITH_KNOTS ((3, 2, 2, 2, 3), (2, 2), (0., 0.25, 0.5, 0.75, 1.), (0., 1.), .UNSPECIFIED.)
   GEOMETRIC_REPRESENTATION_ITEM ()
   RATIONAL_B_SPLINE_SURFACE (((1., 1.), (0.707106781186548, 0.707106781186548), (1., 1.), (0.707106781186548, 0.707106781186548), (1., 1.), (0.707106781186548, 0.707106781186548), (1., 1.), (0.707106781186548, 0.707106781186548), (1., 1.)))
   REPRESENTATION_ITEM ('')
   SURFACE ()
);
#176 = CARTESIAN_POINT('', (-6.00000000000019, 1.97215226305253E-31, -85.6012));
#177 = CARTESIAN_POINT('', (-6.00000000000019, 3.94430452610506E-31, -54.3988));
#178 = CARTESIAN_POINT('', (-6.00000000000019, -6.00000000000019, -85.6012));
#179 = CARTESIAN_POINT('', (-6.00000000000019, -6.00000000000019, -54.3988));
#180 = CARTESIAN_POINT('', (-2.39355105968513E-15, -6.00000000000019, -85.6012));
#181 = CARTESIAN_POINT('', (-2.39355105968513E-15, -6.00000000000019, -54.3988));
#182 = CARTESIAN_POINT('', (6.00000000000019, -6.00000000000019, -85.6012));
#183 = CARTESIAN_POINT('', (6.00000000000019, -6.00000000000019, -54.3988));
#184 = CARTESIAN_POINT('', (6.00000000000019, -3.17727873366378E-15, -85.6012));
#185 = CARTESIAN_POINT('', (6.00000000000019, -3.17727873366378E-15, -54.3988));
#186 = CARTESIAN_POINT('', (6.00000000000019, 6.00000000000019, -85.6012));
#187 = CARTESIAN_POINT('', (6.00000000000019, 6.00000000000019, -54.3988));
#188 = CARTESIAN_POINT('', (1.51851575346709E-15, 6.00000000000019, -85.6012));
#189 = CARTESIAN_POINT('', (1.51851575346709E-15, 6.00000000000019, -54.3988));
#190 = CARTESIAN_POINT('', (-6.00000000000019, 6.00000000000019, -85.6012));
#191 = CARTESIAN_POINT('', (-6.00000000000019, 6.00000000000019, -54.3988));
#192 = CARTESIAN_POINT('', (-6.00000000000019, 1.97215226305253E-31, -85.6012));
#193 = CARTESIAN_POINT('', (-6.00000000000019, 3.94430452610506E-31, -54.3988));
#194 = ADVANCED_FACE('', (#195), #198, .T.);
#195 = FACE_OUTER_BOUND('', #196, .T.);
#196 = EDGE_LOOP('', (#197));
#197 = ORIENTED_EDGE('', *, *, #169, .T.);
#198 = B_SPLINE_SURFACE_WITH_KNOTS('', 1, 1, ((#199, #200), (#201, #202)), .UNSPECIFIED., .F., .F., .U., (2, 2), (2, 2), (-6.00100000000019, 6.00100000000019), (-6.00100000000019, 6.00100000000019), .UNSPECIFIED.);
#199 = CARTESIAN_POINT('', (-6.00100000000019, -6.00100000000019, -57.));
#200 = CARTESIAN_POINT('', (-6.00100000000019, 6.00100000000019, -57.));
#201 = CARTESIAN_POINT('', (6.00100000000019, -6.00100000000019, -57.));
#202 = CARTESIAN_POINT('', (6.00100000000019, 6.00100000000019, -57.));
#203 = PRESENTATION_STYLE_ASSIGNMENT((#204));
#204 = SURFACE_STYLE_USAGE(.POSITIVE., #205);
#205 = SURFACE_SIDE_STYLE('', (#206));
#206 = SURFACE_STYLE_FILL_AREA(#207);
#207 = FILL_AREA_STYLE('', (#208));
#208 = FILL_AREA_STYLE_COLOUR('', #209);
#209 = COLOUR_RGB('', 0.8, 0.8, 0.8);
#210 = STYLED_ITEM('', (#203), #126);
#211 = TRIMMED_CURVE('cutting part line', #212, (#216), (#217), .T., .CARTESIAN.);
#212 = LINE('', #213, #214);
#213 = CARTESIAN_POINT('', (-8.32667268468867E-17, 0., -83.));
#214 = VECTOR('', #215, 6.00000000000023);
#215 = DIRECTION('', (6.00000000000023, 0., -1.4210854715202E-14));
#216 = CARTESIAN_POINT('', (-8.32667268468867E-17, 0., -83.));
#217 = CARTESIAN_POINT('', (6.00000000000023, 0., -83.));
#218 = TRIMMED_CURVE('cutting part line', #219, (#223), (#224), .T., .CARTESIAN.);
#219 = LINE('', #220, #221);
#220 = CARTESIAN_POINT('', (6.00000000000019, 0., -83.));
#221 = VECTOR('', #222, 26.);
#222 = DIRECTION('', (0., 1.55322739115199E-31, 26.));
#223 = CARTESIAN_POINT('', (6.00000000000019, 0., -83.));
#224 = CARTESIAN_POINT('', (6.00000000000019, 1.55322739115199E-31, -57.));
#225 = TRIMMED_CURVE('cutting part line', #226, (#230), (#231), .T., .CARTESIAN.);
#226 = LINE('', #227, #228);
#227 = CARTESIAN_POINT('', (6.00000000000019, 0., -57.));
#228 = VECTOR('', #229, 6.00000000000019);
#229 = DIRECTION('', (-6.00000000000019, 0., -7.105427357601E-15));
#230 = CARTESIAN_POINT('', (6.00000000000019, 0., -57.));
#231 = CARTESIAN_POINT('', (0., 0., -57.));
#232 = TRIMMED_CURVE('cutting part line', #233, (#237), (#238), .T., .CARTESIAN.);
#233 = LINE('', #234, #235);
#234 = CARTESIAN_POINT('', (0., 0., -57.));
#235 = VECTOR('', #236, 26.);
#236 = DIRECTION('', (0., 0., -26.));
#237 = CARTESIAN_POINT('', (0., 0., -57.));
#238 = CARTESIAN_POINT('', (0., 0., -83.));
#239 = COMPOSITE_CURVE('cutting part line', (#240, #241, #242, #243), .U.);
#240 = COMPOSITE_CURVE_SEGMENT(.CONTINUOUS., .T., #211);
#241 = COMPOSITE_CURVE_SEGMENT(.CONTINUOUS., .T., #218);
#242 = COMPOSITE_CURVE_SEGMENT(.CONTINUOUS., .T., #225);
#243 = COMPOSITE_CURVE_SEGMENT(.CONTINUOUS., .T., #232);
#244 = GEOMETRIC_SET('', (#239, #282));
#245 = PRESENTATION_STYLE_ASSIGNMENT((#246));
#246 = CURVE_STYLE('', #248, POSITIVE_LENGTH_MEASURE(1.E-6), #247);
#247 = COLOUR_RGB('', 0., 0., 1.);
#248 = DRAUGHTING_PRE_DEFINED_CURVE_FONT('continuous');
#249 = STYLED_ITEM('', (#245), #239);
#250 = PRESENTATION_STYLE_ASSIGNMENT((#251));
#251 = CURVE_STYLE('', #253, POSITIVE_LENGTH_MEASURE(1.E-6), #252);
#252 = COLOUR_RGB('', 0., 0., 1.);
#253 = DRAUGHTING_PRE_DEFINED_CURVE_FONT('continuous');
#254 = OVER_RIDING_STYLED_ITEM('', (#250), #211, #249);
#255 = PRESENTATION_STYLE_ASSIGNMENT((#256));
#256 = CURVE_STYLE('', #258, POSITIVE_LENGTH_MEASURE(1.E-6), #257);
#257 = COLOUR_RGB('', 0., 0., 1.);
#258 = DRAUGHTING_PRE_DEFINED_CURVE_FONT('continuous');
#259 = OVER_RIDING_STYLED_ITEM('', (#255), #218, #249);
#260 = PRESENTATION_STYLE_ASSIGNMENT((#261));
#261 = CURVE_STYLE('', #263, POSITIVE_LENGTH_MEASURE(1.E-6), #262);
#262 = COLOUR_RGB('', 0., 0., 1.);
#263 = DRAUGHTING_PRE_DEFINED_CURVE_FONT('continuous');
#264 = OVER_RIDING_STYLED_ITEM('', (#260), #225, #249);
#265 = PRESENTATION_STYLE_ASSIGNMENT((#266));
#266 = CURVE_STYLE('', #268, POSITIVE_LENGTH_MEASURE(1.E-6), #267);
#267 = COLOUR_RGB('', 0., 0., 1.);
#268 = DRAUGHTING_PRE_DEFINED_CURVE_FONT('continuous');
#269 = OVER_RIDING_STYLED_ITEM('', (#265), #232, #249);
#270 = AXIS2_PLACEMENT_3D('MCS', #271, #272, #273);
#271 = CARTESIAN_POINT('', (0., 0., -45.));
#272 = DIRECTION('', (0., 0., 1.));
#273 = DIRECTION('', (1., 0., 0.));
#274 = AXIS2_PLACEMENT_3D('PCS', #275, #276, #277);
#275 = CARTESIAN_POINT('', (0., 0., 0.));
#276 = DIRECTION('', (0., 0., 1.));
#277 = DIRECTION('', (1., 0., 0.));
#278 = AXIS2_PLACEMENT_3D('CIP', #279, #280, #281);
#279 = CARTESIAN_POINT('', (0., 0., -83.));
#280 = DIRECTION('', (0., 0., 1.));
#281 = DIRECTION('', (1., 0., 0.));
#282 = CARTESIAN_POINT('CRP', (6.00000000000023, 0., -83.));
#283 = (
   GEOMETRIC_REPRESENTATION_CONTEXT (3)
   GLOBAL_UNCERTAINTY_ASSIGNED_CONTEXT ((#285))
   GLOBAL_UNIT_ASSIGNED_CONTEXT ((#284, #286, #287))
   REPRESENTATION_CONTEXT ('', '3D')
);
#284 = (
   LENGTH_UNIT ()
   NAMED_UNIT (*)
   SI_UNIT (.MILLI., .METRE.)
);
#285 = UNCERTAINTY_MEASURE_WITH_UNIT(LENGTH_MEASURE(1.E-6), #284, 'DISTANCE_ACCURACY_VALUE', '');
#286 = (
   NAMED_UNIT (*)
   SI_UNIT ($, .STERADIAN.)
   SOLID_ANGLE_UNIT ()
);
#287 = (
   NAMED_UNIT (*)
   PLANE_ANGLE_UNIT ()
   SI_UNIT ($, .RADIAN.)
);
#288 = SHAPE_REPRESENTATION('', (), #283);
#289 = PRODUCT_DEFINITION_SHAPE('', '', #290);
#290 = PRODUCT_DEFINITION('', '', #293, #297);
#291 = APPLICATION_CONTEXT('configuration controlled 3D designs of mechanical parts and assemblies');
#292 = APPLICATION_PROTOCOL_DEFINITION('International Standard', 'automotive_design', 2002, #291);
#293 = PRODUCT_DEFINITION_FORMATION_WITH_SPECIFIED_SOURCE('', '', #294, .NOT_KNOWN.);
#294 = PRODUCT('R216.33-12040-AC26U-634153055188430269-1', 'R216.33-12040-AC26U H10F', '', (#295));
#295 = PRODUCT_CONTEXT('', #291, 'mechanical');
#296 = PRODUCT_RELATED_PRODUCT_CATEGORY('detail', '', (#294));
#297 = PRODUCT_DEFINITION_CONTEXT('part definition', #291, 'design');
#298 = SHAPE_DEFINITION_REPRESENTATION(#289, #288);
#299 = CONSTRUCTIVE_GEOMETRY_REPRESENTATION('supplemental geometry', (#270, #274, #278), #283);
#300 = CONSTRUCTIVE_GEOMETRY_REPRESENTATION_RELATIONSHIP('', '', #288, #299);
#301 = SHAPE_REPRESENTATION_RELATIONSHIP('', '', #288, #302);
#302 = SHAPE_REPRESENTATION('', (#244), #283);
#303 = SHAPE_REPRESENTATION_RELATIONSHIP('', '', #288, #304);
#304 = ADVANCED_BREP_SHAPE_REPRESENTATION('', (#1, #126), #283);
ENDSEC;
END-ISO-10303-21;
