ISO-10303-21;
HEADER;
FILE_DESCRIPTION(('STEP'), '1');
FILE_NAME('C:\\Users\\ds2002\\OneDrive - Sandvik\\HomeShare\\Documents\\Batchrepair\\CorSRT2\\NEW_MILSQ_SLD\\Output\\MOD000000000000000020084603200000.stp', '2019-01-02T12:05:57', (''), (''), 'Express v3.0.0.0', 'Express Tool', 'Unknown');
FILE_SCHEMA(('AUTOMOTIVE_DESIGN'));
ENDSEC;

DATA;
#1 = MANIFOLD_SOLID_BREP('NOCUT', #2);
#2 = CLOSED_SHELL('', (#3, #50, #89, #136, #145, #176));
#3 = ADVANCED_FACE('', (#4), #31, .T.);
#4 = FACE_OUTER_BOUND('', #5, .T.);
#5 = EDGE_LOOP('', (#6, #16, #23, #24));
#6 = ORIENTED_EDGE('', *, *, #7, .F.);
#7 = EDGE_CURVE('', #8, #10, #12, .T.);
#8 = VERTEX_POINT('', #9);
#9 = CARTESIAN_POINT('', (-1.5, 2.89016644598775E-15, -45.7));
#10 = VERTEX_POINT('', #11);
#11 = CARTESIAN_POINT('', (-0.5, 3.27593018771917E-15, -53.));
#12 = LINE('', #13, #14);
#13 = CARTESIAN_POINT('', (-1.5, 2.89016644598775E-15, -45.7));
#14 = VECTOR('', #15, 7.36817480791546);
#15 = DIRECTION('', (1., 3.8576374173142E-16, -7.3));
#16 = ORIENTED_EDGE('', *, *, #17, .T.);
#17 = EDGE_CURVE('', #8, #8, #18, .T.);
#18 = CIRCLE('', #19, 1.5);
#19 = AXIS2_PLACEMENT_3D('', #20, #21, #22);
#20 = CARTESIAN_POINT('', (-1.38777878078145E-17, 8.32667268468867E-16, -45.7));
#21 = DIRECTION('', (2.21145404295013E-29, 1.61223931492665E-14, -1.));
#22 = DIRECTION('', (-1., 1.37166611834592E-15, 0.));
#23 = ORIENTED_EDGE('', *, *, #7, .T.);
#24 = ORIENTED_EDGE('', *, *, #25, .F.);
#25 = EDGE_CURVE('', #10, #10, #26, .T.);
#26 = CIRCLE('', #27, 0.5);
#27 = AXIS2_PLACEMENT_3D('', #28, #29, #30);
#28 = CARTESIAN_POINT('', (-5.03069808033274E-17, 2.99760216648792E-15, -53.));
#29 = DIRECTION('', (2.69238826964855E-29, 4.83671794477997E-14, -1.));
#30 = DIRECTION('', (-1., 5.56656042462495E-16, 0.));
#31 = (
   BOUNDED_SURFACE ()
   B_SPLINE_SURFACE (2, 1, ((#32, #33), (#34, #35), (#36, #37), (#38, #39), (#40, #41), (#42, #43), (#44, #45), (#46, #47), (#48, #49)), .UNSPECIFIED., .T., .F., .U.)
   B_SPLINE_SURFACE_WITH_KNOTS ((3, 2, 2, 2, 3), (2, 2), (0., 0.25, 0.5, 0.75, 1.), (0., 1.), .UNSPECIFIED.)
   GEOMETRIC_REPRESENTATION_ITEM ()
   RATIONAL_B_SPLINE_SURFACE (((1., 1.), (0.707106781186548, 0.707106781186548), (1., 1.), (0.707106781186548, 0.707106781186548), (1., 1.), (0.707106781186548, 0.707106781186548), (1., 1.), (0.707106781186548, 0.707106781186548), (1., 1.)))
   REPRESENTATION_ITEM ('')
   SURFACE ()
);
#32 = CARTESIAN_POINT('', (-1.5, 2.89016644598775E-15, -45.7));
#33 = CARTESIAN_POINT('', (-0.5, 3.78983159885413E-15, -53.));
#34 = CARTESIAN_POINT('', (-1.5, 1.5, -45.7));
#35 = CARTESIAN_POINT('', (-0.499999999999999, 0.500000000000004, -53.));
#36 = CARTESIAN_POINT('', (1.73666716875389E-15, 1.5, -45.7));
#37 = CARTESIAN_POINT('', (7.40796580675802E-16, 0.500000000000003, -53.));
#38 = CARTESIAN_POINT('', (1.5, 1.5, -45.7));
#39 = CARTESIAN_POINT('', (0.5, 0.500000000000003, -53.));
#40 = CARTESIAN_POINT('', (1.5, -9.74453182465293E-17, -45.7));
#41 = CARTESIAN_POINT('', (0.5, 2.79396101077603E-15, -53.));
#42 = CARTESIAN_POINT('', (1.5, -1.5, -45.7));
#43 = CARTESIAN_POINT('', (0.5, -0.499999999999997, -53.));
#44 = CARTESIAN_POINT('', (-1.06724757560828E-15, -1.5, -45.7));
#45 = CARTESIAN_POINT('', (-1.93841667444924E-16, -0.499999999999997, -53.));
#46 = CARTESIAN_POINT('', (-1.5, -1.5, -45.7));
#47 = CARTESIAN_POINT('', (-0.5, -0.499999999999996, -53.));
#48 = CARTESIAN_POINT('', (-1.5, 2.89016644598775E-15, -45.7));
#49 = CARTESIAN_POINT('', (-0.5, 3.78983159885413E-15, -53.));
#50 = ADVANCED_FACE('', (#51), #70, .T.);
#51 = FACE_OUTER_BOUND('', #52, .T.);
#52 = EDGE_LOOP('', (#53, #61, #68, #69));
#53 = ORIENTED_EDGE('', *, *, #54, .F.);
#54 = EDGE_CURVE('', #55, #8, #57, .T.);
#55 = VERTEX_POINT('', #56);
#56 = CARTESIAN_POINT('', (-3., 2.82281087203465E-15, -43.1));
#57 = LINE('', #58, #59);
#58 = CARTESIAN_POINT('', (-3., 2.82281087203465E-15, -43.1));
#59 = VECTOR('', #60, 3.00166620396073);
#60 = DIRECTION('', (1.5, 6.73555739531003E-17, -2.6));
#61 = ORIENTED_EDGE('', *, *, #62, .T.);
#62 = EDGE_CURVE('', #55, #55, #63, .T.);
#63 = CIRCLE('', #64, 3.);
#64 = AXIS2_PLACEMENT_3D('', #65, #66, #67);
#65 = CARTESIAN_POINT('', (-7.21644966006352E-16, 1.38777878078145E-15, -43.1));
#66 = DIRECTION('', (0., 0., -1.));
#67 = DIRECTION('', (-1., 4.78344030417735E-16, 0.));
#68 = ORIENTED_EDGE('', *, *, #54, .T.);
#69 = ORIENTED_EDGE('', *, *, #17, .F.);
#70 = (
   BOUNDED_SURFACE ()
   B_SPLINE_SURFACE (2, 1, ((#71, #72), (#73, #74), (#75, #76), (#77, #78), (#79, #80), (#81, #82), (#83, #84), (#85, #86), (#87, #88)), .UNSPECIFIED., .T., .F., .U.)
   B_SPLINE_SURFACE_WITH_KNOTS ((3, 2, 2, 2, 3), (2, 2), (0., 0.25, 0.5, 0.75, 1.), (0., 1.), .UNSPECIFIED.)
   GEOMETRIC_REPRESENTATION_ITEM ()
   RATIONAL_B_SPLINE_SURFACE (((1., 1.), (0.707106781186548, 0.707106781186548), (1., 1.), (0.707106781186548, 0.707106781186548), (1., 1.), (0.707106781186548, 0.707106781186548), (1., 1.), (0.707106781186548, 0.707106781186548), (1., 1.)))
   REPRESENTATION_ITEM ('')
   SURFACE ()
);
#71 = CARTESIAN_POINT('', (-3., 2.82281087203465E-15, -43.1));
#72 = CARTESIAN_POINT('', (-1.49999999999999, 1.49467216286421E-15, -45.7));
#73 = CARTESIAN_POINT('', (-3., 3., -43.1));
#74 = CARTESIAN_POINT('', (-1.49999999999999, 1.5, -45.7));
#75 = CARTESIAN_POINT('', (8.627570127623E-16, 3., -43.1));
#76 = CARTESIAN_POINT('', (6.92248245702291E-15, 1.5, -45.7));
#77 = CARTESIAN_POINT('', (3., 3., -43.1));
#78 = CARTESIAN_POINT('', (1.50000000000001, 1.5, -45.7));
#79 = CARTESIAN_POINT('', (3., 2.42956447606024E-15, -43.1));
#80 = CARTESIAN_POINT('', (1.50000000000001, 1.29804896487701E-15, -45.7));
#81 = CARTESIAN_POINT('', (3., -3., -43.1));
#82 = CARTESIAN_POINT('', (1.50000000000001, -1.5, -45.7));
#83 = CARTESIAN_POINT('', (8.36904656532094E-16, -3., -43.1));
#84 = CARTESIAN_POINT('', (6.90955627890781E-15, -1.5, -45.7));
#85 = CARTESIAN_POINT('', (-3., -3., -43.1));
#86 = CARTESIAN_POINT('', (-1.49999999999999, -1.5, -45.7));
#87 = CARTESIAN_POINT('', (-3., 2.82281087203465E-15, -43.1));
#88 = CARTESIAN_POINT('', (-1.49999999999999, 1.49467216286421E-15, -45.7));
#89 = ADVANCED_FACE('', (#90), #117, .T.);
#90 = FACE_OUTER_BOUND('', #91, .T.);
#91 = EDGE_LOOP('', (#92, #102, #109, #110));
#92 = ORIENTED_EDGE('', *, *, #93, .T.);
#93 = EDGE_CURVE('', #94, #96, #98, .T.);
#94 = VERTEX_POINT('', #95);
#95 = CARTESIAN_POINT('', (-3., 2.02066721859313E-16, -0.299999999999997));
#96 = VERTEX_POINT('', #97);
#97 = CARTESIAN_POINT('', (-2.7, 1.65327317884893E-16, 0.));
#98 = LINE('', #99, #100);
#99 = CARTESIAN_POINT('', (-3., 2.02066721859313E-16, -0.299999999999997));
#100 = VECTOR('', #101, 0.424264068711926);
#101 = DIRECTION('', (0.3, -3.673940397442E-17, 0.299999999999997));
#102 = ORIENTED_EDGE('', *, *, #103, .T.);
#103 = EDGE_CURVE('', #96, #96, #104, .T.);
#104 = CIRCLE('', #105, 2.7);
#105 = AXIS2_PLACEMENT_3D('', #106, #107, #108);
#106 = CARTESIAN_POINT('', (6.24500451351651E-17, -1.88737914186277E-15, -1.07852076885685E-31));
#107 = DIRECTION('', (6.60738625565492E-33, 6.12323399573678E-17, -1.));
#108 = DIRECTION('', (-1., 7.60261651758392E-16, 3.99452136613649E-32));
#109 = ORIENTED_EDGE('', *, *, #93, .F.);
#110 = ORIENTED_EDGE('', *, *, #111, .F.);
#111 = EDGE_CURVE('', #94, #94, #112, .T.);
#112 = CIRCLE('', #113, 3.);
#113 = AXIS2_PLACEMENT_3D('', #114, #115, #116);
#114 = CARTESIAN_POINT('', (-8.32667268468867E-16, 1.66533453693773E-16, -0.299999999999997));
#115 = DIRECTION('', (7.45939217764516E-34, 6.29780982393227E-17, -1.));
#116 = DIRECTION('', (-1., 1.18444227218465E-17, 0.));
#117 = (
   BOUNDED_SURFACE ()
   B_SPLINE_SURFACE (1, 2, ((#118, #119, #120, #121, #122, #123, #124, #125, #126), (#127, #128, #129, #130, #131, #132, #133, #134, #135)), .UNSPECIFIED., .F., .T., .U.)
   B_SPLINE_SURFACE_WITH_KNOTS ((2, 2), (3, 2, 2, 2, 3), (0., 1.), (0., 0.25, 0.5, 0.75, 1.), .UNSPECIFIED.)
   GEOMETRIC_REPRESENTATION_ITEM ()
   RATIONAL_B_SPLINE_SURFACE (((1., 0.707106781186548, 1., 0.707106781186548, 1., 0.707106781186548, 1., 0.707106781186548, 1.), (1., 0.707106781186548, 1., 0.707106781186548, 1., 0.707106781186548, 1., 0.707106781186548, 1.)))
   REPRESENTATION_ITEM ('')
   SURFACE ()
);
#118 = CARTESIAN_POINT('', (-3., 1.49129302665284E-15, -0.299999999999997));
#119 = CARTESIAN_POINT('', (-3., 3., -0.299999999999985));
#120 = CARTESIAN_POINT('', (2.34149119846292E-15, 3., -0.299999999999985));
#121 = CARTESIAN_POINT('', (3., 3., -0.299999999999985));
#122 = CARTESIAN_POINT('', (3., -1.34594359183367E-15, -0.299999999999997));
#123 = CARTESIAN_POINT('', (3., -3., -0.300000000000009));
#124 = CARTESIAN_POINT('', (-1.28351380279387E-16, -3., -0.300000000000009));
#125 = CARTESIAN_POINT('', (-3., -3., -0.300000000000009));
#126 = CARTESIAN_POINT('', (-3., 1.49129302665284E-15, -0.299999999999997));
#127 = CARTESIAN_POINT('', (-2.7, 1.65327317884893E-16, -2.18952885050753E-47));
#128 = CARTESIAN_POINT('', (-2.7, 2.7, 1.04916075827078E-14));
#129 = CARTESIAN_POINT('', (2.19962936753859E-15, 2.7, 1.04916075827078E-14));
#130 = CARTESIAN_POINT('', (2.7, 2.7, 1.04916075827078E-14));
#131 = CARTESIAN_POINT('', (2.7, -2.38818563875297E-15, 1.12461399303431E-30));
#132 = CARTESIAN_POINT('', (2.7, -2.7, -1.04916075827078E-14));
#133 = CARTESIAN_POINT('', (-2.32289533294833E-17, -2.7, -1.04916075827078E-14));
#134 = CARTESIAN_POINT('', (-2.7, -2.7, -1.04916075827078E-14));
#135 = CARTESIAN_POINT('', (-2.7, 1.65327317884893E-16, -2.18952885050753E-47));
#136 = ADVANCED_FACE('', (#137), #140, .T.);
#137 = FACE_OUTER_BOUND('', #138, .T.);
#138 = EDGE_LOOP('', (#139));
#139 = ORIENTED_EDGE('', *, *, #103, .F.);
#140 = B_SPLINE_SURFACE_WITH_KNOTS('', 1, 1, ((#141, #142), (#143, #144)), .UNSPECIFIED., .F., .F., .U., (2, 2), (2, 2), (1.50021428024809, 6.90021428024809), (1.50021428024809, 6.90021428024809), .UNSPECIFIED.);
#141 = CARTESIAN_POINT('', (2.7, -2.7, 6.94010003971609E-15));
#142 = CARTESIAN_POINT('', (-2.7, -2.7, -7.27075467548589E-15));
#143 = CARTESIAN_POINT('', (2.7, 2.7, 7.27075467548587E-15));
#144 = CARTESIAN_POINT('', (-2.7, 2.7, -6.9401000397161E-15));
#145 = ADVANCED_FACE('', (#146), #157, .T.);
#146 = FACE_OUTER_BOUND('', #147, .T.);
#147 = EDGE_LOOP('', (#148, #154, #155, #156));
#148 = ORIENTED_EDGE('', *, *, #149, .T.);
#149 = EDGE_CURVE('', #55, #94, #150, .T.);
#150 = LINE('', #151, #152);
#151 = CARTESIAN_POINT('', (-3., 2.82281087203465E-15, -43.1));
#152 = VECTOR('', #153, 42.8);
#153 = DIRECTION('', (0., -2.62074415017534E-15, 42.8));
#154 = ORIENTED_EDGE('', *, *, #111, .T.);
#155 = ORIENTED_EDGE('', *, *, #149, .F.);
#156 = ORIENTED_EDGE('', *, *, #62, .F.);
#157 = (
   BOUNDED_SURFACE ()
   B_SPLINE_SURFACE (1, 2, ((#158, #159, #160, #161, #162, #163, #164, #165, #166), (#167, #168, #169, #170, #171, #172, #173, #174, #175)), .UNSPECIFIED., .F., .T., .U.)
   B_SPLINE_SURFACE_WITH_KNOTS ((2, 2), (3, 2, 2, 2, 3), (0., 1.), (0., 4.7123889803847, 9.4247779607694, 14.1371669411541, 18.8495559215388), .UNSPECIFIED.)
   GEOMETRIC_REPRESENTATION_ITEM ()
   RATIONAL_B_SPLINE_SURFACE (((1., 0.707106781186548, 1., 0.707106781186548, 1., 0.707106781186548, 1., 0.707106781186548, 1.), (1., 0.707106781186548, 1., 0.707106781186548, 1., 0.707106781186548, 1., 0.707106781186548, 1.)))
   REPRESENTATION_ITEM ('')
   SURFACE ()
);
#158 = CARTESIAN_POINT('', (-3., 2.53353507357214E-15, -43.1));
#159 = CARTESIAN_POINT('', (-3., 3., -43.1));
#160 = CARTESIAN_POINT('', (2.4599351703087E-15, 3., -43.1));
#161 = CARTESIAN_POINT('', (3., 3., -43.1));
#162 = CARTESIAN_POINT('', (3., -1.27796261412781E-15, -43.1));
#163 = CARTESIAN_POINT('', (3., -3., -43.1));
#164 = CARTESIAN_POINT('', (-9.84168477647044E-16, -3., -43.1));
#165 = CARTESIAN_POINT('', (-3., -3., -43.1));
#166 = CARTESIAN_POINT('', (-3., 2.53353507357214E-15, -43.1));
#167 = CARTESIAN_POINT('', (-3., 2.02066721859312E-16, -0.299999999999997));
#168 = CARTESIAN_POINT('', (-3., 3., -0.299999999999997));
#169 = CARTESIAN_POINT('', (3.25189426120798E-15, 3., -0.299999999999997));
#170 = CARTESIAN_POINT('', (3., 3., -0.299999999999997));
#171 = CARTESIAN_POINT('', (3., -3.60943096584064E-15, -0.299999999999997));
#172 = CARTESIAN_POINT('', (3., -3., -0.299999999999997));
#173 = CARTESIAN_POINT('', (-1.92209386747767E-16, -3., -0.299999999999997));
#174 = CARTESIAN_POINT('', (-3., -3., -0.299999999999997));
#175 = CARTESIAN_POINT('', (-3., 2.02066721859312E-16, -0.299999999999997));
#176 = ADVANCED_FACE('', (#177), #180, .T.);
#177 = FACE_OUTER_BOUND('', #178, .T.);
#178 = EDGE_LOOP('', (#179));
#179 = ORIENTED_EDGE('', *, *, #25, .T.);
#180 = B_SPLINE_SURFACE_WITH_KNOTS('', 1, 1, ((#181, #182), (#183, #184)), .UNSPECIFIED., .F., .F., .U., (2, 2), (2, 2), (57.0514969053164, 58.0514969053164), (51.2737157036705, 52.2737157036705), .UNSPECIFIED.);
#181 = CARTESIAN_POINT('', (-0.499999999999999, 0.5, -53.));
#182 = CARTESIAN_POINT('', (-0.499999999999999, -0.5, -53.));
#183 = CARTESIAN_POINT('', (0.500000000000001, 0.5, -53.));
#184 = CARTESIAN_POINT('', (0.500000000000001, -0.5, -53.));
#185 = DRAUGHTING_MODEL('', (#193, #268, #307, #312, #317, #322, #327), #341);
#186 = PRESENTATION_STYLE_ASSIGNMENT((#187));
#187 = SURFACE_STYLE_USAGE(.POSITIVE., #188);
#188 = SURFACE_SIDE_STYLE('', (#189));
#189 = SURFACE_STYLE_FILL_AREA(#190);
#190 = FILL_AREA_STYLE('', (#191));
#191 = FILL_AREA_STYLE_COLOUR('', #192);
#192 = COLOUR_RGB('', 0.50196078431373, 0.50196078431373, 0.50196078431373);
#193 = STYLED_ITEM('', (#186), #1);
#194 = MANIFOLD_SOLID_BREP('CUT', #195);
#195 = CLOSED_SHELL('', (#196, #213, #252));
#196 = ADVANCED_FACE('', (#197), #208, .T.);
#197 = FACE_OUTER_BOUND('', #198, .T.);
#198 = EDGE_LOOP('', (#199));
#199 = ORIENTED_EDGE('', *, *, #200, .F.);
#200 = EDGE_CURVE('', #201, #201, #203, .T.);
#201 = VERTEX_POINT('', #202);
#202 = CARTESIAN_POINT('', (-0.5, 3.27593018771917E-15, -53.));
#203 = CIRCLE('', #204, 0.5);
#204 = AXIS2_PLACEMENT_3D('', #205, #206, #207);
#205 = CARTESIAN_POINT('', (-5.03069808033274E-17, 2.99760216648792E-15, -53.));
#206 = DIRECTION('', (2.69238826964855E-29, 4.83671794477997E-14, -1.));
#207 = DIRECTION('', (-1., 5.56656042462495E-16, 0.));
#208 = B_SPLINE_SURFACE_WITH_KNOTS('', 1, 1, ((#209, #210), (#211, #212)), .UNSPECIFIED., .F., .F., .U., (2, 2), (2, 2), (51.2737157036705, 52.2737157036705), (57.0514969053164, 58.0514969053164), .UNSPECIFIED.);
#209 = CARTESIAN_POINT('', (-0.5, 0.499999999999997, -53.));
#210 = CARTESIAN_POINT('', (0.5, 0.499999999999997, -53.));
#211 = CARTESIAN_POINT('', (-0.5, -0.500000000000003, -53.));
#212 = CARTESIAN_POINT('', (0.5, -0.500000000000003, -53.));
#213 = ADVANCED_FACE('', (#214), #233, .T.);
#214 = FACE_OUTER_BOUND('', #215, .T.);
#215 = EDGE_LOOP('', (#216, #224, #225, #226));
#216 = ORIENTED_EDGE('', *, *, #217, .F.);
#217 = EDGE_CURVE('', #201, #218, #220, .T.);
#218 = VERTEX_POINT('', #219);
#219 = CARTESIAN_POINT('', (-0.5, 3.33716252767654E-15, -54.));
#220 = LINE('', #221, #222);
#221 = CARTESIAN_POINT('', (-0.5, 3.27593018771917E-15, -53.));
#222 = VECTOR('', #223, 1.);
#223 = DIRECTION('', (0., 6.12323399573699E-17, -1.));
#224 = ORIENTED_EDGE('', *, *, #200, .T.);
#225 = ORIENTED_EDGE('', *, *, #217, .T.);
#226 = ORIENTED_EDGE('', *, *, #227, .F.);
#227 = EDGE_CURVE('', #218, #218, #228, .T.);
#228 = CIRCLE('', #229, 0.5);
#229 = AXIS2_PLACEMENT_3D('', #230, #231, #232);
#230 = CARTESIAN_POINT('', (1.12757025938492E-16, 3.05311331771918E-15, -54.));
#231 = DIRECTION('', (1.4210854715202E-14, -4.62324091520124E-14, -1.));
#232 = DIRECTION('', (-1., 5.68098419914719E-16, -1.4210854715202E-14));
#233 = (
   BOUNDED_SURFACE ()
   B_SPLINE_SURFACE (2, 1, ((#234, #235), (#236, #237), (#238, #239), (#240, #241), (#242, #243), (#244, #245), (#246, #247), (#248, #249), (#250, #251)), .UNSPECIFIED., .T., .F., .U.)
   B_SPLINE_SURFACE_WITH_KNOTS ((3, 2, 2, 2, 3), (2, 2), (0., 0.785398163397448, 1.5707963267949, 2.35619449019234, 3.14159265358979), (0., 1.), .UNSPECIFIED.)
   GEOMETRIC_REPRESENTATION_ITEM ()
   RATIONAL_B_SPLINE_SURFACE (((1., 1.), (0.707106781186548, 0.707106781186548), (1., 1.), (0.707106781186548, 0.707106781186548), (1., 1.), (0.707106781186548, 0.707106781186548), (1., 1.), (0.707106781186548, 0.707106781186548), (1., 1.)))
   REPRESENTATION_ITEM ('')
   SURFACE ()
);
#234 = CARTESIAN_POINT('', (-0.5, 3.27593018771917E-15, -53.));
#235 = CARTESIAN_POINT('', (-0.5, 3.31756355114261E-15, -54.));
#236 = CARTESIAN_POINT('', (-0.5, 0.500000000000003, -53.));
#237 = CARTESIAN_POINT('', (-0.5, 0.500000000000003, -54.));
#238 = CARTESIAN_POINT('', (1.55771507025793E-16, 0.500000000000003, -53.));
#239 = CARTESIAN_POINT('', (1.55771507025793E-16, 0.500000000000003, -54.));
#240 = CARTESIAN_POINT('', (0.5, 0.500000000000003, -53.));
#241 = CARTESIAN_POINT('', (0.5, 0.500000000000003, -54.));
#242 = CARTESIAN_POINT('', (0.5, 3.19684011944848E-15, -53.));
#243 = CARTESIAN_POINT('', (0.5, 3.23847348287192E-15, -54.));
#244 = CARTESIAN_POINT('', (0.5, -0.499999999999997, -53.));
#245 = CARTESIAN_POINT('', (0.5, -0.499999999999997, -54.));
#246 = CARTESIAN_POINT('', (1.37913778712467E-16, -0.499999999999997, -53.));
#247 = CARTESIAN_POINT('', (1.37913778712467E-16, -0.499999999999997, -54.));
#248 = CARTESIAN_POINT('', (-0.5, -0.499999999999997, -53.));
#249 = CARTESIAN_POINT('', (-0.5, -0.499999999999997, -54.));
#250 = CARTESIAN_POINT('', (-0.5, 3.27593018771917E-15, -53.));
#251 = CARTESIAN_POINT('', (-0.5, 3.31756355114261E-15, -54.));
#252 = ADVANCED_FACE('', (#253), #256, .T.);
#253 = FACE_OUTER_BOUND('', #254, .T.);
#254 = EDGE_LOOP('', (#255));
#255 = ORIENTED_EDGE('', *, *, #227, .T.);
#256 = B_SPLINE_SURFACE_WITH_KNOTS('', 1, 1, ((#257, #258), (#259, #260)), .UNSPECIFIED., .F., .F., .U., (2, 2), (2, 2), (0.277817459305202, 1.2778174593052), (0.277817459305202, 1.2778174593052), .UNSPECIFIED.);
#257 = CARTESIAN_POINT('', (0.5, -0.499999999999997, -54.));
#258 = CARTESIAN_POINT('', (0.5, 0.500000000000003, -54.));
#259 = CARTESIAN_POINT('', (-0.5, -0.499999999999997, -54.));
#260 = CARTESIAN_POINT('', (-0.5, 0.500000000000003, -54.));
#261 = PRESENTATION_STYLE_ASSIGNMENT((#262));
#262 = SURFACE_STYLE_USAGE(.POSITIVE., #263);
#263 = SURFACE_SIDE_STYLE('', (#264));
#264 = SURFACE_STYLE_FILL_AREA(#265);
#265 = FILL_AREA_STYLE('', (#266));
#266 = FILL_AREA_STYLE_COLOUR('', #267);
#267 = COLOUR_RGB('', 0.8, 0.8, 0.8);
#268 = STYLED_ITEM('', (#261), #194);
#269 = TRIMMED_CURVE('cutting part line', #270, (#274), (#275), .T., .CARTESIAN.);
#270 = LINE('', #271, #272);
#271 = CARTESIAN_POINT('', (-5.96154513608089E-31, -3.24531401774049E-15, -53.));
#272 = VECTOR('', #273, 0.5);
#273 = DIRECTION('', (0.5, -9.18485099360474E-17, 0.));
#274 = CARTESIAN_POINT('', (-5.96154513608089E-31, -3.24531401774049E-15, -53.));
#275 = CARTESIAN_POINT('', (0.5, -3.33716252767654E-15, -53.));
#276 = TRIMMED_CURVE('cutting part line', #277, (#281), (#282), .T., .CARTESIAN.);
#277 = LINE('', #278, #279);
#278 = CARTESIAN_POINT('', (0.5, -3.33716252767654E-15, -53.));
#279 = VECTOR('', #280, 1.);
#280 = DIRECTION('', (0., -6.12323399573699E-17, -1.));
#281 = CARTESIAN_POINT('', (0.5, -3.33716252767654E-15, -53.));
#282 = CARTESIAN_POINT('', (0.5, -3.39839486763391E-15, -54.));
#283 = TRIMMED_CURVE('cutting part line', #284, (#288), (#289), .T., .CARTESIAN.);
#284 = LINE('', #285, #286);
#285 = CARTESIAN_POINT('', (0.5, -3.39839486763391E-15, -54.));
#286 = VECTOR('', #287, 0.5);
#287 = DIRECTION('', (-0.5, 9.18485099360573E-17, 0.));
#288 = CARTESIAN_POINT('', (0.5, -3.39839486763391E-15, -54.));
#289 = CARTESIAN_POINT('', (-4.04935141318701E-31, -3.30654635769785E-15, -54.));
#290 = TRIMMED_CURVE('cutting part line', #291, (#295), (#296), .T., .CARTESIAN.);
#291 = LINE('', #292, #293);
#292 = CARTESIAN_POINT('', (-6.07402711978052E-31, -3.30654635769785E-15, -54.));
#293 = VECTOR('', #294, 1.);
#294 = DIRECTION('', (1.12481983699633E-32, 6.12323399573601E-17, 1.));
#295 = CARTESIAN_POINT('', (-6.07402711978052E-31, -3.30654635769785E-15, -54.));
#296 = CARTESIAN_POINT('', (-5.96154513608089E-31, -3.24531401774049E-15, -53.));
#297 = COMPOSITE_CURVE('cutting part line', (#298, #299, #300, #301), .U.);
#298 = COMPOSITE_CURVE_SEGMENT(.CONTINUOUS., .T., #269);
#299 = COMPOSITE_CURVE_SEGMENT(.CONTINUOUS., .T., #276);
#300 = COMPOSITE_CURVE_SEGMENT(.CONTINUOUS., .T., #283);
#301 = COMPOSITE_CURVE_SEGMENT(.CONTINUOUS., .T., #290);
#302 = GEOMETRIC_SET('', (#297, #340));
#303 = PRESENTATION_STYLE_ASSIGNMENT((#304));
#304 = CURVE_STYLE('', #306, POSITIVE_LENGTH_MEASURE(1.E-6), #305);
#305 = COLOUR_RGB('', 0., 0., 1.);
#306 = DRAUGHTING_PRE_DEFINED_CURVE_FONT('continuous');
#307 = STYLED_ITEM('', (#303), #297);
#308 = PRESENTATION_STYLE_ASSIGNMENT((#309));
#309 = CURVE_STYLE('', #311, POSITIVE_LENGTH_MEASURE(1.E-6), #310);
#310 = COLOUR_RGB('', 0., 0., 1.);
#311 = DRAUGHTING_PRE_DEFINED_CURVE_FONT('continuous');
#312 = OVER_RIDING_STYLED_ITEM('', (#308), #269, #307);
#313 = PRESENTATION_STYLE_ASSIGNMENT((#314));
#314 = CURVE_STYLE('', #316, POSITIVE_LENGTH_MEASURE(1.E-6), #315);
#315 = COLOUR_RGB('', 0., 0., 1.);
#316 = DRAUGHTING_PRE_DEFINED_CURVE_FONT('continuous');
#317 = OVER_RIDING_STYLED_ITEM('', (#313), #276, #307);
#318 = PRESENTATION_STYLE_ASSIGNMENT((#319));
#319 = CURVE_STYLE('', #321, POSITIVE_LENGTH_MEASURE(1.E-6), #320);
#320 = COLOUR_RGB('', 0., 0., 1.);
#321 = DRAUGHTING_PRE_DEFINED_CURVE_FONT('continuous');
#322 = OVER_RIDING_STYLED_ITEM('', (#318), #283, #307);
#323 = PRESENTATION_STYLE_ASSIGNMENT((#324));
#324 = CURVE_STYLE('', #326, POSITIVE_LENGTH_MEASURE(1.E-6), #325);
#325 = COLOUR_RGB('', 0., 0., 1.);
#326 = DRAUGHTING_PRE_DEFINED_CURVE_FONT('continuous');
#327 = OVER_RIDING_STYLED_ITEM('', (#323), #290, #307);
#328 = AXIS2_PLACEMENT_3D('CIP', #329, #330, #331);
#329 = CARTESIAN_POINT('', (2.02467570659351E-31, 3.30654635769785E-15, -54.));
#330 = DIRECTION('', (-3.74939945665465E-33, -6.12323399573677E-17, 1.));
#331 = DIRECTION('', (1., -6.12323399573677E-17, 0.));
#332 = AXIS2_PLACEMENT_3D('MCS', #333, #334, #335);
#333 = CARTESIAN_POINT('', (1.34978380439567E-31, 2.20436423846524E-15, -36.));
#334 = DIRECTION('', (-3.74939945665465E-33, -6.12323399573677E-17, 1.));
#335 = DIRECTION('', (1., -6.12323399573677E-17, 0.));
#336 = AXIS2_PLACEMENT_3D('PCS', #337, #338, #339);
#337 = CARTESIAN_POINT('', (0., 0., 0.));
#338 = DIRECTION('', (0., 0., 1.));
#339 = DIRECTION('', (1., 0., 0.));
#340 = CARTESIAN_POINT('CRP', (0.5, 0., -54.));
#341 = (
   GEOMETRIC_REPRESENTATION_CONTEXT (3)
   GLOBAL_UNCERTAINTY_ASSIGNED_CONTEXT ((#343))
   GLOBAL_UNIT_ASSIGNED_CONTEXT ((#342, #344, #345))
   REPRESENTATION_CONTEXT ('', '3D')
);
#342 = (
   LENGTH_UNIT ()
   NAMED_UNIT (*)
   SI_UNIT (.MILLI., .METRE.)
);
#343 = UNCERTAINTY_MEASURE_WITH_UNIT(LENGTH_MEASURE(1.E-6), #342, 'DISTANCE_ACCURACY_VALUE', '');
#344 = (
   NAMED_UNIT (*)
   SI_UNIT ($, .STERADIAN.)
   SOLID_ANGLE_UNIT ()
);
#345 = (
   NAMED_UNIT (*)
   PLANE_ANGLE_UNIT ()
   SI_UNIT ($, .RADIAN.)
);
#346 = SHAPE_REPRESENTATION('', (), #341);
#347 = PRODUCT_DEFINITION_SHAPE('', '', #348);
#348 = PRODUCT_DEFINITION('', '', #351, #355);
#349 = APPLICATION_CONTEXT('configuration controlled 3D designs of mechanical parts and assemblies');
#350 = APPLICATION_PROTOCOL_DEFINITION('International Standard', 'automotive_design', 2002, #349);
#351 = PRODUCT_DEFINITION_FORMATION_WITH_SPECIFIED_SOURCE('', '', #352, .NOT_KNOWN.);
#352 = PRODUCT('EmptyName', 'EmptyName', '', (#353));
#353 = PRODUCT_CONTEXT('', #349, 'mechanical');
#354 = PRODUCT_RELATED_PRODUCT_CATEGORY('detail', '', (#352));
#355 = PRODUCT_DEFINITION_CONTEXT('part definition', #349, 'design');
#356 = SHAPE_DEFINITION_REPRESENTATION(#347, #346);
#357 = CONSTRUCTIVE_GEOMETRY_REPRESENTATION('supplemental geometry', (#328, #332, #336), #341);
#358 = CONSTRUCTIVE_GEOMETRY_REPRESENTATION_RELATIONSHIP('', '', #346, #357);
#359 = SHAPE_REPRESENTATION_RELATIONSHIP('', '', #346, #360);
#360 = SHAPE_REPRESENTATION('', (#302), #341);
#361 = SHAPE_REPRESENTATION_RELATIONSHIP('', '', #346, #362);
#362 = ADVANCED_BREP_SHAPE_REPRESENTATION('', (#1, #194), #341);
ENDSEC;
END-ISO-10303-21;
