ISO-10303-21;
HEADER;
FILE_DESCRIPTION(('STEP'), '1');
FILE_NAME('C:\\Users\\ds2002\\OneDrive - Sandvik\\HomeShare\\Documents\\Batchrepair\\CorSRT2\\NEW_MILSQ_SLD\\Output\\MOD000000000000000020084602800000.stp', '2019-01-02T12:06:43', (''), (''), 'Express v3.0.0.0', 'Express Tool', 'Unknown');
FILE_SCHEMA(('AUTOMOTIVE_DESIGN'));
ENDSEC;

DATA;
#1 = MANIFOLD_SOLID_BREP('NOCUT', #2);
#2 = CLOSED_SHELL('', (#3, #50, #89, #136, #145, #176));
#3 = ADVANCED_FACE('', (#4), #31, .T.);
#4 = FACE_OUTER_BOUND('', #5, .T.);
#5 = EDGE_LOOP('', (#6, #16, #23, #24));
#6 = ORIENTED_EDGE('', *, *, #7, .F.);
#7 = EDGE_CURVE('', #8, #10, #12, .T.);
#8 = VERTEX_POINT('', #9);
#9 = CARTESIAN_POINT('', (-1.5, 2.88710482898989E-15, -45.65));
#10 = VERTEX_POINT('', #11);
#11 = CARTESIAN_POINT('', (-0.4, 3.28205342171491E-15, -53.2));
#12 = LINE('', #13, #14);
#13 = CARTESIAN_POINT('', (-1.5, 2.88710482898989E-15, -45.65));
#14 = VECTOR('', #15, 7.62971165903405);
#15 = DIRECTION('', (1.1, 3.9494859272502E-16, -7.55));
#16 = ORIENTED_EDGE('', *, *, #17, .T.);
#17 = EDGE_CURVE('', #8, #8, #18, .T.);
#18 = CIRCLE('', #19, 1.5);
#19 = AXIS2_PLACEMENT_3D('', #20, #21, #22);
#20 = CARTESIAN_POINT('', (-1.38777878078145E-17, 8.32667268468867E-16, -45.65));
#21 = DIRECTION('', (0., 0., -1.));
#22 = DIRECTION('', (-1., 1.36962504034735E-15, 0.));
#23 = ORIENTED_EDGE('', *, *, #7, .T.);
#24 = ORIENTED_EDGE('', *, *, #25, .F.);
#25 = EDGE_CURVE('', #10, #10, #26, .T.);
#26 = CIRCLE('', #27, 0.399999999999996);
#27 = AXIS2_PLACEMENT_3D('', #28, #29, #30);
#28 = CARTESIAN_POINT('', (3.64291929955129E-17, 3.34454686168328E-15, -53.2));
#29 = DIRECTION('', (9.44572320393973E-30, -6.04589743097505E-14, -1.));
#30 = DIRECTION('', (-1., -1.56233599920936E-16, 0.));
#31 = (
   BOUNDED_SURFACE ()
   B_SPLINE_SURFACE (2, 1, ((#32, #33), (#34, #35), (#36, #37), (#38, #39), (#40, #41), (#42, #43), (#44, #45), (#46, #47), (#48, #49)), .UNSPECIFIED., .T., .F., .U.)
   B_SPLINE_SURFACE_WITH_KNOTS ((3, 2, 2, 2, 3), (2, 2), (0., 0.25, 0.5, 0.75, 1.), (0., 1.), .UNSPECIFIED.)
   GEOMETRIC_REPRESENTATION_ITEM ()
   RATIONAL_B_SPLINE_SURFACE (((1., 1.), (0.707106781186548, 0.707106781186548), (1., 1.), (0.707106781186548, 0.707106781186548), (1., 1.), (0.707106781186548, 0.707106781186548), (1., 1.), (0.707106781186548, 0.707106781186548), (1., 1.)))
   REPRESENTATION_ITEM ('')
   SURFACE ()
);
#32 = CARTESIAN_POINT('', (-1.5, 2.88710482898989E-15, -45.65));
#33 = CARTESIAN_POINT('', (-0.4, 3.48207695163784E-15, -53.2));
#34 = CARTESIAN_POINT('', (-1.5, 1.5, -45.65));
#35 = CARTESIAN_POINT('', (-0.4, 0.400000000000004, -53.2));
#36 = CARTESIAN_POINT('', (1.73360555175603E-15, 1.5, -45.65));
#37 = CARTESIAN_POINT('', (6.40393090668563E-16, 0.400000000000003, -53.2));
#38 = CARTESIAN_POINT('', (1.5, 1.5, -45.65));
#39 = CARTESIAN_POINT('', (0.400000000000001, 0.400000000000003, -53.2));
#40 = CARTESIAN_POINT('', (1.5, -9.4383701248669E-17, -45.65));
#41 = CARTESIAN_POINT('', (0.4, 2.68701334357423E-15, -53.2));
#42 = CARTESIAN_POINT('', (1.5, -1.5, -45.65));
#43 = CARTESIAN_POINT('', (0.4, -0.399999999999997, -53.2));
#44 = CARTESIAN_POINT('', (-1.06418595861042E-15, -1.5, -45.65));
#45 = CARTESIAN_POINT('', (-1.05684645429159E-16, -0.399999999999997, -53.2));
#46 = CARTESIAN_POINT('', (-1.5, -1.5, -45.65));
#47 = CARTESIAN_POINT('', (-0.4, -0.399999999999997, -53.2));
#48 = CARTESIAN_POINT('', (-1.5, 2.88710482898989E-15, -45.65));
#49 = CARTESIAN_POINT('', (-0.4, 3.48207695163784E-15, -53.2));
#50 = ADVANCED_FACE('', (#51), #70, .T.);
#51 = FACE_OUTER_BOUND('', #52, .T.);
#52 = EDGE_LOOP('', (#53, #61, #68, #69));
#53 = ORIENTED_EDGE('', *, *, #54, .F.);
#54 = EDGE_CURVE('', #55, #8, #57, .T.);
#55 = VERTEX_POINT('', #56);
#56 = CARTESIAN_POINT('', (-3., 2.81974925503678E-15, -43.05));
#57 = LINE('', #58, #59);
#58 = CARTESIAN_POINT('', (-3., 2.81974925503678E-15, -43.05));
#59 = VECTOR('', #60, 3.00166620396073);
#60 = DIRECTION('', (1.5, 6.73555739531098E-17, -2.6));
#61 = ORIENTED_EDGE('', *, *, #62, .T.);
#62 = EDGE_CURVE('', #55, #55, #63, .T.);
#63 = CIRCLE('', #64, 3.);
#64 = AXIS2_PLACEMENT_3D('', #65, #66, #67);
#65 = CARTESIAN_POINT('', (-7.21644966006352E-16, 1.38777878078145E-15, -43.05));
#66 = DIRECTION('', (0., 0., -1.));
#67 = DIRECTION('', (-1., 4.77323491418445E-16, 0.));
#68 = ORIENTED_EDGE('', *, *, #54, .T.);
#69 = ORIENTED_EDGE('', *, *, #17, .F.);
#70 = (
   BOUNDED_SURFACE ()
   B_SPLINE_SURFACE (2, 1, ((#71, #72), (#73, #74), (#75, #76), (#77, #78), (#79, #80), (#81, #82), (#83, #84), (#85, #86), (#87, #88)), .UNSPECIFIED., .T., .F., .U.)
   B_SPLINE_SURFACE_WITH_KNOTS ((3, 2, 2, 2, 3), (2, 2), (0., 0.25, 0.5, 0.75, 1.), (0., 1.), .UNSPECIFIED.)
   GEOMETRIC_REPRESENTATION_ITEM ()
   RATIONAL_B_SPLINE_SURFACE (((1., 1.), (0.707106781186548, 0.707106781186548), (1., 1.), (0.707106781186548, 0.707106781186548), (1., 1.), (0.707106781186548, 0.707106781186548), (1., 1.), (0.707106781186548, 0.707106781186548), (1., 1.)))
   REPRESENTATION_ITEM ('')
   SURFACE ()
);
#71 = CARTESIAN_POINT('', (-3., 2.81974925503678E-15, -43.05));
#72 = CARTESIAN_POINT('', (-1.5, 1.49314135436528E-15, -45.65));
#73 = CARTESIAN_POINT('', (-3., 3., -43.05));
#74 = CARTESIAN_POINT('', (-1.5, 1.5, -45.65));
#75 = CARTESIAN_POINT('', (4.0172839810655E-16, 3., -43.05));
#76 = CARTESIAN_POINT('', (3.04947607611883E-16, 1.5, -45.65));
#77 = CARTESIAN_POINT('', (3., 3., -43.05));
#78 = CARTESIAN_POINT('', (1.5, 1.5, -45.65));
#79 = CARTESIAN_POINT('', (3., 2.43262609305811E-15, -43.05));
#80 = CARTESIAN_POINT('', (1.5, 1.29957977337594E-15, -45.65));
#81 = CARTESIAN_POINT('', (3., -3., -43.05));
#82 = CARTESIAN_POINT('', (1.5, -1.5, -45.65));
#83 = CARTESIAN_POINT('', (3.8199927587209E-16, -3., -43.05));
#84 = CARTESIAN_POINT('', (2.95083046494653E-16, -1.5, -45.65));
#85 = CARTESIAN_POINT('', (-3., -3., -43.05));
#86 = CARTESIAN_POINT('', (-1.5, -1.5, -45.65));
#87 = CARTESIAN_POINT('', (-3., 2.81974925503678E-15, -43.05));
#88 = CARTESIAN_POINT('', (-1.5, 1.49314135436528E-15, -45.65));
#89 = ADVANCED_FACE('', (#90), #117, .T.);
#90 = FACE_OUTER_BOUND('', #91, .T.);
#91 = EDGE_LOOP('', (#92, #102, #109, #110));
#92 = ORIENTED_EDGE('', *, *, #93, .T.);
#93 = EDGE_CURVE('', #94, #96, #98, .T.);
#94 = VERTEX_POINT('', #95);
#95 = CARTESIAN_POINT('', (-3., 2.02066721859313E-16, -0.299999999999997));
#96 = VERTEX_POINT('', #97);
#97 = CARTESIAN_POINT('', (-2.7, 1.65327317884893E-16, 0.));
#98 = LINE('', #99, #100);
#99 = CARTESIAN_POINT('', (-3., 2.02066721859313E-16, -0.299999999999997));
#100 = VECTOR('', #101, 0.424264068711926);
#101 = DIRECTION('', (0.3, -3.673940397442E-17, 0.299999999999997));
#102 = ORIENTED_EDGE('', *, *, #103, .T.);
#103 = EDGE_CURVE('', #96, #96, #104, .T.);
#104 = CIRCLE('', #105, 2.7);
#105 = AXIS2_PLACEMENT_3D('', #106, #107, #108);
#106 = CARTESIAN_POINT('', (6.24500451351651E-17, -1.88737914186277E-15, -1.07852076885685E-31));
#107 = DIRECTION('', (6.60738625565492E-33, 6.12323399573678E-17, -1.));
#108 = DIRECTION('', (-1., 7.60261651758392E-16, 3.99452136613649E-32));
#109 = ORIENTED_EDGE('', *, *, #93, .F.);
#110 = ORIENTED_EDGE('', *, *, #111, .F.);
#111 = EDGE_CURVE('', #94, #94, #112, .T.);
#112 = CIRCLE('', #113, 3.);
#113 = AXIS2_PLACEMENT_3D('', #114, #115, #116);
#114 = CARTESIAN_POINT('', (-8.32667268468867E-16, 1.66533453693773E-16, -0.299999999999997));
#115 = DIRECTION('', (7.45939217764516E-34, 6.29780982393227E-17, -1.));
#116 = DIRECTION('', (-1., 1.18444227218465E-17, 0.));
#117 = (
   BOUNDED_SURFACE ()
   B_SPLINE_SURFACE (1, 2, ((#118, #119, #120, #121, #122, #123, #124, #125, #126), (#127, #128, #129, #130, #131, #132, #133, #134, #135)), .UNSPECIFIED., .F., .T., .U.)
   B_SPLINE_SURFACE_WITH_KNOTS ((2, 2), (3, 2, 2, 2, 3), (0., 1.), (0., 0.25, 0.5, 0.75, 1.), .UNSPECIFIED.)
   GEOMETRIC_REPRESENTATION_ITEM ()
   RATIONAL_B_SPLINE_SURFACE (((1., 0.707106781186548, 1., 0.707106781186548, 1., 0.707106781186548, 1., 0.707106781186548, 1.), (1., 0.707106781186548, 1., 0.707106781186548, 1., 0.707106781186548, 1., 0.707106781186548, 1.)))
   REPRESENTATION_ITEM ('')
   SURFACE ()
);
#118 = CARTESIAN_POINT('', (-3., 1.49129302665284E-15, -0.299999999999997));
#119 = CARTESIAN_POINT('', (-3., 3., -0.299999999999985));
#120 = CARTESIAN_POINT('', (2.34149119846292E-15, 3., -0.299999999999985));
#121 = CARTESIAN_POINT('', (3., 3., -0.299999999999985));
#122 = CARTESIAN_POINT('', (3., -1.34594359183367E-15, -0.299999999999997));
#123 = CARTESIAN_POINT('', (3., -3., -0.300000000000009));
#124 = CARTESIAN_POINT('', (-1.28351380279387E-16, -3., -0.300000000000009));
#125 = CARTESIAN_POINT('', (-3., -3., -0.300000000000009));
#126 = CARTESIAN_POINT('', (-3., 1.49129302665284E-15, -0.299999999999997));
#127 = CARTESIAN_POINT('', (-2.7, 1.65327317884893E-16, -2.18952885050753E-47));
#128 = CARTESIAN_POINT('', (-2.7, 2.7, 1.04916075827078E-14));
#129 = CARTESIAN_POINT('', (2.19962936753859E-15, 2.7, 1.04916075827078E-14));
#130 = CARTESIAN_POINT('', (2.7, 2.7, 1.04916075827078E-14));
#131 = CARTESIAN_POINT('', (2.7, -2.38818563875297E-15, 1.12461399303431E-30));
#132 = CARTESIAN_POINT('', (2.7, -2.7, -1.04916075827078E-14));
#133 = CARTESIAN_POINT('', (-2.32289533294833E-17, -2.7, -1.04916075827078E-14));
#134 = CARTESIAN_POINT('', (-2.7, -2.7, -1.04916075827078E-14));
#135 = CARTESIAN_POINT('', (-2.7, 1.65327317884893E-16, -2.18952885050753E-47));
#136 = ADVANCED_FACE('', (#137), #140, .T.);
#137 = FACE_OUTER_BOUND('', #138, .T.);
#138 = EDGE_LOOP('', (#139));
#139 = ORIENTED_EDGE('', *, *, #103, .F.);
#140 = B_SPLINE_SURFACE_WITH_KNOTS('', 1, 1, ((#141, #142), (#143, #144)), .UNSPECIFIED., .F., .F., .U., (2, 2), (2, 2), (1.50021428024809, 6.90021428024809), (1.50021428024809, 6.90021428024809), .UNSPECIFIED.);
#141 = CARTESIAN_POINT('', (2.7, -2.7, 6.94010003971609E-15));
#142 = CARTESIAN_POINT('', (-2.7, -2.7, -7.27075467548589E-15));
#143 = CARTESIAN_POINT('', (2.7, 2.7, 7.27075467548587E-15));
#144 = CARTESIAN_POINT('', (-2.7, 2.7, -6.9401000397161E-15));
#145 = ADVANCED_FACE('', (#146), #157, .T.);
#146 = FACE_OUTER_BOUND('', #147, .T.);
#147 = EDGE_LOOP('', (#148, #154, #155, #156));
#148 = ORIENTED_EDGE('', *, *, #149, .T.);
#149 = EDGE_CURVE('', #55, #94, #150, .T.);
#150 = LINE('', #151, #152);
#151 = CARTESIAN_POINT('', (-3., 2.81974925503678E-15, -43.05));
#152 = VECTOR('', #153, 42.75);
#153 = DIRECTION('', (0., -2.61768253317747E-15, 42.75));
#154 = ORIENTED_EDGE('', *, *, #111, .T.);
#155 = ORIENTED_EDGE('', *, *, #149, .F.);
#156 = ORIENTED_EDGE('', *, *, #62, .F.);
#157 = (
   BOUNDED_SURFACE ()
   B_SPLINE_SURFACE (1, 2, ((#158, #159, #160, #161, #162, #163, #164, #165, #166), (#167, #168, #169, #170, #171, #172, #173, #174, #175)), .UNSPECIFIED., .F., .T., .U.)
   B_SPLINE_SURFACE_WITH_KNOTS ((2, 2), (3, 2, 2, 2, 3), (0., 1.), (0., 4.7123889803847, 9.4247779607694, 14.1371669411541, 18.8495559215388), .UNSPECIFIED.)
   GEOMETRIC_REPRESENTATION_ITEM ()
   RATIONAL_B_SPLINE_SURFACE (((1., 0.707106781186548, 1., 0.707106781186548, 1., 0.707106781186548, 1., 0.707106781186548, 1.), (1., 0.707106781186548, 1., 0.707106781186548, 1., 0.707106781186548, 1., 0.707106781186548, 1.)))
   REPRESENTATION_ITEM ('')
   SURFACE ()
);
#158 = CARTESIAN_POINT('', (-3., 2.53353507357214E-15, -43.05));
#159 = CARTESIAN_POINT('', (-3., 3., -43.05));
#160 = CARTESIAN_POINT('', (2.46086035616256E-15, 3., -43.05));
#161 = CARTESIAN_POINT('', (3., 3., -43.05));
#162 = CARTESIAN_POINT('', (3., -1.27796261412781E-15, -43.05));
#163 = CARTESIAN_POINT('', (3., -3., -43.05));
#164 = CARTESIAN_POINT('', (-9.83243291793189E-16, -3., -43.05));
#165 = CARTESIAN_POINT('', (-3., -3., -43.05));
#166 = CARTESIAN_POINT('', (-3., 2.53353507357214E-15, -43.05));
#167 = CARTESIAN_POINT('', (-3., 2.02066721859312E-16, -0.299999999999997));
#168 = CARTESIAN_POINT('', (-3., 3., -0.299999999999997));
#169 = CARTESIAN_POINT('', (3.25189426120798E-15, 3., -0.299999999999997));
#170 = CARTESIAN_POINT('', (3., 3., -0.299999999999997));
#171 = CARTESIAN_POINT('', (3., -3.60943096584064E-15, -0.299999999999997));
#172 = CARTESIAN_POINT('', (3., -3., -0.299999999999997));
#173 = CARTESIAN_POINT('', (-1.92209386747767E-16, -3., -0.299999999999997));
#174 = CARTESIAN_POINT('', (-3., -3., -0.299999999999997));
#175 = CARTESIAN_POINT('', (-3., 2.02066721859312E-16, -0.299999999999997));
#176 = ADVANCED_FACE('', (#177), #180, .T.);
#177 = FACE_OUTER_BOUND('', #178, .T.);
#178 = EDGE_LOOP('', (#179));
#179 = ORIENTED_EDGE('', *, *, #25, .T.);
#180 = B_SPLINE_SURFACE_WITH_KNOTS('', 1, 1, ((#181, #182), (#183, #184)), .UNSPECIFIED., .F., .F., .U., (2, 2), (2, 2), (57.1737191407073, 57.9737191407073), (51.3514934682796, 52.1514934682796), .UNSPECIFIED.);
#181 = CARTESIAN_POINT('', (-0.399999999999999, 0.399999999999999, -53.2));
#182 = CARTESIAN_POINT('', (-0.399999999999999, -0.399999999999991, -53.2));
#183 = CARTESIAN_POINT('', (0.399999999999999, 0.399999999999999, -53.2));
#184 = CARTESIAN_POINT('', (0.399999999999999, -0.399999999999991, -53.2));
#185 = DRAUGHTING_MODEL('', (#193, #268, #307, #312, #317, #322, #327), #341);
#186 = PRESENTATION_STYLE_ASSIGNMENT((#187));
#187 = SURFACE_STYLE_USAGE(.POSITIVE., #188);
#188 = SURFACE_SIDE_STYLE('', (#189));
#189 = SURFACE_STYLE_FILL_AREA(#190);
#190 = FILL_AREA_STYLE('', (#191));
#191 = FILL_AREA_STYLE_COLOUR('', #192);
#192 = COLOUR_RGB('', 0.50196078431373, 0.50196078431373, 0.50196078431373);
#193 = STYLED_ITEM('', (#186), #1);
#194 = MANIFOLD_SOLID_BREP('CUT', #195);
#195 = CLOSED_SHELL('', (#196, #213, #252));
#196 = ADVANCED_FACE('', (#197), #208, .T.);
#197 = FACE_OUTER_BOUND('', #198, .T.);
#198 = EDGE_LOOP('', (#199));
#199 = ORIENTED_EDGE('', *, *, #200, .F.);
#200 = EDGE_CURVE('', #201, #201, #203, .T.);
#201 = VERTEX_POINT('', #202);
#202 = CARTESIAN_POINT('', (-0.4, 3.28205342171491E-15, -53.2));
#203 = CIRCLE('', #204, 0.399999999999996);
#204 = AXIS2_PLACEMENT_3D('', #205, #206, #207);
#205 = CARTESIAN_POINT('', (3.64291929955129E-17, 3.34454686168328E-15, -53.2));
#206 = DIRECTION('', (9.44572320393973E-30, -6.04589743097505E-14, -1.));
#207 = DIRECTION('', (-1., -1.56233599920936E-16, 0.));
#208 = B_SPLINE_SURFACE_WITH_KNOTS('', 1, 1, ((#209, #210), (#211, #212)), .UNSPECIFIED., .F., .F., .U., (2, 2), (2, 2), (51.3514934682796, 52.1514934682796), (57.1737191407073, 57.9737191407073), .UNSPECIFIED.);
#209 = CARTESIAN_POINT('', (-0.399999999999999, 0.399999999999999, -53.2));
#210 = CARTESIAN_POINT('', (0.399999999999999, 0.399999999999999, -53.2));
#211 = CARTESIAN_POINT('', (-0.399999999999999, -0.399999999999991, -53.2));
#212 = CARTESIAN_POINT('', (0.399999999999999, -0.399999999999991, -53.2));
#213 = ADVANCED_FACE('', (#214), #233, .T.);
#214 = FACE_OUTER_BOUND('', #215, .T.);
#215 = EDGE_LOOP('', (#216, #224, #225, #226));
#216 = ORIENTED_EDGE('', *, *, #217, .F.);
#217 = EDGE_CURVE('', #201, #218, #220, .T.);
#218 = VERTEX_POINT('', #219);
#219 = CARTESIAN_POINT('', (-0.4, 3.3310392936808E-15, -54.));
#220 = LINE('', #221, #222);
#221 = CARTESIAN_POINT('', (-0.4, 3.28205342171491E-15, -53.2));
#222 = VECTOR('', #223, 0.799999999999997);
#223 = DIRECTION('', (0., 4.89858719658899E-17, -0.799999999999997));
#224 = ORIENTED_EDGE('', *, *, #200, .T.);
#225 = ORIENTED_EDGE('', *, *, #217, .T.);
#226 = ORIENTED_EDGE('', *, *, #227, .F.);
#227 = EDGE_CURVE('', #218, #218, #228, .T.);
#228 = CIRCLE('', #229, 0.4);
#229 = AXIS2_PLACEMENT_3D('', #230, #231, #232);
#230 = CARTESIAN_POINT('', (-9.8879238130678E-17, 3.00454106039183E-15, -54.));
#231 = DIRECTION('', (4.93493707464912E-29, 6.04589743097495E-14, -1.));
#232 = DIRECTION('', (-1., 8.16245583222426E-16, 0.));
#233 = (
   BOUNDED_SURFACE ()
   B_SPLINE_SURFACE (2, 1, ((#234, #235), (#236, #237), (#238, #239), (#240, #241), (#242, #243), (#244, #245), (#246, #247), (#248, #249), (#250, #251)), .UNSPECIFIED., .T., .F., .U.)
   B_SPLINE_SURFACE_WITH_KNOTS ((3, 2, 2, 2, 3), (2, 2), (0., 0.62831853071796, 1.25663706143592, 1.88495559215388, 2.51327412287184), (0., 1.), .UNSPECIFIED.)
   GEOMETRIC_REPRESENTATION_ITEM ()
   RATIONAL_B_SPLINE_SURFACE (((1., 1.), (0.707106781186548, 0.707106781186548), (1., 1.), (0.707106781186548, 0.707106781186548), (1., 1.), (0.707106781186548, 0.707106781186548), (1., 1.), (0.707106781186548, 0.707106781186548), (1., 1.)))
   REPRESENTATION_ITEM ('')
   SURFACE ()
);
#234 = CARTESIAN_POINT('', (-0.4, 3.28205342171491E-15, -53.2));
#235 = CARTESIAN_POINT('', (-0.4, 3.35144236075398E-15, -54.));
#236 = CARTESIAN_POINT('', (-0.4, 0.400000000000003, -53.2));
#237 = CARTESIAN_POINT('', (-0.4, 0.400000000000003, -54.));
#238 = CARTESIAN_POINT('', (2.20059679296574E-16, 0.400000000000003, -53.2));
#239 = CARTESIAN_POINT('', (2.20059679296574E-16, 0.400000000000003, -54.));
#240 = CARTESIAN_POINT('', (0.4, 0.400000000000003, -53.2));
#241 = CARTESIAN_POINT('', (0.4, 0.400000000000003, -54.));
#242 = CARTESIAN_POINT('', (0.4, 2.94254802472842E-15, -53.2));
#243 = CARTESIAN_POINT('', (0.4, 3.01193696376749E-15, -54.));
#244 = CARTESIAN_POINT('', (0.4, -0.399999999999997, -53.2));
#245 = CARTESIAN_POINT('', (0.4, -0.399999999999997, -54.));
#246 = CARTESIAN_POINT('', (-7.0459845724025E-17, -0.399999999999997, -53.2));
#247 = CARTESIAN_POINT('', (-7.04598457240249E-17, -0.399999999999997, -54.));
#248 = CARTESIAN_POINT('', (-0.4, -0.399999999999997, -53.2));
#249 = CARTESIAN_POINT('', (-0.4, -0.399999999999997, -54.));
#250 = CARTESIAN_POINT('', (-0.4, 3.28205342171491E-15, -53.2));
#251 = CARTESIAN_POINT('', (-0.4, 3.35144236075398E-15, -54.));
#252 = ADVANCED_FACE('', (#253), #256, .T.);
#253 = FACE_OUTER_BOUND('', #254, .T.);
#254 = EDGE_LOOP('', (#255));
#255 = ORIENTED_EDGE('', *, *, #227, .T.);
#256 = B_SPLINE_SURFACE_WITH_KNOTS('', 1, 1, ((#257, #258), (#259, #260)), .UNSPECIFIED., .F., .F., .U., (2, 2), (2, 2), (0.222253967444162, 1.02225396744416), (0.222253967444162, 1.02225396744416), .UNSPECIFIED.);
#257 = CARTESIAN_POINT('', (0.4, -0.399999999999997, -54.));
#258 = CARTESIAN_POINT('', (0.4, 0.400000000000003, -54.));
#259 = CARTESIAN_POINT('', (-0.4, -0.399999999999997, -54.));
#260 = CARTESIAN_POINT('', (-0.4, 0.400000000000003, -54.));
#261 = PRESENTATION_STYLE_ASSIGNMENT((#262));
#262 = SURFACE_STYLE_USAGE(.POSITIVE., #263);
#263 = SURFACE_SIDE_STYLE('', (#264));
#264 = SURFACE_STYLE_FILL_AREA(#265);
#265 = FILL_AREA_STYLE('', (#266));
#266 = FILL_AREA_STYLE_COLOUR('', #267);
#267 = COLOUR_RGB('', 0.8, 0.8, 0.8);
#268 = STYLED_ITEM('', (#261), #194);
#269 = TRIMMED_CURVE('cutting part line', #270, (#274), (#275), .T., .CARTESIAN.);
#270 = LINE('', #271, #272);
#271 = CARTESIAN_POINT('', (-5.98404153282081E-31, -3.25756048573196E-15, -53.2));
#272 = VECTOR('', #273, 0.4);
#273 = DIRECTION('', (0.4, -7.34788079488445E-17, 0.));
#274 = CARTESIAN_POINT('', (-5.98404153282081E-31, -3.25756048573196E-15, -53.2));
#275 = CARTESIAN_POINT('', (0.4, -3.3310392936808E-15, -53.2));
#276 = TRIMMED_CURVE('cutting part line', #277, (#281), (#282), .T., .CARTESIAN.);
#277 = LINE('', #278, #279);
#278 = CARTESIAN_POINT('', (0.4, -3.3310392936808E-15, -53.2));
#279 = VECTOR('', #280, 0.799999999999997);
#280 = DIRECTION('', (0., -4.89858719658899E-17, -0.799999999999997));
#281 = CARTESIAN_POINT('', (0.4, -3.3310392936808E-15, -53.2));
#282 = CARTESIAN_POINT('', (0.4, -3.38002516564669E-15, -54.));
#283 = TRIMMED_CURVE('cutting part line', #284, (#288), (#289), .T., .CARTESIAN.);
#284 = LINE('', #285, #286);
#285 = CARTESIAN_POINT('', (0.4, -3.38002516564669E-15, -54.));
#286 = VECTOR('', #287, 0.4);
#287 = DIRECTION('', (-0.4, 7.34788079488441E-17, 0.));
#288 = CARTESIAN_POINT('', (0.4, -3.38002516564669E-15, -54.));
#289 = CARTESIAN_POINT('', (-4.04935141318701E-31, -3.30654635769785E-15, -54.));
#290 = TRIMMED_CURVE('cutting part line', #291, (#295), (#296), .T., .CARTESIAN.);
#291 = LINE('', #292, #293);
#292 = CARTESIAN_POINT('', (-6.07402711978052E-31, -3.30654635769785E-15, -54.));
#293 = VECTOR('', #294, 0.799999999999997);
#294 = DIRECTION('', (8.9985586959709E-33, 4.89858719658903E-17, 0.799999999999997));
#295 = CARTESIAN_POINT('', (-6.07402711978052E-31, -3.30654635769785E-15, -54.));
#296 = CARTESIAN_POINT('', (-5.98404153282081E-31, -3.25756048573196E-15, -53.2));
#297 = COMPOSITE_CURVE('cutting part line', (#298, #299, #300, #301), .U.);
#298 = COMPOSITE_CURVE_SEGMENT(.CONTINUOUS., .T., #269);
#299 = COMPOSITE_CURVE_SEGMENT(.CONTINUOUS., .T., #276);
#300 = COMPOSITE_CURVE_SEGMENT(.CONTINUOUS., .T., #283);
#301 = COMPOSITE_CURVE_SEGMENT(.CONTINUOUS., .T., #290);
#302 = GEOMETRIC_SET('', (#297, #340));
#303 = PRESENTATION_STYLE_ASSIGNMENT((#304));
#304 = CURVE_STYLE('', #306, POSITIVE_LENGTH_MEASURE(1.E-6), #305);
#305 = COLOUR_RGB('', 0., 0., 1.);
#306 = DRAUGHTING_PRE_DEFINED_CURVE_FONT('continuous');
#307 = STYLED_ITEM('', (#303), #297);
#308 = PRESENTATION_STYLE_ASSIGNMENT((#309));
#309 = CURVE_STYLE('', #311, POSITIVE_LENGTH_MEASURE(1.E-6), #310);
#310 = COLOUR_RGB('', 0., 0., 1.);
#311 = DRAUGHTING_PRE_DEFINED_CURVE_FONT('continuous');
#312 = OVER_RIDING_STYLED_ITEM('', (#308), #269, #307);
#313 = PRESENTATION_STYLE_ASSIGNMENT((#314));
#314 = CURVE_STYLE('', #316, POSITIVE_LENGTH_MEASURE(1.E-6), #315);
#315 = COLOUR_RGB('', 0., 0., 1.);
#316 = DRAUGHTING_PRE_DEFINED_CURVE_FONT('continuous');
#317 = OVER_RIDING_STYLED_ITEM('', (#313), #276, #307);
#318 = PRESENTATION_STYLE_ASSIGNMENT((#319));
#319 = CURVE_STYLE('', #321, POSITIVE_LENGTH_MEASURE(1.E-6), #320);
#320 = COLOUR_RGB('', 0., 0., 1.);
#321 = DRAUGHTING_PRE_DEFINED_CURVE_FONT('continuous');
#322 = OVER_RIDING_STYLED_ITEM('', (#318), #283, #307);
#323 = PRESENTATION_STYLE_ASSIGNMENT((#324));
#324 = CURVE_STYLE('', #326, POSITIVE_LENGTH_MEASURE(1.E-6), #325);
#325 = COLOUR_RGB('', 0., 0., 1.);
#326 = DRAUGHTING_PRE_DEFINED_CURVE_FONT('continuous');
#327 = OVER_RIDING_STYLED_ITEM('', (#323), #290, #307);
#328 = AXIS2_PLACEMENT_3D('CIP', #329, #330, #331);
#329 = CARTESIAN_POINT('', (2.02467570659351E-31, 3.30654635769785E-15, -54.));
#330 = DIRECTION('', (-3.74939945665465E-33, -6.12323399573677E-17, 1.));
#331 = DIRECTION('', (1., -6.12323399573677E-17, 0.));
#332 = AXIS2_PLACEMENT_3D('MCS', #333, #334, #335);
#333 = CARTESIAN_POINT('', (1.34978380439567E-31, 2.20436423846524E-15, -36.));
#334 = DIRECTION('', (-3.74939945665465E-33, -6.12323399573677E-17, 1.));
#335 = DIRECTION('', (1., -6.12323399573677E-17, 0.));
#336 = AXIS2_PLACEMENT_3D('PCS', #337, #338, #339);
#337 = CARTESIAN_POINT('', (0., 0., 0.));
#338 = DIRECTION('', (0., 0., 1.));
#339 = DIRECTION('', (1., 0., 0.));
#340 = CARTESIAN_POINT('CRP', (0.4, 0., -54.));
#341 = (
   GEOMETRIC_REPRESENTATION_CONTEXT (3)
   GLOBAL_UNCERTAINTY_ASSIGNED_CONTEXT ((#343))
   GLOBAL_UNIT_ASSIGNED_CONTEXT ((#342, #344, #345))
   REPRESENTATION_CONTEXT ('', '3D')
);
#342 = (
   LENGTH_UNIT ()
   NAMED_UNIT (*)
   SI_UNIT (.MILLI., .METRE.)
);
#343 = UNCERTAINTY_MEASURE_WITH_UNIT(LENGTH_MEASURE(1.E-6), #342, 'DISTANCE_ACCURACY_VALUE', '');
#344 = (
   NAMED_UNIT (*)
   SI_UNIT ($, .STERADIAN.)
   SOLID_ANGLE_UNIT ()
);
#345 = (
   NAMED_UNIT (*)
   PLANE_ANGLE_UNIT ()
   SI_UNIT ($, .RADIAN.)
);
#346 = SHAPE_REPRESENTATION('', (), #341);
#347 = PRODUCT_DEFINITION_SHAPE('', '', #348);
#348 = PRODUCT_DEFINITION('', '', #351, #355);
#349 = APPLICATION_CONTEXT('configuration controlled 3D designs of mechanical parts and assemblies');
#350 = APPLICATION_PROTOCOL_DEFINITION('International Standard', 'automotive_design', 2002, #349);
#351 = PRODUCT_DEFINITION_FORMATION_WITH_SPECIFIED_SOURCE('', '', #352, .NOT_KNOWN.);
#352 = PRODUCT('EmptyName', 'EmptyName', '', (#353));
#353 = PRODUCT_CONTEXT('', #349, 'mechanical');
#354 = PRODUCT_RELATED_PRODUCT_CATEGORY('detail', '', (#352));
#355 = PRODUCT_DEFINITION_CONTEXT('part definition', #349, 'design');
#356 = SHAPE_DEFINITION_REPRESENTATION(#347, #346);
#357 = CONSTRUCTIVE_GEOMETRY_REPRESENTATION('supplemental geometry', (#328, #332, #336), #341);
#358 = CONSTRUCTIVE_GEOMETRY_REPRESENTATION_RELATIONSHIP('', '', #346, #357);
#359 = SHAPE_REPRESENTATION_RELATIONSHIP('', '', #346, #360);
#360 = SHAPE_REPRESENTATION('', (#302), #341);
#361 = SHAPE_REPRESENTATION_RELATIONSHIP('', '', #346, #362);
#362 = ADVANCED_BREP_SHAPE_REPRESENTATION('', (#1, #194), #341);
ENDSEC;
END-ISO-10303-21;
