ISO-10303-21;
HEADER;
FILE_DESCRIPTION(('STEP'), '1');
FILE_NAME('C:\\Users\\ds2002\\OneDrive - Sandvik\\HomeShare\\Documents\\Batchrepair\\CorSRT2\\NEW_MILSQ_SLD\\Output\\MOD000000000000000020084602700000.stp', '2019-01-02T12:06:40', (''), (''), 'Express v3.0.0.0', 'Express Tool', 'Unknown');
FILE_SCHEMA(('AUTOMOTIVE_DESIGN'));
ENDSEC;

DATA;
#1 = MANIFOLD_SOLID_BREP('NOCUT', #2);
#2 = CLOSED_SHELL('', (#3, #50, #89, #128, #175, #184, #215));
#3 = ADVANCED_FACE('', (#4), #31, .T.);
#4 = FACE_OUTER_BOUND('', #5, .T.);
#5 = EDGE_LOOP('', (#6, #16, #23, #24));
#6 = ORIENTED_EDGE('', *, *, #7, .F.);
#7 = EDGE_CURVE('', #8, #10, #12, .T.);
#8 = VERTEX_POINT('', #9);
#9 = CARTESIAN_POINT('', (-0.28, 3.44493144600151E-15, -55.98));
#10 = VERTEX_POINT('', #11);
#11 = CARTESIAN_POINT('', (-0.3, 3.47187367558275E-15, -56.4));
#12 = LINE('', #13, #14);
#13 = CARTESIAN_POINT('', (-0.28, 3.44493144600151E-15, -55.98));
#14 = VECTOR('', #15, 0.420475920832575);
#15 = DIRECTION('', (-0.02, 2.69422295812399E-17, -0.420000000000002));
#16 = ORIENTED_EDGE('', *, *, #17, .T.);
#17 = EDGE_CURVE('', #8, #8, #18, .T.);
#18 = CIRCLE('', #19, 0.280000000000004);
#19 = AXIS2_PLACEMENT_3D('', #20, #21, #22);
#20 = CARTESIAN_POINT('', (1.56125112837913E-16, 3.62210261783957E-15, -55.98));
#21 = DIRECTION('', (0., 0., -1.));
#22 = DIRECTION('', (-1., -6.3275418513593E-16, 0.));
#23 = ORIENTED_EDGE('', *, *, #7, .T.);
#24 = ORIENTED_EDGE('', *, *, #25, .F.);
#25 = EDGE_CURVE('', #10, #10, #26, .T.);
#26 = CIRCLE('', #27, 0.300000000000006);
#27 = AXIS2_PLACEMENT_3D('', #28, #29, #30);
#28 = CARTESIAN_POINT('', (-9.8879238130678E-17, 3.79557496543725E-15, -56.4));
#29 = DIRECTION('', (-1.06724894797498E-28, 8.06119657463351E-14, -1.));
#30 = DIRECTION('', (-1., -1.32393365934449E-15, 0.));
#31 = (
   BOUNDED_SURFACE ()
   B_SPLINE_SURFACE (2, 1, ((#32, #33), (#34, #35), (#36, #37), (#38, #39), (#40, #41), (#42, #43), (#44, #45), (#46, #47), (#48, #49)), .UNSPECIFIED., .T., .F., .U.)
   B_SPLINE_SURFACE_WITH_KNOTS ((3, 2, 2, 2, 3), (2, 2), (0., 0.25, 0.5, 0.75, 1.), (0., 1.), .UNSPECIFIED.)
   GEOMETRIC_REPRESENTATION_ITEM ()
   RATIONAL_B_SPLINE_SURFACE (((1., 1.), (0.707106781186548, 0.707106781186548), (1., 1.), (0.707106781186548, 0.707106781186548), (1., 1.), (0.707106781186548, 0.707106781186548), (1., 1.), (0.707106781186548, 0.707106781186548), (1., 1.)))
   REPRESENTATION_ITEM ('')
   SURFACE ()
);
#32 = CARTESIAN_POINT('', (-0.28, 3.44493144600151E-15, -55.98));
#33 = CARTESIAN_POINT('', (-0.3, 3.59286219264636E-15, -56.4));
#34 = CARTESIAN_POINT('', (-0.28, 0.280000000000003, -55.98));
#35 = CARTESIAN_POINT('', (-0.3, 0.300000000000003, -56.4));
#36 = CARTESIAN_POINT('', (1.94261831592679E-16, 0.280000000000003, -55.98));
#37 = CARTESIAN_POINT('', (2.09128947264142E-16, 0.300000000000003, -56.4));
#38 = CARTESIAN_POINT('', (0.28, 0.280000000000003, -55.98));
#39 = CARTESIAN_POINT('', (0.3, 0.300000000000003, -56.4));
#40 = CARTESIAN_POINT('', (0.28, 3.02865220720052E-15, -55.98));
#41 = CARTESIAN_POINT('', (0.3, 3.14684872250245E-15, -56.4));
#42 = CARTESIAN_POINT('', (0.28, -0.279999999999997, -55.98));
#43 = CARTESIAN_POINT('', (0.3, -0.299999999999997, -56.4));
#44 = CARTESIAN_POINT('', (-1.87727296832182E-16, -0.279999999999997, -55.98));
#45 = CARTESIAN_POINT('', (-2.0014511890535E-16, -0.299999999999996, -56.4));
#46 = CARTESIAN_POINT('', (-0.28, -0.279999999999997, -55.98));
#47 = CARTESIAN_POINT('', (-0.3, -0.299999999999996, -56.4));
#48 = CARTESIAN_POINT('', (-0.28, 3.44493144600151E-15, -55.98));
#49 = CARTESIAN_POINT('', (-0.3, 3.59286219264636E-15, -56.4));
#50 = ADVANCED_FACE('', (#51), #70, .T.);
#51 = FACE_OUTER_BOUND('', #52, .T.);
#52 = EDGE_LOOP('', (#53, #61, #68, #69));
#53 = ORIENTED_EDGE('', *, *, #54, .F.);
#54 = EDGE_CURVE('', #55, #8, #57, .T.);
#55 = VERTEX_POINT('', #56);
#56 = CARTESIAN_POINT('', (-0.28, 3.12774792502234E-15, -50.8));
#57 = LINE('', #58, #59);
#58 = CARTESIAN_POINT('', (-0.28, 3.12774792502234E-15, -50.8));
#59 = VECTOR('', #60, 5.18);
#60 = DIRECTION('', (0., 3.1718352097917E-16, -5.18));
#61 = ORIENTED_EDGE('', *, *, #62, .T.);
#62 = EDGE_CURVE('', #55, #55, #63, .T.);
#63 = CIRCLE('', #64, 0.279999999999997);
#64 = AXIS2_PLACEMENT_3D('', #65, #66, #67);
#65 = CARTESIAN_POINT('', (-9.97465998686664E-17, 2.94209101525666E-15, -50.8));
#66 = DIRECTION('', (0., 0., -1.));
#67 = DIRECTION('', (-1., 6.63060392020276E-16, 0.));
#68 = ORIENTED_EDGE('', *, *, #54, .T.);
#69 = ORIENTED_EDGE('', *, *, #17, .F.);
#70 = (
   BOUNDED_SURFACE ()
   B_SPLINE_SURFACE (2, 1, ((#71, #72), (#73, #74), (#75, #76), (#77, #78), (#79, #80), (#81, #82), (#83, #84), (#85, #86), (#87, #88)), .UNSPECIFIED., .T., .F., .U.)
   B_SPLINE_SURFACE_WITH_KNOTS ((3, 2, 2, 2, 3), (2, 2), (0., 0.439822971502572, 0.879645943005145, 1.31946891450772, 1.75929188601029), (0., 1.), .UNSPECIFIED.)
   GEOMETRIC_REPRESENTATION_ITEM ()
   RATIONAL_B_SPLINE_SURFACE (((1., 1.), (0.707106781186548, 0.707106781186548), (1., 1.), (0.707106781186548, 0.707106781186548), (1., 1.), (0.707106781186548, 0.707106781186548), (1., 1.), (0.707106781186548, 0.707106781186548), (1., 1.)))
   REPRESENTATION_ITEM ('')
   SURFACE ()
);
#71 = CARTESIAN_POINT('', (-0.28, 3.12774792502234E-15, -50.8));
#72 = CARTESIAN_POINT('', (-0.28, 3.26652580310048E-15, -55.98));
#73 = CARTESIAN_POINT('', (-0.28, 0.280000000000003, -50.8));
#74 = CARTESIAN_POINT('', (-0.28, 0.280000000000003, -55.98));
#75 = CARTESIAN_POINT('', (-5.96042825133378E-17, 0.280000000000003, -50.8));
#76 = CARTESIAN_POINT('', (-5.96042825133378E-17, 0.280000000000003, -55.98));
#77 = CARTESIAN_POINT('', (0.28, 0.280000000000003, -50.8));
#78 = CARTESIAN_POINT('', (0.28, 0.280000000000003, -55.98));
#79 = CARTESIAN_POINT('', (0.28, 3.27644678914062E-15, -50.8));
#80 = CARTESIAN_POINT('', (0.28, 3.41522466721877E-15, -55.98));
#81 = CARTESIAN_POINT('', (0.28, -0.279999999999997, -50.8));
#82 = CARTESIAN_POINT('', (0.28, -0.279999999999997, -55.98));
#83 = CARTESIAN_POINT('', (1.23384691981069E-16, -0.279999999999997, -50.8));
#84 = CARTESIAN_POINT('', (1.23384691981069E-16, -0.279999999999997, -55.98));
#85 = CARTESIAN_POINT('', (-0.28, -0.279999999999997, -50.8));
#86 = CARTESIAN_POINT('', (-0.28, -0.279999999999997, -55.98));
#87 = CARTESIAN_POINT('', (-0.28, 3.12774792502234E-15, -50.8));
#88 = CARTESIAN_POINT('', (-0.28, 3.26652580310048E-15, -55.98));
#89 = ADVANCED_FACE('', (#90), #109, .T.);
#90 = FACE_OUTER_BOUND('', #91, .T.);
#91 = EDGE_LOOP('', (#92, #100, #107, #108));
#92 = ORIENTED_EDGE('', *, *, #93, .F.);
#93 = EDGE_CURVE('', #94, #55, #96, .T.);
#94 = VERTEX_POINT('', #95);
#95 = CARTESIAN_POINT('', (-3., 3.00650789190675E-15, -46.1));
#96 = LINE('', #97, #98);
#97 = CARTESIAN_POINT('', (-3., 3.00650789190675E-15, -46.1));
#98 = VECTOR('', #99, 5.43032227404599);
#99 = DIRECTION('', (2.72, 1.2124003311559E-16, -4.7));
#100 = ORIENTED_EDGE('', *, *, #101, .T.);
#101 = EDGE_CURVE('', #94, #94, #102, .T.);
#102 = CIRCLE('', #103, 3.);
#103 = AXIS2_PLACEMENT_3D('', #104, #105, #106);
#104 = CARTESIAN_POINT('', (-5.13478148889135E-16, 5.55111512312578E-16, -46.1));
#105 = DIRECTION('', (-4.61263898293337E-30, -8.06119657463356E-15, -1.));
#106 = DIRECTION('', (-1., 5.72202766701921E-16, 0.));
#107 = ORIENTED_EDGE('', *, *, #93, .T.);
#108 = ORIENTED_EDGE('', *, *, #62, .F.);
#109 = (
   BOUNDED_SURFACE ()
   B_SPLINE_SURFACE (2, 1, ((#110, #111), (#112, #113), (#114, #115), (#116, #117), (#118, #119), (#120, #121), (#122, #123), (#124, #125), (#126, #127)), .UNSPECIFIED., .T., .F., .U.)
   B_SPLINE_SURFACE_WITH_KNOTS ((3, 2, 2, 2, 3), (2, 2), (0., 0.25, 0.5, 0.75, 1.), (0., 1.), .UNSPECIFIED.)
   GEOMETRIC_REPRESENTATION_ITEM ()
   RATIONAL_B_SPLINE_SURFACE (((1., 1.), (0.707106781186548, 0.707106781186548), (1., 1.), (0.707106781186548, 0.707106781186548), (1., 1.), (0.707106781186548, 0.707106781186548), (1., 1.), (0.707106781186548, 0.707106781186548), (1., 1.)))
   REPRESENTATION_ITEM ('')
   SURFACE ()
);
#110 = CARTESIAN_POINT('', (-3., 3.00650789190675E-15, -46.1));
#111 = CARTESIAN_POINT('', (-0.279999999999989, 2.94912096151657E-15, -50.8));
#112 = CARTESIAN_POINT('', (-3., 3., -46.1));
#113 = CARTESIAN_POINT('', (-0.279999999999989, 0.280000000000003, -50.8));
#114 = CARTESIAN_POINT('', (2.00402139137359E-15, 3., -46.1));
#115 = CARTESIAN_POINT('', (1.16837714908632E-14, 0.280000000000003, -50.8));
#116 = CARTESIAN_POINT('', (3., 3., -46.1));
#117 = CARTESIAN_POINT('', (0.280000000000012, 0.280000000000003, -50.8));
#118 = CARTESIAN_POINT('', (3., -1.96623197987199E-16, -46.1));
#119 = CARTESIAN_POINT('', (0.280000000000012, 2.65016205979314E-15, -50.8));
#120 = CARTESIAN_POINT('', (3., -3., -46.1));
#121 = CARTESIAN_POINT('', (0.280000000000012, -0.279999999999998, -50.8));
#122 = CARTESIAN_POINT('', (-8.31715658776147E-16, -3., -46.1));
#123 = CARTESIAN_POINT('', (1.14191026995159E-14, -0.279999999999997, -50.8));
#124 = CARTESIAN_POINT('', (-3., -3., -46.1));
#125 = CARTESIAN_POINT('', (-0.279999999999989, -0.279999999999997, -50.8));
#126 = CARTESIAN_POINT('', (-3., 3.00650789190675E-15, -46.1));
#127 = CARTESIAN_POINT('', (-0.279999999999989, 2.94912096151657E-15, -50.8));
#128 = ADVANCED_FACE('', (#129), #156, .T.);
#129 = FACE_OUTER_BOUND('', #130, .T.);
#130 = EDGE_LOOP('', (#131, #141, #148, #149));
#131 = ORIENTED_EDGE('', *, *, #132, .T.);
#132 = EDGE_CURVE('', #133, #135, #137, .T.);
#133 = VERTEX_POINT('', #134);
#134 = CARTESIAN_POINT('', (-3., 2.02066721859313E-16, -0.299999999999997));
#135 = VERTEX_POINT('', #136);
#136 = CARTESIAN_POINT('', (-2.7, 1.65327317884893E-16, 0.));
#137 = LINE('', #138, #139);
#138 = CARTESIAN_POINT('', (-3., 2.02066721859313E-16, -0.299999999999997));
#139 = VECTOR('', #140, 0.424264068711926);
#140 = DIRECTION('', (0.3, -3.673940397442E-17, 0.299999999999997));
#141 = ORIENTED_EDGE('', *, *, #142, .T.);
#142 = EDGE_CURVE('', #135, #135, #143, .T.);
#143 = CIRCLE('', #144, 2.7);
#144 = AXIS2_PLACEMENT_3D('', #145, #146, #147);
#145 = CARTESIAN_POINT('', (6.24500451351651E-17, -1.88737914186277E-15, -1.07852076885685E-31));
#146 = DIRECTION('', (6.60738625565492E-33, 6.12323399573678E-17, -1.));
#147 = DIRECTION('', (-1., 7.60261651758392E-16, 3.99452136613649E-32));
#148 = ORIENTED_EDGE('', *, *, #132, .F.);
#149 = ORIENTED_EDGE('', *, *, #150, .F.);
#150 = EDGE_CURVE('', #133, #133, #151, .T.);
#151 = CIRCLE('', #152, 3.);
#152 = AXIS2_PLACEMENT_3D('', #153, #154, #155);
#153 = CARTESIAN_POINT('', (-8.32667268468867E-16, 1.66533453693773E-16, -0.299999999999997));
#154 = DIRECTION('', (7.45939217764516E-34, 6.29780982393227E-17, -1.));
#155 = DIRECTION('', (-1., 1.18444227218465E-17, 0.));
#156 = (
   BOUNDED_SURFACE ()
   B_SPLINE_SURFACE (1, 2, ((#157, #158, #159, #160, #161, #162, #163, #164, #165), (#166, #167, #168, #169, #170, #171, #172, #173, #174)), .UNSPECIFIED., .F., .T., .U.)
   B_SPLINE_SURFACE_WITH_KNOTS ((2, 2), (3, 2, 2, 2, 3), (0., 1.), (0., 0.25, 0.5, 0.75, 1.), .UNSPECIFIED.)
   GEOMETRIC_REPRESENTATION_ITEM ()
   RATIONAL_B_SPLINE_SURFACE (((1., 0.707106781186548, 1., 0.707106781186548, 1., 0.707106781186548, 1., 0.707106781186548, 1.), (1., 0.707106781186548, 1., 0.707106781186548, 1., 0.707106781186548, 1., 0.707106781186548, 1.)))
   REPRESENTATION_ITEM ('')
   SURFACE ()
);
#157 = CARTESIAN_POINT('', (-3., 1.49129302665284E-15, -0.299999999999997));
#158 = CARTESIAN_POINT('', (-3., 3., -0.299999999999985));
#159 = CARTESIAN_POINT('', (2.34149119846292E-15, 3., -0.299999999999985));
#160 = CARTESIAN_POINT('', (3., 3., -0.299999999999985));
#161 = CARTESIAN_POINT('', (3., -1.34594359183367E-15, -0.299999999999997));
#162 = CARTESIAN_POINT('', (3., -3., -0.300000000000009));
#163 = CARTESIAN_POINT('', (-1.28351380279387E-16, -3., -0.300000000000009));
#164 = CARTESIAN_POINT('', (-3., -3., -0.300000000000009));
#165 = CARTESIAN_POINT('', (-3., 1.49129302665284E-15, -0.299999999999997));
#166 = CARTESIAN_POINT('', (-2.7, 1.65327317884893E-16, -2.18952885050753E-47));
#167 = CARTESIAN_POINT('', (-2.7, 2.7, 1.04916075827078E-14));
#168 = CARTESIAN_POINT('', (2.19962936753859E-15, 2.7, 1.04916075827078E-14));
#169 = CARTESIAN_POINT('', (2.7, 2.7, 1.04916075827078E-14));
#170 = CARTESIAN_POINT('', (2.7, -2.38818563875297E-15, 1.12461399303431E-30));
#171 = CARTESIAN_POINT('', (2.7, -2.7, -1.04916075827078E-14));
#172 = CARTESIAN_POINT('', (-2.32289533294833E-17, -2.7, -1.04916075827078E-14));
#173 = CARTESIAN_POINT('', (-2.7, -2.7, -1.04916075827078E-14));
#174 = CARTESIAN_POINT('', (-2.7, 1.65327317884893E-16, -2.18952885050753E-47));
#175 = ADVANCED_FACE('', (#176), #179, .T.);
#176 = FACE_OUTER_BOUND('', #177, .T.);
#177 = EDGE_LOOP('', (#178));
#178 = ORIENTED_EDGE('', *, *, #142, .F.);
#179 = B_SPLINE_SURFACE_WITH_KNOTS('', 1, 1, ((#180, #181), (#182, #183)), .UNSPECIFIED., .F., .F., .U., (2, 2), (2, 2), (1.50021428024809, 6.90021428024809), (1.50021428024809, 6.90021428024809), .UNSPECIFIED.);
#180 = CARTESIAN_POINT('', (2.7, -2.7, 6.94010003971609E-15));
#181 = CARTESIAN_POINT('', (-2.7, -2.7, -7.27075467548589E-15));
#182 = CARTESIAN_POINT('', (2.7, 2.7, 7.27075467548587E-15));
#183 = CARTESIAN_POINT('', (-2.7, 2.7, -6.9401000397161E-15));
#184 = ADVANCED_FACE('', (#185), #196, .T.);
#185 = FACE_OUTER_BOUND('', #186, .T.);
#186 = EDGE_LOOP('', (#187, #193, #194, #195));
#187 = ORIENTED_EDGE('', *, *, #188, .T.);
#188 = EDGE_CURVE('', #94, #133, #189, .T.);
#189 = LINE('', #190, #191);
#190 = CARTESIAN_POINT('', (-3., 3.00650789190675E-15, -46.1));
#191 = VECTOR('', #192, 45.8);
#192 = DIRECTION('', (0., -2.80444117004744E-15, 45.8));
#193 = ORIENTED_EDGE('', *, *, #150, .T.);
#194 = ORIENTED_EDGE('', *, *, #188, .F.);
#195 = ORIENTED_EDGE('', *, *, #101, .F.);
#196 = (
   BOUNDED_SURFACE ()
   B_SPLINE_SURFACE (1, 2, ((#197, #198, #199, #200, #201, #202, #203, #204, #205), (#206, #207, #208, #209, #210, #211, #212, #213, #214)), .UNSPECIFIED., .F., .T., .U.)
   B_SPLINE_SURFACE_WITH_KNOTS ((2, 2), (3, 2, 2, 2, 3), (0., 1.), (0., 4.7123889803847, 9.4247779607694, 14.1371669411541, 18.8495559215388), .UNSPECIFIED.)
   GEOMETRIC_REPRESENTATION_ITEM ()
   RATIONAL_B_SPLINE_SURFACE (((1., 0.707106781186548, 1., 0.707106781186548, 1., 0.707106781186548, 1., 0.707106781186548, 1.), (1., 0.707106781186548, 1., 0.707106781186548, 1., 0.707106781186548, 1., 0.707106781186548, 1.)))
   REPRESENTATION_ITEM ('')
   SURFACE ()
);
#197 = CARTESIAN_POINT('', (-3., 2.64455737603466E-15, -46.1));
#198 = CARTESIAN_POINT('', (-3., 3., -46.1));
#199 = CARTESIAN_POINT('', (2.40442401907744E-15, 3., -46.1));
#200 = CARTESIAN_POINT('', (3., 3., -46.1));
#201 = CARTESIAN_POINT('', (3., -1.16694031166529E-15, -46.1));
#202 = CARTESIAN_POINT('', (3., -3., -46.1));
#203 = CARTESIAN_POINT('', (-1.0396796288783E-15, -3., -46.1));
#204 = CARTESIAN_POINT('', (-3., -3., -46.1));
#205 = CARTESIAN_POINT('', (-3., 2.64455737603466E-15, -46.1));
#206 = CARTESIAN_POINT('', (-3., 2.02066721859312E-16, -0.299999999999997));
#207 = CARTESIAN_POINT('', (-3., 3., -0.299999999999997));
#208 = CARTESIAN_POINT('', (3.25189426120798E-15, 3., -0.299999999999997));
#209 = CARTESIAN_POINT('', (3., 3., -0.299999999999997));
#210 = CARTESIAN_POINT('', (3., -3.60943096584064E-15, -0.299999999999997));
#211 = CARTESIAN_POINT('', (3., -3., -0.299999999999997));
#212 = CARTESIAN_POINT('', (-1.92209386747767E-16, -3., -0.299999999999997));
#213 = CARTESIAN_POINT('', (-3., -3., -0.299999999999997));
#214 = CARTESIAN_POINT('', (-3., 2.02066721859312E-16, -0.299999999999997));
#215 = ADVANCED_FACE('', (#216), #219, .T.);
#216 = FACE_OUTER_BOUND('', #217, .T.);
#217 = EDGE_LOOP('', (#218));
#218 = ORIENTED_EDGE('', *, *, #25, .T.);
#219 = B_SPLINE_SURFACE_WITH_KNOTS('', 1, 1, ((#220, #221), (#222, #223)), .UNSPECIFIED., .F., .F., .U., (2, 2), (2, 2), (60.2649667832881, 60.8649667832881), (54.391279069161, 54.991279069161), .UNSPECIFIED.);
#220 = CARTESIAN_POINT('', (-0.300000000000007, 0.300000000000011, -56.4));
#221 = CARTESIAN_POINT('', (-0.300000000000007, -0.300000000000004, -56.4));
#222 = CARTESIAN_POINT('', (0.300000000000001, 0.300000000000011, -56.4));
#223 = CARTESIAN_POINT('', (0.300000000000001, -0.300000000000004, -56.4));
#224 = DRAUGHTING_MODEL('', (#232, #307, #346, #351, #356, #361, #366), #380);
#225 = PRESENTATION_STYLE_ASSIGNMENT((#226));
#226 = SURFACE_STYLE_USAGE(.POSITIVE., #227);
#227 = SURFACE_SIDE_STYLE('', (#228));
#228 = SURFACE_STYLE_FILL_AREA(#229);
#229 = FILL_AREA_STYLE('', (#230));
#230 = FILL_AREA_STYLE_COLOUR('', #231);
#231 = COLOUR_RGB('', 0.50196078431373, 0.50196078431373, 0.50196078431373);
#232 = STYLED_ITEM('', (#225), #1);
#233 = MANIFOLD_SOLID_BREP('CUT', #234);
#234 = CLOSED_SHELL('', (#235, #252, #291));
#235 = ADVANCED_FACE('', (#236), #247, .T.);
#236 = FACE_OUTER_BOUND('', #237, .T.);
#237 = EDGE_LOOP('', (#238));
#238 = ORIENTED_EDGE('', *, *, #239, .F.);
#239 = EDGE_CURVE('', #240, #240, #242, .T.);
#240 = VERTEX_POINT('', #241);
#241 = CARTESIAN_POINT('', (-0.3, 3.47187367558275E-15, -56.4));
#242 = CIRCLE('', #243, 0.300000000000006);
#243 = AXIS2_PLACEMENT_3D('', #244, #245, #246);
#244 = CARTESIAN_POINT('', (-1.14491749414469E-16, 3.77475828372553E-15, -56.4));
#245 = DIRECTION('', (8.13870788556557E-29, -8.06119657463321E-14, -1.));
#246 = DIRECTION('', (-1., -1.00961536047592E-15, 0.));
#247 = B_SPLINE_SURFACE_WITH_KNOTS('', 1, 1, ((#248, #249), (#250, #251)), .UNSPECIFIED., .F., .F., .U., (2, 2), (2, 2), (54.391279069161, 54.991279069161), (60.2649667832881, 60.8649667832881), .UNSPECIFIED.);
#248 = CARTESIAN_POINT('', (-0.300000000000004, 0.300000000000011, -56.4));
#249 = CARTESIAN_POINT('', (0.300000000000004, 0.300000000000011, -56.4));
#250 = CARTESIAN_POINT('', (-0.300000000000004, -0.300000000000004, -56.4));
#251 = CARTESIAN_POINT('', (0.300000000000004, -0.300000000000004, -56.4));
#252 = ADVANCED_FACE('', (#253), #272, .T.);
#253 = FACE_OUTER_BOUND('', #254, .T.);
#254 = EDGE_LOOP('', (#255, #263, #264, #265));
#255 = ORIENTED_EDGE('', *, *, #256, .F.);
#256 = EDGE_CURVE('', #240, #257, #259, .T.);
#257 = VERTEX_POINT('', #258);
#258 = CARTESIAN_POINT('', (-0.3, 3.50861307955717E-15, -57.));
#259 = LINE('', #260, #261);
#260 = CARTESIAN_POINT('', (-0.3, 3.47187367558275E-15, -56.4));
#261 = VECTOR('', #262, 0.600000000000001);
#262 = DIRECTION('', (0., 3.67394039744201E-17, -0.600000000000001));
#263 = ORIENTED_EDGE('', *, *, #239, .T.);
#264 = ORIENTED_EDGE('', *, *, #256, .T.);
#265 = ORIENTED_EDGE('', *, *, #266, .F.);
#266 = EDGE_CURVE('', #257, #257, #267, .T.);
#267 = CIRCLE('', #268, 0.3);
#268 = AXIS2_PLACEMENT_3D('', #269, #270, #271);
#269 = CARTESIAN_POINT('', (1.21430643318376E-17, 3.1710745140856E-15, -57.));
#270 = DIRECTION('', (9.0698824259534E-29, 8.06119657463326E-14, -1.));
#271 = DIRECTION('', (-1., 1.12512855157189E-15, 0.));
#272 = (
   BOUNDED_SURFACE ()
   B_SPLINE_SURFACE (2, 1, ((#273, #274), (#275, #276), (#277, #278), (#279, #280), (#281, #282), (#283, #284), (#285, #286), (#287, #288), (#289, #290)), .UNSPECIFIED., .T., .F., .U.)
   B_SPLINE_SURFACE_WITH_KNOTS ((3, 2, 2, 2, 3), (2, 2), (0., 0.47123889803847, 0.94247779607694, 1.41371669411541, 1.88495559215388), (0., 1.), .UNSPECIFIED.)
   GEOMETRIC_REPRESENTATION_ITEM ()
   RATIONAL_B_SPLINE_SURFACE (((1., 1.), (0.707106781186548, 0.707106781186548), (1., 1.), (0.707106781186548, 0.707106781186548), (1., 1.), (0.707106781186548, 0.707106781186548), (1., 1.), (0.707106781186548, 0.707106781186548), (1., 1.)))
   REPRESENTATION_ITEM ('')
   SURFACE ()
);
#273 = CARTESIAN_POINT('', (-0.3, 3.47187367558275E-15, -56.4));
#274 = CARTESIAN_POINT('', (-0.3, 3.72167385612341E-15, -57.));
#275 = CARTESIAN_POINT('', (-0.3, 0.300000000000003, -56.4));
#276 = CARTESIAN_POINT('', (-0.3, 0.300000000000004, -57.));
#277 = CARTESIAN_POINT('', (2.87633629937867E-16, 0.300000000000003, -56.4));
#278 = CARTESIAN_POINT('', (2.87633629937867E-16, 0.300000000000003, -57.));
#279 = CARTESIAN_POINT('', (0.3, 0.300000000000003, -56.4));
#280 = CARTESIAN_POINT('', (0.3, 0.300000000000003, -57.));
#281 = CARTESIAN_POINT('', (0.3, 3.03191484683321E-15, -56.4));
#282 = CARTESIAN_POINT('', (0.3, 3.28171502737387E-15, -57.));
#283 = CARTESIAN_POINT('', (0.3, -0.299999999999997, -56.4));
#284 = CARTESIAN_POINT('', (0.3, -0.299999999999997, -57.));
#285 = CARTESIAN_POINT('', (-1.15585794837255E-16, -0.299999999999997, -56.4));
#286 = CARTESIAN_POINT('', (-1.15585794837255E-16, -0.299999999999996, -57.));
#287 = CARTESIAN_POINT('', (-0.3, -0.299999999999997, -56.4));
#288 = CARTESIAN_POINT('', (-0.3, -0.299999999999996, -57.));
#289 = CARTESIAN_POINT('', (-0.3, 3.47187367558275E-15, -56.4));
#290 = CARTESIAN_POINT('', (-0.3, 3.72167385612341E-15, -57.));
#291 = ADVANCED_FACE('', (#292), #295, .T.);
#292 = FACE_OUTER_BOUND('', #293, .T.);
#293 = EDGE_LOOP('', (#294));
#294 = ORIENTED_EDGE('', *, *, #266, .T.);
#295 = B_SPLINE_SURFACE_WITH_KNOTS('', 1, 1, ((#296, #297), (#298, #299)), .UNSPECIFIED., .F., .F., .U., (2, 2), (2, 2), (0.166690475583121, 0.766690475583121), (0.166690475583121, 0.766690475583121), .UNSPECIFIED.);
#296 = CARTESIAN_POINT('', (0.3, -0.299999999999997, -57.));
#297 = CARTESIAN_POINT('', (0.3, 0.300000000000003, -57.));
#298 = CARTESIAN_POINT('', (-0.3, -0.299999999999997, -57.));
#299 = CARTESIAN_POINT('', (-0.3, 0.300000000000003, -57.));
#300 = PRESENTATION_STYLE_ASSIGNMENT((#301));
#301 = SURFACE_STYLE_USAGE(.POSITIVE., #302);
#302 = SURFACE_SIDE_STYLE('', (#303));
#303 = SURFACE_STYLE_FILL_AREA(#304);
#304 = FILL_AREA_STYLE('', (#305));
#305 = FILL_AREA_STYLE_COLOUR('', #306);
#306 = COLOUR_RGB('', 0.8, 0.8, 0.8);
#307 = STYLED_ITEM('', (#300), #233);
#308 = TRIMMED_CURVE('cutting part line', #309, (#313), (#314), .T., .CARTESIAN.);
#309 = LINE('', #310, #311);
#310 = CARTESIAN_POINT('', (-6.34398388065966E-31, -3.45350397359554E-15, -56.4));
#311 = VECTOR('', #312, 0.3);
#312 = DIRECTION('', (0.3, -5.51091059616305E-17, 0.));
#313 = CARTESIAN_POINT('', (-6.34398388065966E-31, -3.45350397359554E-15, -56.4));
#314 = CARTESIAN_POINT('', (0.3, -3.50861307955717E-15, -56.4));
#315 = TRIMMED_CURVE('cutting part line', #316, (#320), (#321), .T., .CARTESIAN.);
#316 = LINE('', #317, #318);
#317 = CARTESIAN_POINT('', (0.3, -3.50861307955717E-15, -56.4));
#318 = VECTOR('', #319, 0.600000000000001);
#319 = DIRECTION('', (0., -3.67394039744201E-17, -0.600000000000001));
#320 = CARTESIAN_POINT('', (0.3, -3.50861307955717E-15, -56.4));
#321 = CARTESIAN_POINT('', (0.3, -3.54535248353159E-15, -57.));
#322 = TRIMMED_CURVE('cutting part line', #323, (#327), (#328), .T., .CARTESIAN.);
#323 = LINE('', #324, #325);
#324 = CARTESIAN_POINT('', (0.3, -3.54535248353159E-15, -57.));
#325 = VECTOR('', #326, 0.3);
#326 = DIRECTION('', (-0.3, 5.51091059616305E-17, 0.));
#327 = CARTESIAN_POINT('', (0.3, -3.54535248353159E-15, -57.));
#328 = CARTESIAN_POINT('', (-4.2743153805863E-31, -3.49024337756996E-15, -57.));
#329 = TRIMMED_CURVE('cutting part line', #330, (#334), (#335), .T., .CARTESIAN.);
#330 = LINE('', #331, #332);
#331 = CARTESIAN_POINT('', (-6.41147307087945E-31, -3.49024337756996E-15, -57.));
#332 = VECTOR('', #333, 0.600000000000001);
#333 = DIRECTION('', (6.74891902197846E-33, 3.67394039744201E-17, 0.600000000000001));
#334 = CARTESIAN_POINT('', (-6.41147307087945E-31, -3.49024337756996E-15, -57.));
#335 = CARTESIAN_POINT('', (-6.34398388065966E-31, -3.45350397359554E-15, -56.4));
#336 = COMPOSITE_CURVE('cutting part line', (#337, #338, #339, #340), .U.);
#337 = COMPOSITE_CURVE_SEGMENT(.CONTINUOUS., .T., #308);
#338 = COMPOSITE_CURVE_SEGMENT(.CONTINUOUS., .T., #315);
#339 = COMPOSITE_CURVE_SEGMENT(.CONTINUOUS., .T., #322);
#340 = COMPOSITE_CURVE_SEGMENT(.CONTINUOUS., .T., #329);
#341 = GEOMETRIC_SET('', (#336, #379));
#342 = PRESENTATION_STYLE_ASSIGNMENT((#343));
#343 = CURVE_STYLE('', #345, POSITIVE_LENGTH_MEASURE(1.E-6), #344);
#344 = COLOUR_RGB('', 0., 0., 1.);
#345 = DRAUGHTING_PRE_DEFINED_CURVE_FONT('continuous');
#346 = STYLED_ITEM('', (#342), #336);
#347 = PRESENTATION_STYLE_ASSIGNMENT((#348));
#348 = CURVE_STYLE('', #350, POSITIVE_LENGTH_MEASURE(1.E-6), #349);
#349 = COLOUR_RGB('', 0., 0., 1.);
#350 = DRAUGHTING_PRE_DEFINED_CURVE_FONT('continuous');
#351 = OVER_RIDING_STYLED_ITEM('', (#347), #308, #346);
#352 = PRESENTATION_STYLE_ASSIGNMENT((#353));
#353 = CURVE_STYLE('', #355, POSITIVE_LENGTH_MEASURE(1.E-6), #354);
#354 = COLOUR_RGB('', 0., 0., 1.);
#355 = DRAUGHTING_PRE_DEFINED_CURVE_FONT('continuous');
#356 = OVER_RIDING_STYLED_ITEM('', (#352), #315, #346);
#357 = PRESENTATION_STYLE_ASSIGNMENT((#358));
#358 = CURVE_STYLE('', #360, POSITIVE_LENGTH_MEASURE(1.E-6), #359);
#359 = COLOUR_RGB('', 0., 0., 1.);
#360 = DRAUGHTING_PRE_DEFINED_CURVE_FONT('continuous');
#361 = OVER_RIDING_STYLED_ITEM('', (#357), #322, #346);
#362 = PRESENTATION_STYLE_ASSIGNMENT((#363));
#363 = CURVE_STYLE('', #365, POSITIVE_LENGTH_MEASURE(1.E-6), #364);
#364 = COLOUR_RGB('', 0., 0., 1.);
#365 = DRAUGHTING_PRE_DEFINED_CURVE_FONT('continuous');
#366 = OVER_RIDING_STYLED_ITEM('', (#362), #329, #346);
#367 = AXIS2_PLACEMENT_3D('CIP', #368, #369, #370);
#368 = CARTESIAN_POINT('', (2.13715769029315E-31, 3.49024337756996E-15, -57.));
#369 = DIRECTION('', (-3.74939945665465E-33, -6.12323399573677E-17, 1.));
#370 = DIRECTION('', (1., -6.12323399573677E-17, 0.));
#371 = AXIS2_PLACEMENT_3D('MCS', #372, #373, #374);
#372 = CARTESIAN_POINT('', (1.34978380439567E-31, 2.20436423846524E-15, -36.));
#373 = DIRECTION('', (-3.74939945665465E-33, -6.12323399573677E-17, 1.));
#374 = DIRECTION('', (1., -6.12323399573677E-17, 0.));
#375 = AXIS2_PLACEMENT_3D('PCS', #376, #377, #378);
#376 = CARTESIAN_POINT('', (0., 0., 0.));
#377 = DIRECTION('', (0., 0., 1.));
#378 = DIRECTION('', (1., 0., 0.));
#379 = CARTESIAN_POINT('CRP', (0.3, 0., -57.));
#380 = (
   GEOMETRIC_REPRESENTATION_CONTEXT (3)
   GLOBAL_UNCERTAINTY_ASSIGNED_CONTEXT ((#382))
   GLOBAL_UNIT_ASSIGNED_CONTEXT ((#381, #383, #384))
   REPRESENTATION_CONTEXT ('', '3D')
);
#381 = (
   LENGTH_UNIT ()
   NAMED_UNIT (*)
   SI_UNIT (.MILLI., .METRE.)
);
#382 = UNCERTAINTY_MEASURE_WITH_UNIT(LENGTH_MEASURE(1.E-6), #381, 'DISTANCE_ACCURACY_VALUE', '');
#383 = (
   NAMED_UNIT (*)
   SI_UNIT ($, .STERADIAN.)
   SOLID_ANGLE_UNIT ()
);
#384 = (
   NAMED_UNIT (*)
   PLANE_ANGLE_UNIT ()
   SI_UNIT ($, .RADIAN.)
);
#385 = SHAPE_REPRESENTATION('', (), #380);
#386 = PRODUCT_DEFINITION_SHAPE('', '', #387);
#387 = PRODUCT_DEFINITION('', '', #390, #394);
#388 = APPLICATION_CONTEXT('configuration controlled 3D designs of mechanical parts and assemblies');
#389 = APPLICATION_PROTOCOL_DEFINITION('International Standard', 'automotive_design', 2002, #388);
#390 = PRODUCT_DEFINITION_FORMATION_WITH_SPECIFIED_SOURCE('', '', #391, .NOT_KNOWN.);
#391 = PRODUCT('EmptyName', 'EmptyName', '', (#392));
#392 = PRODUCT_CONTEXT('', #388, 'mechanical');
#393 = PRODUCT_RELATED_PRODUCT_CATEGORY('detail', '', (#391));
#394 = PRODUCT_DEFINITION_CONTEXT('part definition', #388, 'design');
#395 = SHAPE_DEFINITION_REPRESENTATION(#386, #385);
#396 = CONSTRUCTIVE_GEOMETRY_REPRESENTATION('supplemental geometry', (#367, #371, #375), #380);
#397 = CONSTRUCTIVE_GEOMETRY_REPRESENTATION_RELATIONSHIP('', '', #385, #396);
#398 = SHAPE_REPRESENTATION_RELATIONSHIP('', '', #385, #399);
#399 = SHAPE_REPRESENTATION('', (#341), #380);
#400 = SHAPE_REPRESENTATION_RELATIONSHIP('', '', #385, #401);
#401 = ADVANCED_BREP_SHAPE_REPRESENTATION('', (#1, #233), #380);
ENDSEC;
END-ISO-10303-21;
