ISO-10303-21;
HEADER;
FILE_DESCRIPTION(('STEP'), '1');
FILE_NAME('C:\\Users\\ds2002\\OneDrive - Sandvik\\HomeShare\\Documents\\Batchrepair\\CorSRT2\\NEW_MILSQ_SLD\\Output\\MOD000000000000000020084599500000.stp', '2019-01-02T12:11:29', (''), (''), 'Express v3.0.0.0', 'Express Tool', 'Unknown');
FILE_SCHEMA(('AUTOMOTIVE_DESIGN'));
ENDSEC;

DATA;
#1 = MANIFOLD_SOLID_BREP('NOCUT', #2);
#2 = CLOSED_SHELL('', (#3, #50, #59, #98));
#3 = ADVANCED_FACE('', (#4), #31, .T.);
#4 = FACE_OUTER_BOUND('', #5, .T.);
#5 = EDGE_LOOP('', (#6, #16, #23, #24));
#6 = ORIENTED_EDGE('', *, *, #7, .T.);
#7 = EDGE_CURVE('', #8, #10, #12, .T.);
#8 = VERTEX_POINT('', #9);
#9 = CARTESIAN_POINT('', (-10., 6.73555739531044E-16, -1.));
#10 = VERTEX_POINT('', #11);
#11 = CARTESIAN_POINT('', (-9., 5.51091059616309E-16, 0.));
#12 = LINE('', #13, #14);
#13 = CARTESIAN_POINT('', (-10., 6.73555739531044E-16, -1.));
#14 = VECTOR('', #15, 1.4142135623731);
#15 = DIRECTION('', (1., -1.22464679914735E-16, 1.));
#16 = ORIENTED_EDGE('', *, *, #17, .T.);
#17 = EDGE_CURVE('', #10, #10, #18, .T.);
#18 = CIRCLE('', #19, 9.);
#19 = AXIS2_PLACEMENT_3D('', #20, #21, #22);
#20 = CARTESIAN_POINT('', (-1.80411241501588E-15, -1.11022302462516E-15, -4.93038065763132E-32));
#21 = DIRECTION('', (5.82470468954701E-33, 6.12323399573676E-17, -1.));
#22 = DIRECTION('', (-1., 1.84590453804607E-16, 5.47820073070147E-33));
#23 = ORIENTED_EDGE('', *, *, #7, .F.);
#24 = ORIENTED_EDGE('', *, *, #25, .F.);
#25 = EDGE_CURVE('', #8, #8, #26, .T.);
#26 = CIRCLE('', #27, 10.);
#27 = AXIS2_PLACEMENT_3D('', #28, #29, #30);
#28 = CARTESIAN_POINT('', (6.66133814775094E-16, -4.44089209850063E-15, -1.));
#29 = DIRECTION('', (2.22044604925031E-17, -3.44512803564274E-17, -1.));
#30 = DIRECTION('', (-1., 2.66515423973697E-16, -2.22044604925031E-17));
#31 = (
   BOUNDED_SURFACE ()
   B_SPLINE_SURFACE (1, 2, ((#32, #33, #34, #35, #36, #37, #38, #39, #40), (#41, #42, #43, #44, #45, #46, #47, #48, #49)), .UNSPECIFIED., .F., .T., .U.)
   B_SPLINE_SURFACE_WITH_KNOTS ((2, 2), (3, 2, 2, 2, 3), (0., 1.), (0., 0.25, 0.5, 0.75, 1.), .UNSPECIFIED.)
   GEOMETRIC_REPRESENTATION_ITEM ()
   RATIONAL_B_SPLINE_SURFACE (((1., 0.707106781186548, 1., 0.707106781186548, 1., 0.707106781186548, 1., 0.707106781186548, 1.), (1., 0.707106781186548, 1., 0.707106781186548, 1., 0.707106781186548, 1., 0.707106781186548, 1.)))
   REPRESENTATION_ITEM ('')
   SURFACE ()
);
#32 = CARTESIAN_POINT('', (-9.99999999999999, -5.38288093340217E-15, -1.));
#33 = CARTESIAN_POINT('', (-9.99999999999999, 9.99999999999999, -1.00000000000006));
#34 = CARTESIAN_POINT('', (4.57966997657877E-15, 9.99999999999999, -1.00000000000006));
#35 = CARTESIAN_POINT('', (10., 9.99999999999999, -1.00000000000006));
#36 = CARTESIAN_POINT('', (10., -5.38288093340217E-15, -1.));
#37 = CARTESIAN_POINT('', (10., -10., -0.99999999999994));
#38 = CARTESIAN_POINT('', (5.80431677572612E-15, -10., -0.99999999999994));
#39 = CARTESIAN_POINT('', (-9.99999999999999, -10., -0.99999999999994));
#40 = CARTESIAN_POINT('', (-9.99999999999999, -5.38288093340217E-15, -1.));
#41 = CARTESIAN_POINT('', (-9., 5.51091059616309E-16, 0.));
#42 = CARTESIAN_POINT('', (-9., 9., -5.39568389967826E-14));
#43 = CARTESIAN_POINT('', (4.57966997657877E-15, 9., -5.39568389967826E-14));
#44 = CARTESIAN_POINT('', (9.00000000000001, 9., -5.39568389967826E-14));
#45 = CARTESIAN_POINT('', (9.00000000000001, 5.51091059616309E-16, -6.60780701695189E-30));
#46 = CARTESIAN_POINT('', (9.00000000000001, -9., 5.39568389967826E-14));
#47 = CARTESIAN_POINT('', (5.68185209581139E-15, -9., 5.39568389967826E-14));
#48 = CARTESIAN_POINT('', (-8.99999999999999, -9., 5.39568389967826E-14));
#49 = CARTESIAN_POINT('', (-9., 5.51091059616309E-16, 0.));
#50 = ADVANCED_FACE('', (#51), #54, .T.);
#51 = FACE_OUTER_BOUND('', #52, .T.);
#52 = EDGE_LOOP('', (#53));
#53 = ORIENTED_EDGE('', *, *, #17, .F.);
#54 = B_SPLINE_SURFACE_WITH_KNOTS('', 1, 1, ((#55, #56), (#57, #58)), .UNSPECIFIED., .F., .F., .U., (2, 2), (2, 2), (5.0007142674936, 23.0007142674936), (5.0007142674936, 23.0007142674936), .UNSPECIFIED.);
#55 = CARTESIAN_POINT('', (9., -9., -7.65651841721733E-15));
#56 = CARTESIAN_POINT('', (-9., -9., -7.65651841721734E-15));
#57 = CARTESIAN_POINT('', (9., 9., 7.65651841721728E-15));
#58 = CARTESIAN_POINT('', (-9., 9., 7.65651841721728E-15));
#59 = ADVANCED_FACE('', (#60), #79, .T.);
#60 = FACE_OUTER_BOUND('', #61, .T.);
#61 = EDGE_LOOP('', (#62, #71, #77, #78));
#62 = ORIENTED_EDGE('', *, *, #63, .F.);
#63 = EDGE_CURVE('', #64, #64, #66, .T.);
#64 = VERTEX_POINT('', #65);
#65 = CARTESIAN_POINT('', (-10., 5.93953697586466E-15, -87.));
#66 = CIRCLE('', #67, 10.);
#67 = AXIS2_PLACEMENT_3D('', #68, #69, #70);
#68 = CARTESIAN_POINT('', (-2.88657986402541E-15, 4.88498130835069E-15, -87.));
#69 = DIRECTION('', (0., 0., -1.));
#70 = DIRECTION('', (-1., -1.39473793078073E-16, 0.));
#71 = ORIENTED_EDGE('', *, *, #72, .F.);
#72 = EDGE_CURVE('', #8, #64, #73, .T.);
#73 = LINE('', #74, #75);
#74 = CARTESIAN_POINT('', (-10., 6.73555739531044E-16, -1.));
#75 = VECTOR('', #76, 86.);
#76 = DIRECTION('', (0., 5.26598123633362E-15, -86.));
#77 = ORIENTED_EDGE('', *, *, #25, .T.);
#78 = ORIENTED_EDGE('', *, *, #72, .T.);
#79 = (
   BOUNDED_SURFACE ()
   B_SPLINE_SURFACE (1, 2, ((#80, #81, #82, #83, #84, #85, #86, #87, #88), (#89, #90, #91, #92, #93, #94, #95, #96, #97)), .UNSPECIFIED., .F., .T., .U.)
   B_SPLINE_SURFACE_WITH_KNOTS ((2, 2), (3, 2, 2, 2, 3), (-0.755102040816327, 1.), (0., 0.25, 0.5, 0.75, 1.), .UNSPECIFIED.)
   GEOMETRIC_REPRESENTATION_ITEM ()
   RATIONAL_B_SPLINE_SURFACE (((1., 0.707106781186548, 1., 0.707106781186548, 1., 0.707106781186548, 1., 0.707106781186548, 1.), (1., 0.707106781186548, 1., 0.707106781186548, 1., 0.707106781186548, 1., 0.707106781186548, 1.)))
   REPRESENTATION_ITEM ('')
   SURFACE ()
);
#80 = CARTESIAN_POINT('', (-10., 6.66876007250689E-15, -87.));
#81 = CARTESIAN_POINT('', (-10., 10., -87.));
#82 = CARTESIAN_POINT('', (2.11112448281769E-16, 10., -87.));
#83 = CARTESIAN_POINT('', (10., 10., -87.));
#84 = CARTESIAN_POINT('', (9.99999999999999, -1.00322117485891E-15, -87.));
#85 = CARTESIAN_POINT('', (9.99999999999999, -10., -87.));
#86 = CARTESIAN_POINT('', (-6.23622199993668E-15, -10., -87.));
#87 = CARTESIAN_POINT('', (-10., -9.99999999999999, -87.));
#88 = CARTESIAN_POINT('', (-10., 6.66876007250689E-15, -87.));
#89 = CARTESIAN_POINT('', (-10., 6.73555739531046E-16, -1.));
#90 = CARTESIAN_POINT('', (-10., 10., -0.999999999999999));
#91 = CARTESIAN_POINT('', (-7.43679352895869E-16, 9.99999999999999, -0.999999999999999));
#92 = CARTESIAN_POINT('', (10., 9.99999999999999, -0.999999999999999));
#93 = CARTESIAN_POINT('', (9.99999999999999, -6.99842550783476E-15, -1.));
#94 = CARTESIAN_POINT('', (9.99999999999999, -10., -1.));
#95 = CARTESIAN_POINT('', (-7.19101380111432E-15, -10., -1.));
#96 = CARTESIAN_POINT('', (-10., -10., -1.));
#97 = CARTESIAN_POINT('', (-10., 6.73555739531046E-16, -1.));
#98 = ADVANCED_FACE('', (#99), #102, .T.);
#99 = FACE_OUTER_BOUND('', #100, .T.);
#100 = EDGE_LOOP('', (#101));
#101 = ORIENTED_EDGE('', *, *, #63, .T.);
#102 = B_SPLINE_SURFACE_WITH_KNOTS('', 1, 1, ((#103, #104), (#105, #106)), .UNSPECIFIED., .F., .F., .U., (2, 2), (2, 2), (122.080061988133, 142.080061988133), (114.240060671014, 134.240060671014), .UNSPECIFIED.);
#103 = CARTESIAN_POINT('', (-10., 10., -87.));
#104 = CARTESIAN_POINT('', (-10., -10., -87.));
#105 = CARTESIAN_POINT('', (9.99999999999999, 10., -87.));
#106 = CARTESIAN_POINT('', (9.99999999999999, -10., -87.));
#107 = DRAUGHTING_MODEL('', (#115, #239, #287, #292, #297, #302, #307, #312), #326);
#108 = PRESENTATION_STYLE_ASSIGNMENT((#109));
#109 = SURFACE_STYLE_USAGE(.POSITIVE., #110);
#110 = SURFACE_SIDE_STYLE('', (#111));
#111 = SURFACE_STYLE_FILL_AREA(#112);
#112 = FILL_AREA_STYLE('', (#113));
#113 = FILL_AREA_STYLE_COLOUR('', #114);
#114 = COLOUR_RGB('', 0.50196078431373, 0.50196078431373, 0.50196078431373);
#115 = STYLED_ITEM('', (#108), #1);
#116 = MANIFOLD_SOLID_BREP('CUT', #117);
#117 = CLOSED_SHELL('', (#118, #135, #174, #223));
#118 = ADVANCED_FACE('', (#119), #130, .T.);
#119 = FACE_OUTER_BOUND('', #120, .T.);
#120 = EDGE_LOOP('', (#121));
#121 = ORIENTED_EDGE('', *, *, #122, .F.);
#122 = EDGE_CURVE('', #123, #123, #125, .T.);
#123 = VERTEX_POINT('', #124);
#124 = CARTESIAN_POINT('', (-10., 5.93953697586466E-15, -87.));
#125 = CIRCLE('', #126, 10.);
#126 = AXIS2_PLACEMENT_3D('', #127, #128, #129);
#127 = CARTESIAN_POINT('', (-2.88657986402541E-15, 4.88498130835069E-15, -87.));
#128 = DIRECTION('', (0., 0., -1.));
#129 = DIRECTION('', (-1., -1.39473793078073E-16, 0.));
#130 = B_SPLINE_SURFACE_WITH_KNOTS('', 1, 1, ((#131, #132), (#133, #134)), .UNSPECIFIED., .F., .F., .U., (2, 2), (2, 2), (114.240060671014, 134.240060671014), (122.080061988133, 142.080061988133), .UNSPECIFIED.);
#131 = CARTESIAN_POINT('', (-9.99999999999999, 10., -87.));
#132 = CARTESIAN_POINT('', (10., 10., -87.));
#133 = CARTESIAN_POINT('', (-9.99999999999999, -10., -87.));
#134 = CARTESIAN_POINT('', (10., -10., -87.));
#135 = ADVANCED_FACE('', (#136), #155, .T.);
#136 = FACE_OUTER_BOUND('', #137, .T.);
#137 = EDGE_LOOP('', (#138, #139, #147, #154));
#138 = ORIENTED_EDGE('', *, *, #122, .T.);
#139 = ORIENTED_EDGE('', *, *, #140, .T.);
#140 = EDGE_CURVE('', #123, #141, #143, .T.);
#141 = VERTEX_POINT('', #142);
#142 = CARTESIAN_POINT('', (-10., 8.02143653441516E-15, -121.));
#143 = LINE('', #144, #145);
#144 = CARTESIAN_POINT('', (-10., 5.93953697586466E-15, -87.));
#145 = VECTOR('', #146, 34.);
#146 = DIRECTION('', (0., 2.0818995585505E-15, -34.));
#147 = ORIENTED_EDGE('', *, *, #148, .F.);
#148 = EDGE_CURVE('', #141, #141, #149, .T.);
#149 = CIRCLE('', #150, 10.);
#150 = AXIS2_PLACEMENT_3D('', #151, #152, #153);
#151 = CARTESIAN_POINT('', (-1.94289029309402E-15, 6.43929354282591E-15, -121.));
#152 = DIRECTION('', (7.65237939862762E-31, 4.83671794477998E-15, -1.));
#153 = DIRECTION('', (-1., 1.58214299158925E-16, 0.));
#154 = ORIENTED_EDGE('', *, *, #140, .F.);
#155 = (
   BOUNDED_SURFACE ()
   B_SPLINE_SURFACE (1, 2, ((#156, #157, #158, #159, #160, #161, #162, #163, #164), (#165, #166, #167, #168, #169, #170, #171, #172, #173)), .UNSPECIFIED., .F., .T., .U.)
   B_SPLINE_SURFACE_WITH_KNOTS ((2, 2), (3, 2, 2, 2, 3), (-1.44897959183674, -0.755102040816327), (0., 0.25, 0.5, 0.75, 1.), .UNSPECIFIED.)
   GEOMETRIC_REPRESENTATION_ITEM ()
   RATIONAL_B_SPLINE_SURFACE (((1., 0.707106781186548, 1., 0.707106781186548, 1., 0.707106781186548, 1., 0.707106781186548, 1.), (1., 0.707106781186548, 1., 0.707106781186548, 1., 0.707106781186548, 1., 0.707106781186548, 1.)))
   REPRESENTATION_ITEM ('')
   SURFACE ()
);
#156 = CARTESIAN_POINT('', (-10., 5.05135855616453E-15, -121.));
#157 = CARTESIAN_POINT('', (-10., 10., -121.));
#158 = CARTESIAN_POINT('', (-4.47050461602602E-15, 10., -121.));
#159 = CARTESIAN_POINT('', (9.99999999999999, 10., -121.));
#160 = CARTESIAN_POINT('', (9.99999999999999, 3.72280481043388E-15, -121.));
#161 = CARTESIAN_POINT('', (9.99999999999999, -9.99999999999999, -121.));
#162 = CARTESIAN_POINT('', (-4.57441156260932E-15, -9.99999999999999, -121.));
#163 = CARTESIAN_POINT('', (-10., -9.99999999999999, -121.));
#164 = CARTESIAN_POINT('', (-10., 5.05135855616453E-15, -121.));
#165 = CARTESIAN_POINT('', (-10., 5.93953697586466E-15, -87.));
#166 = CARTESIAN_POINT('', (-10., 10., -87.));
#167 = CARTESIAN_POINT('', (-4.47050461602602E-15, 10., -87.));
#168 = CARTESIAN_POINT('', (9.99999999999999, 10., -87.));
#169 = CARTESIAN_POINT('', (9.99999999999999, 4.61098323013401E-15, -87.));
#170 = CARTESIAN_POINT('', (9.99999999999999, -9.99999999999999, -87.));
#171 = CARTESIAN_POINT('', (-4.57441156260932E-15, -9.99999999999999, -87.));
#172 = CARTESIAN_POINT('', (-10., -9.99999999999999, -87.));
#173 = CARTESIAN_POINT('', (-10., 5.93953697586466E-15, -87.));
#174 = ADVANCED_FACE('', (#175), #195, .T.);
#175 = FACE_OUTER_BOUND('', #176, .T.);
#176 = EDGE_LOOP('', (#177, #186, #187, #188));
#177 = ORIENTED_EDGE('', *, *, #178, .F.);
#178 = EDGE_CURVE('', #141, #179, #181, .T.);
#179 = VERTEX_POINT('', #180);
#180 = CARTESIAN_POINT('', (-6., 8.02143653441516E-15, -125.));
#181 = CIRCLE('', #182, 3.99999999999998);
#182 = AXIS2_PLACEMENT_3D('', #183, #184, #185);
#183 = CARTESIAN_POINT('', (-6.00000000000003, 7.77650717458569E-15, -121.));
#184 = DIRECTION('', (-6.12323399573684E-17, -1., -6.12323399573691E-17));
#185 = DIRECTION('', (-1., 6.12323399573684E-17, 0.));
#186 = ORIENTED_EDGE('', *, *, #148, .T.);
#187 = ORIENTED_EDGE('', *, *, #178, .T.);
#188 = ORIENTED_EDGE('', *, *, #189, .F.);
#189 = EDGE_CURVE('', #179, #179, #190, .T.);
#190 = CIRCLE('', #191, 6.);
#191 = AXIS2_PLACEMENT_3D('', #192, #193, #194);
#192 = CARTESIAN_POINT('', (-6.10622663543836E-16, 8.10462807976364E-15, -125.));
#193 = DIRECTION('', (-1.11770566733607E-31, 8.06119657463331E-15, -1.));
#194 = DIRECTION('', (-1., -1.38652575580804E-17, 0.));
#195 = (
   BOUNDED_SURFACE ()
   B_SPLINE_SURFACE (2, 2, ((#196, #197, #198), (#199, #200, #201), (#202, #203, #204), (#205, #206, #207), (#208, #209, #210), (#211, #212, #213), (#214, #215, #216), (#217, #218, #219), (#220, #221, #222)), .UNSPECIFIED., .T., .F., .U.)
   B_SPLINE_SURFACE_WITH_KNOTS ((3, 2, 2, 2, 3), (3, 3), (0., 0.25, 0.5, 0.75, 1.), (0., 1.), .UNSPECIFIED.)
   GEOMETRIC_REPRESENTATION_ITEM ()
   RATIONAL_B_SPLINE_SURFACE (((1., 0.707106781186548, 1.), (0.707106781186548, 0.5, 0.707106781186548), (1., 0.707106781186548, 1.), (0.707106781186548, 0.5, 0.707106781186548), (1., 0.707106781186548, 1.), (0.707106781186548, 0.5, 0.707106781186548), (1., 0.707106781186548, 1.), (0.707106781186548, 0.5, 0.707106781186548), (1., 0.707106781186548, 1.)))
   REPRESENTATION_ITEM ('')
   SURFACE ()
);
#196 = CARTESIAN_POINT('', (-10., 8.02143653441516E-15, -121.));
#197 = CARTESIAN_POINT('', (-10., 8.26636589424464E-15, -125.));
#198 = CARTESIAN_POINT('', (-6., 8.02143653441516E-15, -125.));
#199 = CARTESIAN_POINT('', (-10., 10., -121.));
#200 = CARTESIAN_POINT('', (-10., 10., -125.));
#201 = CARTESIAN_POINT('', (-6., 6.00000000000001, -125.));
#202 = CARTESIAN_POINT('', (-2.41636063309115E-15, 10., -121.));
#203 = CARTESIAN_POINT('', (-2.17143127326167E-15, 10., -125.));
#204 = CARTESIAN_POINT('', (-2.17143127326168E-15, 6.00000000000001, -125.));
#205 = CARTESIAN_POINT('', (10., 10., -121.));
#206 = CARTESIAN_POINT('', (10., 10., -125.));
#207 = CARTESIAN_POINT('', (6., 6.00000000000001, -125.));
#208 = CARTESIAN_POINT('', (10., 8.30224339963432E-15, -121.));
#209 = CARTESIAN_POINT('', (10., 8.05731403980484E-15, -125.));
#210 = CARTESIAN_POINT('', (5.99999999999999, 7.81238467997538E-15, -125.));
#211 = CARTESIAN_POINT('', (10., -9.99999999999999, -121.));
#212 = CARTESIAN_POINT('', (10., -9.99999999999999, -125.));
#213 = CARTESIAN_POINT('', (6., -5.99999999999999, -125.));
#214 = CARTESIAN_POINT('', (-9.10906968724637E-16, -9.99999999999999, -121.));
#215 = CARTESIAN_POINT('', (-1.15583632855412E-15, -9.99999999999999, -125.));
#216 = CARTESIAN_POINT('', (-1.64569504821305E-15, -5.99999999999999, -125.));
#217 = CARTESIAN_POINT('', (-10., -9.99999999999999, -121.));
#218 = CARTESIAN_POINT('', (-10., -9.99999999999999, -125.));
#219 = CARTESIAN_POINT('', (-6., -5.99999999999999, -125.));
#220 = CARTESIAN_POINT('', (-10., 8.02143653441516E-15, -121.));
#221 = CARTESIAN_POINT('', (-10., 8.26636589424464E-15, -125.));
#222 = CARTESIAN_POINT('', (-6., 8.02143653441516E-15, -125.));
#223 = ADVANCED_FACE('', (#224), #227, .T.);
#224 = FACE_OUTER_BOUND('', #225, .T.);
#225 = EDGE_LOOP('', (#226));
#226 = ORIENTED_EDGE('', *, *, #189, .T.);
#227 = B_SPLINE_SURFACE_WITH_KNOTS('', 1, 1, ((#228, #229), (#230, #231)), .UNSPECIFIED., .F., .F., .U., (2, 2), (2, 2), (3.33380951166243, 15.3338095116624), (3.33380951166243, 15.3338095116624), .UNSPECIFIED.);
#228 = CARTESIAN_POINT('', (6., -5.99999999999999, -125.));
#229 = CARTESIAN_POINT('', (6., 6.00000000000001, -125.));
#230 = CARTESIAN_POINT('', (-6., -5.99999999999999, -125.));
#231 = CARTESIAN_POINT('', (-6., 6.00000000000001, -125.));
#232 = PRESENTATION_STYLE_ASSIGNMENT((#233));
#233 = SURFACE_STYLE_USAGE(.POSITIVE., #234);
#234 = SURFACE_SIDE_STYLE('', (#235));
#235 = SURFACE_STYLE_FILL_AREA(#236);
#236 = FILL_AREA_STYLE('', (#237));
#237 = FILL_AREA_STYLE_COLOUR('', #238);
#238 = COLOUR_RGB('', 0.8, 0.8, 0.8);
#239 = STYLED_ITEM('', (#232), #116);
#240 = TRIMMED_CURVE('cutting part line', #241, (#245), (#246), .T., .CARTESIAN.);
#241 = LINE('', #242, #243);
#242 = CARTESIAN_POINT('', (-9.78593258186863E-31, -5.32721357629099E-15, -87.));
#243 = VECTOR('', #244, 10.);
#244 = DIRECTION('', (10., -1.83697019872102E-15, 0.));
#245 = CARTESIAN_POINT('', (-9.78593258186863E-31, -5.32721357629099E-15, -87.));
#246 = CARTESIAN_POINT('', (10., -7.16418377501201E-15, -87.));
#247 = TRIMMED_CURVE('cutting part line', #248, (#252), (#253), .T., .CARTESIAN.);
#248 = LINE('', #249, #250);
#249 = CARTESIAN_POINT('', (10., -7.16418377501201E-15, -87.));
#250 = VECTOR('', #251, 34.);
#251 = DIRECTION('', (0., -2.0818995585505E-15, -34.));
#252 = CARTESIAN_POINT('', (10., -7.16418377501201E-15, -87.));
#253 = CARTESIAN_POINT('', (10., -9.24608333356251E-15, -121.));
#254 = TRIMMED_CURVE('cutting part line', #255, (#260), (#261), .T., .CARTESIAN.);
#255 = CIRCLE('', #256, 4.);
#256 = AXIS2_PLACEMENT_3D('', #257, #258, #259);
#257 = CARTESIAN_POINT('', (6., -8.5112952540741E-15, -121.));
#258 = DIRECTION('', (1.83697019872103E-16, 1., -6.12323399573684E-17));
#259 = DIRECTION('', (1., -1.83697019872103E-16, 0.));
#260 = CARTESIAN_POINT('', (10., -9.24608333356251E-15, -121.));
#261 = CARTESIAN_POINT('', (6., -8.75622461390357E-15, -125.));
#262 = TRIMMED_CURVE('cutting part line', #263, (#267), (#268), .T., .CARTESIAN.);
#263 = LINE('', #264, #265);
#264 = CARTESIAN_POINT('', (6., -8.75622461390357E-15, -125.));
#265 = VECTOR('', #266, 6.);
#266 = DIRECTION('', (-6., 1.10218211923261E-15, 0.));
#267 = CARTESIAN_POINT('', (6., -8.75622461390357E-15, -125.));
#268 = CARTESIAN_POINT('', (-9.37349864163661E-31, -7.65404249467096E-15, -125.));
#269 = TRIMMED_CURVE('cutting part line', #270, (#274), (#275), .T., .CARTESIAN.);
#270 = LINE('', #271, #272);
#271 = CARTESIAN_POINT('', (-1.40602479624549E-30, -7.65404249467096E-15, -125.));
#272 = VECTOR('', #273, 38.);
#273 = DIRECTION('', (4.2743153805863E-31, 2.32682891837997E-15, 38.));
#274 = CARTESIAN_POINT('', (-1.40602479624549E-30, -7.65404249467096E-15, -125.));
#275 = CARTESIAN_POINT('', (-9.78593258186863E-31, -5.32721357629099E-15, -87.));
#276 = COMPOSITE_CURVE('cutting part line', (#277, #278, #279, #280, #281), .U.);
#277 = COMPOSITE_CURVE_SEGMENT(.CONTINUOUS., .T., #240);
#278 = COMPOSITE_CURVE_SEGMENT(.CONTINUOUS., .T., #247);
#279 = COMPOSITE_CURVE_SEGMENT(.CONTINUOUS., .T., #254);
#280 = COMPOSITE_CURVE_SEGMENT(.CONTINUOUS., .T., #262);
#281 = COMPOSITE_CURVE_SEGMENT(.CONTINUOUS., .T., #269);
#282 = GEOMETRIC_SET('', (#276, #325));
#283 = PRESENTATION_STYLE_ASSIGNMENT((#284));
#284 = CURVE_STYLE('', #286, POSITIVE_LENGTH_MEASURE(1.E-6), #285);
#285 = COLOUR_RGB('', 0., 0., 1.);
#286 = DRAUGHTING_PRE_DEFINED_CURVE_FONT('continuous');
#287 = STYLED_ITEM('', (#283), #276);
#288 = PRESENTATION_STYLE_ASSIGNMENT((#289));
#289 = CURVE_STYLE('', #291, POSITIVE_LENGTH_MEASURE(1.E-6), #290);
#290 = COLOUR_RGB('', 0., 0., 1.);
#291 = DRAUGHTING_PRE_DEFINED_CURVE_FONT('continuous');
#292 = OVER_RIDING_STYLED_ITEM('', (#288), #240, #287);
#293 = PRESENTATION_STYLE_ASSIGNMENT((#294));
#294 = CURVE_STYLE('', #296, POSITIVE_LENGTH_MEASURE(1.E-6), #295);
#295 = COLOUR_RGB('', 0., 0., 1.);
#296 = DRAUGHTING_PRE_DEFINED_CURVE_FONT('continuous');
#297 = OVER_RIDING_STYLED_ITEM('', (#293), #247, #287);
#298 = PRESENTATION_STYLE_ASSIGNMENT((#299));
#299 = CURVE_STYLE('', #301, POSITIVE_LENGTH_MEASURE(1.E-6), #300);
#300 = COLOUR_RGB('', 0., 0., 1.);
#301 = DRAUGHTING_PRE_DEFINED_CURVE_FONT('continuous');
#302 = OVER_RIDING_STYLED_ITEM('', (#298), #254, #287);
#303 = PRESENTATION_STYLE_ASSIGNMENT((#304));
#304 = CURVE_STYLE('', #306, POSITIVE_LENGTH_MEASURE(1.E-6), #305);
#305 = COLOUR_RGB('', 0., 0., 1.);
#306 = DRAUGHTING_PRE_DEFINED_CURVE_FONT('continuous');
#307 = OVER_RIDING_STYLED_ITEM('', (#303), #262, #287);
#308 = PRESENTATION_STYLE_ASSIGNMENT((#309));
#309 = CURVE_STYLE('', #311, POSITIVE_LENGTH_MEASURE(1.E-6), #310);
#310 = COLOUR_RGB('', 0., 0., 1.);
#311 = DRAUGHTING_PRE_DEFINED_CURVE_FONT('continuous');
#312 = OVER_RIDING_STYLED_ITEM('', (#308), #269, #287);
#313 = AXIS2_PLACEMENT_3D('CIP', #314, #315, #316);
#314 = CARTESIAN_POINT('', (4.6867493208183E-31, 7.65404249467096E-15, -125.));
#315 = DIRECTION('', (-3.74939945665465E-33, -6.12323399573677E-17, 1.));
#316 = DIRECTION('', (1., -6.12323399573677E-17, 0.));
#317 = AXIS2_PLACEMENT_3D('MCS', #318, #319, #320);
#318 = CARTESIAN_POINT('', (1.87469972832732E-31, 3.06161699786838E-15, -50.));
#319 = DIRECTION('', (-3.74939945665465E-33, -6.12323399573677E-17, 1.));
#320 = DIRECTION('', (1., -6.12323399573677E-17, 0.));
#321 = AXIS2_PLACEMENT_3D('PCS', #322, #323, #324);
#322 = CARTESIAN_POINT('', (0., 0., 0.));
#323 = DIRECTION('', (0., 0., 1.));
#324 = DIRECTION('', (1., 0., 0.));
#325 = CARTESIAN_POINT('CRP', (10., 0., -125.));
#326 = (
   GEOMETRIC_REPRESENTATION_CONTEXT (3)
   GLOBAL_UNCERTAINTY_ASSIGNED_CONTEXT ((#328))
   GLOBAL_UNIT_ASSIGNED_CONTEXT ((#327, #329, #330))
   REPRESENTATION_CONTEXT ('', '3D')
);
#327 = (
   LENGTH_UNIT ()
   NAMED_UNIT (*)
   SI_UNIT (.MILLI., .METRE.)
);
#328 = UNCERTAINTY_MEASURE_WITH_UNIT(LENGTH_MEASURE(1.E-6), #327, 'DISTANCE_ACCURACY_VALUE', '');
#329 = (
   NAMED_UNIT (*)
   SI_UNIT ($, .STERADIAN.)
   SOLID_ANGLE_UNIT ()
);
#330 = (
   NAMED_UNIT (*)
   PLANE_ANGLE_UNIT ()
   SI_UNIT ($, .RADIAN.)
);
#331 = SHAPE_REPRESENTATION('', (), #326);
#332 = PRODUCT_DEFINITION_SHAPE('', '', #333);
#333 = PRODUCT_DEFINITION('', '', #336, #340);
#334 = APPLICATION_CONTEXT('configuration controlled 3D designs of mechanical parts and assemblies');
#335 = APPLICATION_PROTOCOL_DEFINITION('International Standard', 'automotive_design', 2002, #334);
#336 = PRODUCT_DEFINITION_FORMATION_WITH_SPECIFIED_SOURCE('', '', #337, .NOT_KNOWN.);
#337 = PRODUCT('EmptyName', 'EmptyName', '', (#338));
#338 = PRODUCT_CONTEXT('', #334, 'mechanical');
#339 = PRODUCT_RELATED_PRODUCT_CATEGORY('detail', '', (#337));
#340 = PRODUCT_DEFINITION_CONTEXT('part definition', #334, 'design');
#341 = SHAPE_DEFINITION_REPRESENTATION(#332, #331);
#342 = CONSTRUCTIVE_GEOMETRY_REPRESENTATION('supplemental geometry', (#313, #317, #321), #326);
#343 = CONSTRUCTIVE_GEOMETRY_REPRESENTATION_RELATIONSHIP('', '', #331, #342);
#344 = SHAPE_REPRESENTATION_RELATIONSHIP('', '', #331, #345);
#345 = SHAPE_REPRESENTATION('', (#282), #326);
#346 = SHAPE_REPRESENTATION_RELATIONSHIP('', '', #331, #347);
#347 = ADVANCED_BREP_SHAPE_REPRESENTATION('', (#1, #116), #326);
ENDSEC;
END-ISO-10303-21;
