ISO-10303-21;
HEADER;
FILE_DESCRIPTION(('STEP'), '1');
FILE_NAME('C:\\Users\\ds2002\\OneDrive - Sandvik\\HomeShare\\Documents\\Batchrepair\\CorSRT2\\NEW_MILSQ_SLD\\Output\\MOD000000000000000020084593200000.stp', '2019-01-02T12:08:29', (''), (''), 'Express v3.0.0.0', 'Express Tool', 'Unknown');
FILE_SCHEMA(('AUTOMOTIVE_DESIGN'));
ENDSEC;

DATA;
#1 = MANIFOLD_SOLID_BREP('NOCUT', #2);
#2 = CLOSED_SHELL('', (#3, #20, #37, #76));
#3 = ADVANCED_FACE('', (#4), #15, .T.);
#4 = FACE_OUTER_BOUND('', #5, .T.);
#5 = EDGE_LOOP('', (#6));
#6 = ORIENTED_EDGE('', *, *, #7, .T.);
#7 = EDGE_CURVE('', #8, #8, #10, .T.);
#8 = VERTEX_POINT('', #9);
#9 = CARTESIAN_POINT('', (-6., -8.88178419700125E-16, -57.));
#10 = CIRCLE('', #11, 6.);
#11 = AXIS2_PLACEMENT_3D('', #12, #13, #14);
#12 = CARTESIAN_POINT('', (6.93889390390723E-16, -9.99200722162641E-16, -57.));
#13 = DIRECTION('', (0., 0., -1.));
#14 = DIRECTION('', (-1., 1.8503717077086E-17, 0.));
#15 = B_SPLINE_SURFACE_WITH_KNOTS('', 1, 1, ((#16, #17), (#18, #19)), .UNSPECIFIED., .F., .F., .U., (2, 2), (2, 2), (-6.001, 6.001), (-12.001, 0.00100000000000033), .UNSPECIFIED.);
#16 = CARTESIAN_POINT('', (6.001, -6.001, -57.));
#17 = CARTESIAN_POINT('', (6.001, 6.001, -57.));
#18 = CARTESIAN_POINT('', (-6.001, -6.001, -57.));
#19 = CARTESIAN_POINT('', (-6.001, 6.001, -57.));
#20 = ADVANCED_FACE('', (#21), #32, .T.);
#21 = FACE_OUTER_BOUND('', #22, .T.);
#22 = EDGE_LOOP('', (#23));
#23 = ORIENTED_EDGE('', *, *, #24, .T.);
#24 = EDGE_CURVE('', #25, #25, #27, .T.);
#25 = VERTEX_POINT('', #26);
#26 = CARTESIAN_POINT('', (-5.4, -8.88178419700125E-16, 0.));
#27 = CIRCLE('', #28, 5.4);
#28 = AXIS2_PLACEMENT_3D('', #29, #30, #31);
#29 = CARTESIAN_POINT('', (1.346145417358E-15, -1.33226762955019E-15, 0.));
#30 = DIRECTION('', (0., 0., 1.));
#31 = DIRECTION('', (-1., 8.22387425648264E-17, 0.));
#32 = B_SPLINE_SURFACE_WITH_KNOTS('', 1, 1, ((#33, #34), (#35, #36)), .UNSPECIFIED., .F., .F., .U., (2, 2), (2, 2), (-5.401, 5.401), (-5.401, 5.401), .UNSPECIFIED.);
#33 = CARTESIAN_POINT('', (-5.401, -5.401, 0.));
#34 = CARTESIAN_POINT('', (-5.401, 5.401, 0.));
#35 = CARTESIAN_POINT('', (5.401, -5.401, 0.));
#36 = CARTESIAN_POINT('', (5.401, 5.401, 0.));
#37 = ADVANCED_FACE('', (#38), #57, .T.);
#38 = FACE_OUTER_BOUND('', #39, .T.);
#39 = EDGE_LOOP('', (#40, #48, #55, #56));
#40 = ORIENTED_EDGE('', *, *, #41, .T.);
#41 = EDGE_CURVE('', #8, #42, #44, .T.);
#42 = VERTEX_POINT('', #43);
#43 = CARTESIAN_POINT('', (-6., -8.88178419700125E-16, -0.6));
#44 = LINE('', #45, #46);
#45 = CARTESIAN_POINT('', (-5.99999999999999, -8.88178419700126E-16, -57.));
#46 = VECTOR('', #47, 56.4);
#47 = DIRECTION('', (-7.99360577730113E-15, 7.88860905221012E-31, 56.4));
#48 = ORIENTED_EDGE('', *, *, #49, .T.);
#49 = EDGE_CURVE('', #42, #42, #50, .T.);
#50 = CIRCLE('', #51, 6.);
#51 = AXIS2_PLACEMENT_3D('', #52, #53, #54);
#52 = CARTESIAN_POINT('', (6.93889390390723E-16, -9.99200722162641E-16, -0.6));
#53 = DIRECTION('', (0., 0., -1.));
#54 = DIRECTION('', (-1., 1.8503717077086E-17, 0.));
#55 = ORIENTED_EDGE('', *, *, #41, .F.);
#56 = ORIENTED_EDGE('', *, *, #7, .F.);
#57 = (
   BOUNDED_SURFACE ()
   B_SPLINE_SURFACE (2, 1, ((#58, #59), (#60, #61), (#62, #63), (#64, #65), (#66, #67), (#68, #69), (#70, #71), (#72, #73), (#74, #75)), .UNSPECIFIED., .T., .F., .U.)
   B_SPLINE_SURFACE_WITH_KNOTS ((3, 2, 2, 2, 3), (2, 2), (0., 0.25, 0.5, 0.75, 1.), (0., 1.), .UNSPECIFIED.)
   GEOMETRIC_REPRESENTATION_ITEM ()
   RATIONAL_B_SPLINE_SURFACE (((1., 1.), (0.707106781186548, 0.707106781186548), (1., 1.), (0.707106781186548, 0.707106781186548), (1., 1.), (0.707106781186548, 0.707106781186548), (1., 1.), (0.707106781186548, 0.707106781186548), (1., 1.)))
   REPRESENTATION_ITEM ('')
   SURFACE ()
);
#58 = CARTESIAN_POINT('', (-6., -8.88178419700125E-16, 5.0412));
#59 = CARTESIAN_POINT('', (-5.99999999999999, -8.88178419700126E-16, -62.6412));
#60 = CARTESIAN_POINT('', (-6., 6., 5.0412));
#61 = CARTESIAN_POINT('', (-5.99999999999999, 6., -62.6412));
#62 = CARTESIAN_POINT('', (1.88080758512174E-15, 6., 5.0412));
#63 = CARTESIAN_POINT('', (1.1899815430707E-14, 6., -62.6412));
#64 = CARTESIAN_POINT('', (6., 6., 5.0412));
#65 = CARTESIAN_POINT('', (6.00000000000001, 6., -62.6412));
#66 = CARTESIAN_POINT('', (6., -1.4856579697619E-15, 5.0412));
#67 = CARTESIAN_POINT('', (6.00000000000001, -1.4856579697619E-15, -62.6412));
#68 = CARTESIAN_POINT('', (6., -6., 5.0412));
#69 = CARTESIAN_POINT('', (6.00000000000001, -6., -62.6412));
#70 = CARTESIAN_POINT('', (2.01811611454837E-15, -6., 5.0412));
#71 = CARTESIAN_POINT('', (1.20371239601337E-14, -6., -62.6412));
#72 = CARTESIAN_POINT('', (-6., -6., 5.0412));
#73 = CARTESIAN_POINT('', (-5.99999999999999, -6., -62.6412));
#74 = CARTESIAN_POINT('', (-6., -8.88178419700125E-16, 5.0412));
#75 = CARTESIAN_POINT('', (-5.99999999999999, -8.88178419700126E-16, -62.6412));
#76 = ADVANCED_FACE('', (#77), #88, .T.);
#77 = FACE_OUTER_BOUND('', #78, .T.);
#78 = EDGE_LOOP('', (#79, #85, #86, #87));
#79 = ORIENTED_EDGE('', *, *, #80, .T.);
#80 = EDGE_CURVE('', #42, #25, #81, .T.);
#81 = LINE('', #82, #83);
#82 = CARTESIAN_POINT('', (-6., -2.50131198135355E-15, -0.6));
#83 = VECTOR('', #84, 0.848528137423856);
#84 = DIRECTION('', (0.599999999999999, 1.61044947918812E-15, 0.6));
#85 = ORIENTED_EDGE('', *, *, #24, .F.);
#86 = ORIENTED_EDGE('', *, *, #80, .F.);
#87 = ORIENTED_EDGE('', *, *, #49, .F.);
#88 = (
   BOUNDED_SURFACE ()
   B_SPLINE_SURFACE (2, 1, ((#89, #90), (#91, #92), (#93, #94), (#95, #96), (#97, #98), (#99, #100), (#101, #102), (#103, #104), (#105, #106)), .UNSPECIFIED., .T., .F., .U.)
   B_SPLINE_SURFACE_WITH_KNOTS ((3, 2, 2, 2, 3), (2, 2), (0., 0.25, 0.5, 0.75, 1.), (0., 1.), .UNSPECIFIED.)
   GEOMETRIC_REPRESENTATION_ITEM ()
   RATIONAL_B_SPLINE_SURFACE (((1., 1.), (0.707106781186548, 0.707106781186548), (1., 1.), (0.707106781186548, 0.707106781186548), (1., 1.), (0.707106781186548, 0.707106781186548), (1., 1.), (0.707106781186548, 0.707106781186548), (1., 1.)))
   REPRESENTATION_ITEM ('')
   SURFACE ()
);
#89 = CARTESIAN_POINT('', (-5.399, -8.88178419700125E-16, 0.00100000000000036));
#90 = CARTESIAN_POINT('', (-6.001, -2.50399606381887E-15, -0.601));
#91 = CARTESIAN_POINT('', (-5.399, 5.399, 0.00099999999998542));
#92 = CARTESIAN_POINT('', (-6.001, 6.001, -0.601000000000016));
#93 = CARTESIAN_POINT('', (4.7431828942341E-16, 5.399, 0.000999999999985065));
#94 = CARTESIAN_POINT('', (4.47466183282289E-16, 6.001, -0.601000000000017));
#95 = CARTESIAN_POINT('', (5.399, 5.399, 0.000999999999984711));
#96 = CARTESIAN_POINT('', (6.001, 6.001, -0.601000000000017));
#97 = CARTESIAN_POINT('', (5.399, -1.11517003254059E-15, 0.000999999999999647));
#98 = CARTESIAN_POINT('', (6.001, -2.75629772498865E-15, -0.601000000000001));
#99 = CARTESIAN_POINT('', (5.399, -5.399, 0.00100000000001458));
#100 = CARTESIAN_POINT('', (6.001, -6.001, -0.600999999999984));
#101 = CARTESIAN_POINT('', (9.08513483442598E-16, -5.399, 0.00100000000001494));
#102 = CARTESIAN_POINT('', (9.30075066280834E-16, -6.001, -0.600999999999983));
#103 = CARTESIAN_POINT('', (-5.399, -5.399, 0.00100000000001529));
#104 = CARTESIAN_POINT('', (-6.001, -6.001, -0.600999999999983));
#105 = CARTESIAN_POINT('', (-5.399, -8.88178419700125E-16, 0.00100000000000036));
#106 = CARTESIAN_POINT('', (-6.001, -2.50399606381887E-15, -0.601));
#107 = DRAUGHTING_MODEL('', (#115, #240, #288, #293, #298, #303, #308, #313), #327);
#108 = PRESENTATION_STYLE_ASSIGNMENT((#109));
#109 = SURFACE_STYLE_USAGE(.POSITIVE., #110);
#110 = SURFACE_SIDE_STYLE('', (#111));
#111 = SURFACE_STYLE_FILL_AREA(#112);
#112 = FILL_AREA_STYLE('', (#113));
#113 = FILL_AREA_STYLE_COLOUR('', #114);
#114 = COLOUR_RGB('', 0.50196078431373, 0.50196078431373, 0.50196078431373);
#115 = STYLED_ITEM('', (#108), #1);
#116 = MANIFOLD_SOLID_BREP('CUT', #117);
#117 = CLOSED_SHELL('', (#118, #135, #152, #191));
#118 = ADVANCED_FACE('', (#119), #130, .T.);
#119 = FACE_OUTER_BOUND('', #120, .T.);
#120 = EDGE_LOOP('', (#121));
#121 = ORIENTED_EDGE('', *, *, #122, .F.);
#122 = EDGE_CURVE('', #123, #123, #125, .T.);
#123 = VERTEX_POINT('', #124);
#124 = CARTESIAN_POINT('', (-6., -8.88178419700125E-16, -57.));
#125 = CIRCLE('', #126, 6.);
#126 = AXIS2_PLACEMENT_3D('', #127, #128, #129);
#127 = CARTESIAN_POINT('', (6.93889390390723E-16, -9.99200722162641E-16, -57.));
#128 = DIRECTION('', (0., 0., -1.));
#129 = DIRECTION('', (-1., 1.8503717077086E-17, 0.));
#130 = B_SPLINE_SURFACE_WITH_KNOTS('', 1, 1, ((#131, #132), (#133, #134)), .UNSPECIFIED., .F., .F., .U., (2, 2), (2, 2), (-6.001, 6.001), (-12.001, 0.00100000000000033), .UNSPECIFIED.);
#131 = CARTESIAN_POINT('', (-6.001, -6.001, -57.));
#132 = CARTESIAN_POINT('', (-6.001, 6.001, -57.));
#133 = CARTESIAN_POINT('', (6.001, -6.001, -57.));
#134 = CARTESIAN_POINT('', (6.001, 6.001, -57.));
#135 = ADVANCED_FACE('', (#136), #147, .T.);
#136 = FACE_OUTER_BOUND('', #137, .T.);
#137 = EDGE_LOOP('', (#138));
#138 = ORIENTED_EDGE('', *, *, #139, .T.);
#139 = EDGE_CURVE('', #140, #140, #142, .T.);
#140 = VERTEX_POINT('', #141);
#141 = CARTESIAN_POINT('', (-3., -8.88178419700125E-16, -83.));
#142 = CIRCLE('', #143, 3.);
#143 = AXIS2_PLACEMENT_3D('', #144, #145, #146);
#144 = CARTESIAN_POINT('', (3.19189119579733E-16, -1.11022302462516E-15, -83.));
#145 = DIRECTION('', (0., 0., -1.));
#146 = DIRECTION('', (-1., 7.40148683083438E-17, 0.));
#147 = B_SPLINE_SURFACE_WITH_KNOTS('', 1, 1, ((#148, #149), (#150, #151)), .UNSPECIFIED., .F., .F., .U., (2, 2), (2, 2), (-3.001, 3.001), (-3.001, 3.001), .UNSPECIFIED.);
#148 = CARTESIAN_POINT('', (3.001, -3.001, -83.));
#149 = CARTESIAN_POINT('', (3.001, 3.001, -83.));
#150 = CARTESIAN_POINT('', (-3.001, -3.001, -83.));
#151 = CARTESIAN_POINT('', (-3.001, 3.001, -83.));
#152 = ADVANCED_FACE('', (#153), #172, .T.);
#153 = FACE_OUTER_BOUND('', #154, .T.);
#154 = EDGE_LOOP('', (#155, #163, #164, #165));
#155 = ORIENTED_EDGE('', *, *, #156, .T.);
#156 = EDGE_CURVE('', #157, #123, #159, .T.);
#157 = VERTEX_POINT('', #158);
#158 = CARTESIAN_POINT('', (-6., -8.88178419700125E-16, -80.));
#159 = LINE('', #160, #161);
#160 = CARTESIAN_POINT('', (-6., -8.88178419700125E-16, -80.));
#161 = VECTOR('', #162, 23.);
#162 = DIRECTION('', (0., 0., 23.));
#163 = ORIENTED_EDGE('', *, *, #122, .T.);
#164 = ORIENTED_EDGE('', *, *, #156, .F.);
#165 = ORIENTED_EDGE('', *, *, #166, .T.);
#166 = EDGE_CURVE('', #157, #157, #167, .T.);
#167 = CIRCLE('', #168, 6.);
#168 = AXIS2_PLACEMENT_3D('', #169, #170, #171);
#169 = CARTESIAN_POINT('', (1.58206781009085E-15, -5.55111512312578E-16, -80.));
#170 = DIRECTION('', (-2.368475785867E-15, -7.70540152533532E-15, 1.));
#171 = DIRECTION('', (-1., -5.55111512312578E-17, -2.368475785867E-15));
#172 = (
   BOUNDED_SURFACE ()
   B_SPLINE_SURFACE (2, 1, ((#173, #174), (#175, #176), (#177, #178), (#179, #180), (#181, #182), (#183, #184), (#185, #186), (#187, #188), (#189, #190)), .UNSPECIFIED., .T., .F., .U.)
   B_SPLINE_SURFACE_WITH_KNOTS ((3, 2, 2, 2, 3), (2, 2), (0., 0.25, 0.5, 0.75, 1.), (0., 1.), .UNSPECIFIED.)
   GEOMETRIC_REPRESENTATION_ITEM ()
   RATIONAL_B_SPLINE_SURFACE (((1., 1.), (0.707106781186548, 0.707106781186548), (1., 1.), (0.707106781186548, 0.707106781186548), (1., 1.), (0.707106781186548, 0.707106781186548), (1., 1.), (0.707106781186548, 0.707106781186548), (1., 1.)))
   REPRESENTATION_ITEM ('')
   SURFACE ()
);
#173 = CARTESIAN_POINT('', (-6., -8.88178419700125E-16, -54.6988));
#174 = CARTESIAN_POINT('', (-6., -8.88178419700125E-16, -82.3012));
#175 = CARTESIAN_POINT('', (-6., 6., -54.6988));
#176 = CARTESIAN_POINT('', (-6., 6., -82.3012));
#177 = CARTESIAN_POINT('', (1.88080758512174E-15, 6., -54.6988));
#178 = CARTESIAN_POINT('', (1.88080758512174E-15, 6., -82.3012));
#179 = CARTESIAN_POINT('', (6., 6., -54.6988));
#180 = CARTESIAN_POINT('', (6., 6., -82.3012));
#181 = CARTESIAN_POINT('', (6., -1.4856579697619E-15, -54.6988));
#182 = CARTESIAN_POINT('', (6., -1.4856579697619E-15, -82.3012));
#183 = CARTESIAN_POINT('', (6., -6., -54.6988));
#184 = CARTESIAN_POINT('', (6., -6., -82.3012));
#185 = CARTESIAN_POINT('', (2.01811611454837E-15, -6., -54.6988));
#186 = CARTESIAN_POINT('', (2.01811611454837E-15, -6., -82.3012));
#187 = CARTESIAN_POINT('', (-6., -6., -54.6988));
#188 = CARTESIAN_POINT('', (-6., -6., -82.3012));
#189 = CARTESIAN_POINT('', (-6., -8.88178419700125E-16, -54.6988));
#190 = CARTESIAN_POINT('', (-6., -8.88178419700125E-16, -82.3012));
#191 = ADVANCED_FACE('', (#192), #204, .T.);
#192 = FACE_OUTER_BOUND('', #193, .T.);
#193 = EDGE_LOOP('', (#194, #201, #202, #203));
#194 = ORIENTED_EDGE('', *, *, #195, .T.);
#195 = EDGE_CURVE('', #157, #140, #196, .T.);
#196 = CIRCLE('', #197, 2.99999999999998);
#197 = AXIS2_PLACEMENT_3D('', #198, #199, #200);
#198 = CARTESIAN_POINT('', (-3.00000000000002, -8.88178419700126E-16, -80.));
#199 = DIRECTION('', (-2.62953635073673E-31, -1., -1.98103324887771E-31));
#200 = DIRECTION('', (-1., 2.62953635073673E-31, 4.73695157173404E-15));
#201 = ORIENTED_EDGE('', *, *, #139, .F.);
#202 = ORIENTED_EDGE('', *, *, #195, .F.);
#203 = ORIENTED_EDGE('', *, *, #166, .F.);
#204 = (
   BOUNDED_SURFACE ()
   B_SPLINE_SURFACE (3, 3, ((#205, #206, #207, #208, #209, #210, #211), (#212, #213, #214, #215, #216, #217, #218), (#219, #220, #221, #222, #223, #224, #225), (#226, #227, #228, #229, #230, #231, #232)), .UNSPECIFIED., .F., .T., .U.)
   B_SPLINE_SURFACE_WITH_KNOTS ((4, 4), (4, 3, 4), (0., 1.), (0., 0.5, 1.), .UNSPECIFIED.)
   GEOMETRIC_REPRESENTATION_ITEM ()
   RATIONAL_B_SPLINE_SURFACE (((1., 0.333333333333333, 0.333333333333333, 1., 0.333333333333333, 0.333333333333333, 1.), (0.804737854124365, 0.268245951374788, 0.268245951374788, 0.804737854124365, 0.268245951374788, 0.268245951374788, 0.804737854124365), (0.804737854124365, 0.268245951374788, 0.268245951374788, 0.804737854124365, 0.268245951374788, 0.268245951374788, 0.804737854124365), (1., 0.333333333333333, 0.333333333333333, 1., 0.333333333333333, 0.333333333333333, 1.)))
   REPRESENTATION_ITEM ('')
   SURFACE ()
);
#205 = CARTESIAN_POINT('', (-3., -8.88178419700125E-16, -83.));
#206 = CARTESIAN_POINT('', (-3., 6., -83.));
#207 = CARTESIAN_POINT('', (3., 6., -83.));
#208 = CARTESIAN_POINT('', (3., -8.88178419700125E-16, -83.));
#209 = CARTESIAN_POINT('', (3., -6., -83.));
#210 = CARTESIAN_POINT('', (-3., -6., -83.));
#211 = CARTESIAN_POINT('', (-3., -8.88178419700125E-16, -83.));
#212 = CARTESIAN_POINT('', (-4.75735931288072, -8.88178419700125E-16, -83.));
#213 = CARTESIAN_POINT('', (-4.75735931288072, 9.51471862576143, -83.));
#214 = CARTESIAN_POINT('', (4.75735931288072, 9.51471862576143, -83.));
#215 = CARTESIAN_POINT('', (4.75735931288072, -8.88178419700125E-16, -83.));
#216 = CARTESIAN_POINT('', (4.75735931288072, -9.51471862576143, -83.));
#217 = CARTESIAN_POINT('', (-4.75735931288072, -9.51471862576143, -83.));
#218 = CARTESIAN_POINT('', (-4.75735931288072, -8.88178419700125E-16, -83.));
#219 = CARTESIAN_POINT('', (-6., -8.88178419700125E-16, -81.7573593128807));
#220 = CARTESIAN_POINT('', (-6., 12., -81.7573593128807));
#221 = CARTESIAN_POINT('', (6., 12., -81.7573593128807));
#222 = CARTESIAN_POINT('', (6., -8.88178419700125E-16, -81.7573593128807));
#223 = CARTESIAN_POINT('', (6., -12., -81.7573593128807));
#224 = CARTESIAN_POINT('', (-6., -12., -81.7573593128807));
#225 = CARTESIAN_POINT('', (-6., -8.88178419700125E-16, -81.7573593128807));
#226 = CARTESIAN_POINT('', (-6., -8.88178419700125E-16, -80.));
#227 = CARTESIAN_POINT('', (-6., 12., -80.));
#228 = CARTESIAN_POINT('', (6., 12., -80.));
#229 = CARTESIAN_POINT('', (6., -8.88178419700125E-16, -80.));
#230 = CARTESIAN_POINT('', (6., -12., -80.));
#231 = CARTESIAN_POINT('', (-6., -12., -80.));
#232 = CARTESIAN_POINT('', (-6., -8.88178419700125E-16, -80.));
#233 = PRESENTATION_STYLE_ASSIGNMENT((#234));
#234 = SURFACE_STYLE_USAGE(.POSITIVE., #235);
#235 = SURFACE_SIDE_STYLE('', (#236));
#236 = SURFACE_STYLE_FILL_AREA(#237);
#237 = FILL_AREA_STYLE('', (#238));
#238 = FILL_AREA_STYLE_COLOUR('', #239);
#239 = COLOUR_RGB('', 0.8, 0.8, 0.8);
#240 = STYLED_ITEM('', (#233), #116);
#241 = TRIMMED_CURVE('cutting part line', #242, (#247), (#248), .T., .CARTESIAN.);
#242 = CIRCLE('', #243, 3.00000162355988);
#243 = AXIS2_PLACEMENT_3D('', #244, #245, #246);
#244 = CARTESIAN_POINT('', (2.99999849767559, 8.94863932055622E-16, -79.9999983709985));
#245 = DIRECTION('', (-4.2575425316259E-16, -1., 2.22714516623801E-16));
#246 = DIRECTION('', (5.00774532221757E-7, -2.2271472983066E-16, -0.999999999999875));
#247 = CARTESIAN_POINT('', (3., 2.26719380972941E-16, -82.999999994558));
#248 = CARTESIAN_POINT('', (6.00000012123503, -3.82399881471782E-16, -80.0000000000001));
#249 = TRIMMED_CURVE('cutting part line', #250, (#254), (#255), .T., .CARTESIAN.);
#250 = LINE('', #251, #252);
#251 = CARTESIAN_POINT('', (6., 0., -80.));
#252 = VECTOR('', #253, 23.);
#253 = DIRECTION('', (0., 0., 23.));
#254 = CARTESIAN_POINT('', (6., 0., -80.));
#255 = CARTESIAN_POINT('', (6., 0., -57.));
#256 = TRIMMED_CURVE('cutting part line', #257, (#261), (#262), .T., .CARTESIAN.);
#257 = LINE('', #258, #259);
#258 = CARTESIAN_POINT('', (6., 0., -57.));
#259 = VECTOR('', #260, 6.);
#260 = DIRECTION('', (-6., 0., 0.));
#261 = CARTESIAN_POINT('', (6., 0., -57.));
#262 = CARTESIAN_POINT('', (0., 0., -57.));
#263 = TRIMMED_CURVE('cutting part line', #264, (#268), (#269), .T., .CARTESIAN.);
#264 = LINE('', #265, #266);
#265 = CARTESIAN_POINT('', (0., 0., -57.));
#266 = VECTOR('', #267, 26.);
#267 = DIRECTION('', (0., 0., -26.));
#268 = CARTESIAN_POINT('', (0., 0., -57.));
#269 = CARTESIAN_POINT('', (0., 0., -83.));
#270 = TRIMMED_CURVE('cutting part line', #271, (#275), (#276), .T., .CARTESIAN.);
#271 = LINE('', #272, #273);
#272 = CARTESIAN_POINT('', (1.45716771982052E-16, 0., -83.));
#273 = VECTOR('', #274, 3.);
#274 = DIRECTION('', (3., 0., 0.));
#275 = CARTESIAN_POINT('', (1.45716771982052E-16, 0., -83.));
#276 = CARTESIAN_POINT('', (3., 0., -83.));
#277 = COMPOSITE_CURVE('cutting part line', (#278, #279, #280, #281, #282), .U.);
#278 = COMPOSITE_CURVE_SEGMENT(.CONTINUOUS., .T., #241);
#279 = COMPOSITE_CURVE_SEGMENT(.CONTINUOUS., .T., #249);
#280 = COMPOSITE_CURVE_SEGMENT(.CONTINUOUS., .T., #256);
#281 = COMPOSITE_CURVE_SEGMENT(.CONTINUOUS., .T., #263);
#282 = COMPOSITE_CURVE_SEGMENT(.CONTINUOUS., .T., #270);
#283 = GEOMETRIC_SET('', (#277, #326));
#284 = PRESENTATION_STYLE_ASSIGNMENT((#285));
#285 = CURVE_STYLE('', #287, POSITIVE_LENGTH_MEASURE(1.E-6), #286);
#286 = COLOUR_RGB('', 0., 0., 1.);
#287 = DRAUGHTING_PRE_DEFINED_CURVE_FONT('continuous');
#288 = STYLED_ITEM('', (#284), #277);
#289 = PRESENTATION_STYLE_ASSIGNMENT((#290));
#290 = CURVE_STYLE('', #292, POSITIVE_LENGTH_MEASURE(1.E-6), #291);
#291 = COLOUR_RGB('', 0., 0., 1.);
#292 = DRAUGHTING_PRE_DEFINED_CURVE_FONT('continuous');
#293 = OVER_RIDING_STYLED_ITEM('', (#289), #241, #288);
#294 = PRESENTATION_STYLE_ASSIGNMENT((#295));
#295 = CURVE_STYLE('', #297, POSITIVE_LENGTH_MEASURE(1.E-6), #296);
#296 = COLOUR_RGB('', 0., 0., 1.);
#297 = DRAUGHTING_PRE_DEFINED_CURVE_FONT('continuous');
#298 = OVER_RIDING_STYLED_ITEM('', (#294), #249, #288);
#299 = PRESENTATION_STYLE_ASSIGNMENT((#300));
#300 = CURVE_STYLE('', #302, POSITIVE_LENGTH_MEASURE(1.E-6), #301);
#301 = COLOUR_RGB('', 0., 0., 1.);
#302 = DRAUGHTING_PRE_DEFINED_CURVE_FONT('continuous');
#303 = OVER_RIDING_STYLED_ITEM('', (#299), #256, #288);
#304 = PRESENTATION_STYLE_ASSIGNMENT((#305));
#305 = CURVE_STYLE('', #307, POSITIVE_LENGTH_MEASURE(1.E-6), #306);
#306 = COLOUR_RGB('', 0., 0., 1.);
#307 = DRAUGHTING_PRE_DEFINED_CURVE_FONT('continuous');
#308 = OVER_RIDING_STYLED_ITEM('', (#304), #263, #288);
#309 = PRESENTATION_STYLE_ASSIGNMENT((#310));
#310 = CURVE_STYLE('', #312, POSITIVE_LENGTH_MEASURE(1.E-6), #311);
#311 = COLOUR_RGB('', 0., 0., 1.);
#312 = DRAUGHTING_PRE_DEFINED_CURVE_FONT('continuous');
#313 = OVER_RIDING_STYLED_ITEM('', (#309), #270, #288);
#314 = AXIS2_PLACEMENT_3D('MCS', #315, #316, #317);
#315 = CARTESIAN_POINT('', (0., 0., -45.));
#316 = DIRECTION('', (0., 0., 1.));
#317 = DIRECTION('', (1., 0., 0.));
#318 = AXIS2_PLACEMENT_3D('PCS', #319, #320, #321);
#319 = CARTESIAN_POINT('', (0., 0., 0.));
#320 = DIRECTION('', (0., 0., 1.));
#321 = DIRECTION('', (1., 0., 0.));
#322 = AXIS2_PLACEMENT_3D('CIP', #323, #324, #325);
#323 = CARTESIAN_POINT('', (0., 0., -83.));
#324 = DIRECTION('', (0., 0., 1.));
#325 = DIRECTION('', (1., 0., 0.));
#326 = CARTESIAN_POINT('CRP', (6., 0., -83.));
#327 = (
   GEOMETRIC_REPRESENTATION_CONTEXT (3)
   GLOBAL_UNCERTAINTY_ASSIGNED_CONTEXT ((#329))
   GLOBAL_UNIT_ASSIGNED_CONTEXT ((#328, #330, #331))
   REPRESENTATION_CONTEXT ('', '3D')
);
#328 = (
   LENGTH_UNIT ()
   NAMED_UNIT (*)
   SI_UNIT (.MILLI., .METRE.)
);
#329 = UNCERTAINTY_MEASURE_WITH_UNIT(LENGTH_MEASURE(1.E-6), #328, 'DISTANCE_ACCURACY_VALUE', '');
#330 = (
   NAMED_UNIT (*)
   SI_UNIT ($, .STERADIAN.)
   SOLID_ANGLE_UNIT ()
);
#331 = (
   NAMED_UNIT (*)
   PLANE_ANGLE_UNIT ()
   SI_UNIT ($, .RADIAN.)
);
#332 = SHAPE_REPRESENTATION('', (), #327);
#333 = PRODUCT_DEFINITION_SHAPE('', '', #334);
#334 = PRODUCT_DEFINITION('', '', #337, #341);
#335 = APPLICATION_CONTEXT('configuration controlled 3D designs of mechanical parts and assemblies');
#336 = APPLICATION_PROTOCOL_DEFINITION('International Standard', 'automotive_design', 2002, #335);
#337 = PRODUCT_DEFINITION_FORMATION_WITH_SPECIFIED_SOURCE('', '', #338, .NOT_KNOWN.);
#338 = PRODUCT('R216.24-12050GBC26P', 'R216.24-12050GBC26P 1630', '', (#339));
#339 = PRODUCT_CONTEXT('', #335, 'mechanical');
#340 = PRODUCT_RELATED_PRODUCT_CATEGORY('detail', '', (#338));
#341 = PRODUCT_DEFINITION_CONTEXT('part definition', #335, 'design');
#342 = SHAPE_DEFINITION_REPRESENTATION(#333, #332);
#343 = CONSTRUCTIVE_GEOMETRY_REPRESENTATION('supplemental geometry', (#314, #318, #322), #327);
#344 = CONSTRUCTIVE_GEOMETRY_REPRESENTATION_RELATIONSHIP('', '', #332, #343);
#345 = SHAPE_REPRESENTATION_RELATIONSHIP('', '', #332, #346);
#346 = SHAPE_REPRESENTATION('', (#283), #327);
#347 = SHAPE_REPRESENTATION_RELATIONSHIP('', '', #332, #348);
#348 = ADVANCED_BREP_SHAPE_REPRESENTATION('', (#1, #116), #327);
ENDSEC;
END-ISO-10303-21;
