ISO-10303-21;
HEADER;
FILE_DESCRIPTION(('STEP'), '1');
FILE_NAME('C:\\Users\\ds2002\\OneDrive - Sandvik\\HomeShare\\Documents\\Batchrepair\\CorSRT2\\NEW_MILSQ_SLD\\Output\\MOD000000000000000020084591500000.stp', '2019-01-02T12:08:52', (''), (''), 'Express v3.0.0.0', 'Express Tool', 'Unknown');
FILE_SCHEMA(('AUTOMOTIVE_DESIGN'));
ENDSEC;

DATA;
#1 = MANIFOLD_SOLID_BREP('NOCUT', #2);
#2 = CLOSED_SHELL('', (#3, #50, #97, #106, #145, #157));
#3 = ADVANCED_FACE('', (#4), #31, .T.);
#4 = FACE_OUTER_BOUND('', #5, .T.);
#5 = EDGE_LOOP('', (#6, #16, #23, #24));
#6 = ORIENTED_EDGE('', *, *, #7, .F.);
#7 = EDGE_CURVE('', #8, #10, #12, .T.);
#8 = VERTEX_POINT('', #9);
#9 = CARTESIAN_POINT('', (-5.7, 3.22694431575328E-15, -47.));
#10 = VERTEX_POINT('', #11);
#11 = CARTESIAN_POINT('', (-5.7, 3.83926771532695E-15, -57.));
#12 = LINE('', #13, #14);
#13 = CARTESIAN_POINT('', (-5.7, 3.22694431575328E-15, -47.));
#14 = VECTOR('', #15, 10.);
#15 = DIRECTION('', (0., 6.1232339957367E-16, -10.));
#16 = ORIENTED_EDGE('', *, *, #17, .T.);
#17 = EDGE_CURVE('', #8, #8, #18, .T.);
#18 = CIRCLE('', #19, 5.7);
#19 = AXIS2_PLACEMENT_3D('', #20, #21, #22);
#20 = CARTESIAN_POINT('', (1.41553435639707E-15, 5.55111512312578E-16, -47.));
#21 = DIRECTION('', (0., 0., -1.));
#22 = DIRECTION('', (-1., 4.6874259709486E-16, 0.));
#23 = ORIENTED_EDGE('', *, *, #7, .T.);
#24 = ORIENTED_EDGE('', *, *, #25, .F.);
#25 = EDGE_CURVE('', #10, #10, #26, .T.);
#26 = CIRCLE('', #27, 5.7);
#27 = AXIS2_PLACEMENT_3D('', #28, #29, #30);
#28 = CARTESIAN_POINT('', (4.71844785465692E-16, 1.4432899320127E-15, -57.));
#29 = DIRECTION('', (1.7834208587027E-30, 4.24273503928068E-15, -1.));
#30 = DIRECTION('', (-1., 4.20346979528815E-16, 0.));
#31 = (
   BOUNDED_SURFACE ()
   B_SPLINE_SURFACE (2, 1, ((#32, #33), (#34, #35), (#36, #37), (#38, #39), (#40, #41), (#42, #43), (#44, #45), (#46, #47), (#48, #49)), .UNSPECIFIED., .T., .F., .U.)
   B_SPLINE_SURFACE_WITH_KNOTS ((3, 2, 2, 2, 3), (2, 2), (0., 8.95353906273093, 17.9070781254619, 26.8606171881928, 35.8141562509237), (0., 1.), .UNSPECIFIED.)
   GEOMETRIC_REPRESENTATION_ITEM ()
   RATIONAL_B_SPLINE_SURFACE (((1., 1.), (0.707106781186548, 0.707106781186548), (1., 1.), (0.707106781186548, 0.707106781186548), (1., 1.), (0.707106781186548, 0.707106781186548), (1., 1.), (0.707106781186548, 0.707106781186548), (1., 1.)))
   REPRESENTATION_ITEM ('')
   SURFACE ()
);
#32 = CARTESIAN_POINT('', (-5.7, 3.22694431575328E-15, -47.));
#33 = CARTESIAN_POINT('', (-5.7, 4.00410043299089E-15, -57.));
#34 = CARTESIAN_POINT('', (-5.7, 5.7, -47.));
#35 = CARTESIAN_POINT('', (-5.7, 5.7, -57.));
#36 = CARTESIAN_POINT('', (-1.00786060819176E-15, 5.7, -47.));
#37 = CARTESIAN_POINT('', (-1.00786060819176E-15, 5.7, -57.));
#38 = CARTESIAN_POINT('', (5.7, 5.7, -47.));
#39 = CARTESIAN_POINT('', (5.7, 5.7, -57.));
#40 = CARTESIAN_POINT('', (5.7, 5.46471013706184E-15, -47.));
#41 = CARTESIAN_POINT('', (5.7, 6.24186625429945E-15, -57.));
#42 = CARTESIAN_POINT('', (5.7, -5.69999999999999, -47.));
#43 = CARTESIAN_POINT('', (5.7, -5.69999999999999, -57.));
#44 = CARTESIAN_POINT('', (1.92795388863079E-15, -5.7, -47.));
#45 = CARTESIAN_POINT('', (1.92795388863079E-15, -5.69999999999999, -57.));
#46 = CARTESIAN_POINT('', (-5.7, -5.7, -47.));
#47 = CARTESIAN_POINT('', (-5.7, -5.7, -57.));
#48 = CARTESIAN_POINT('', (-5.7, 3.22694431575328E-15, -47.));
#49 = CARTESIAN_POINT('', (-5.7, 4.00410043299089E-15, -57.));
#50 = ADVANCED_FACE('', (#51), #78, .T.);
#51 = FACE_OUTER_BOUND('', #52, .T.);
#52 = EDGE_LOOP('', (#53, #63, #70, #71));
#53 = ORIENTED_EDGE('', *, *, #54, .T.);
#54 = EDGE_CURVE('', #55, #57, #59, .T.);
#55 = VERTEX_POINT('', #56);
#56 = CARTESIAN_POINT('', (-6., 4.04133443718627E-16, -0.600000000000001));
#57 = VERTEX_POINT('', #58);
#58 = CARTESIAN_POINT('', (-5.4, 3.30654635769785E-16, 0.));
#59 = LINE('', #60, #61);
#60 = CARTESIAN_POINT('', (-6., 4.04133443718627E-16, -0.600000000000001));
#61 = VECTOR('', #62, 0.848528137423857);
#62 = DIRECTION('', (0.6, -7.3478807948842E-17, 0.600000000000001));
#63 = ORIENTED_EDGE('', *, *, #64, .T.);
#64 = EDGE_CURVE('', #57, #57, #65, .T.);
#65 = CIRCLE('', #66, 5.4);
#66 = AXIS2_PLACEMENT_3D('', #67, #68, #69);
#67 = CARTESIAN_POINT('', (6.93889390390723E-16, -1.11022302462516E-16, 1.23259516440783E-32));
#68 = DIRECTION('', (7.29090075504589E-33, 6.12323399573677E-17, -1.));
#69 = DIRECTION('', (-1., -1.63137334230896E-16, -1.72801814644108E-32));
#70 = ORIENTED_EDGE('', *, *, #54, .F.);
#71 = ORIENTED_EDGE('', *, *, #72, .F.);
#72 = EDGE_CURVE('', #55, #55, #73, .T.);
#73 = CIRCLE('', #74, 6.);
#74 = AXIS2_PLACEMENT_3D('', #75, #76, #77);
#75 = CARTESIAN_POINT('', (-1.22124532708767E-15, -2.1094237467878E-15, -0.600000000000001));
#76 = DIRECTION('', (-1.85037170770859E-17, 1.2317654765601E-16, -1.));
#77 = DIRECTION('', (-1., 1.73996838588266E-16, 1.85037170770859E-17));
#78 = (
   BOUNDED_SURFACE ()
   B_SPLINE_SURFACE (1, 2, ((#79, #80, #81, #82, #83, #84, #85, #86, #87), (#88, #89, #90, #91, #92, #93, #94, #95, #96)), .UNSPECIFIED., .F., .T., .U.)
   B_SPLINE_SURFACE_WITH_KNOTS ((2, 2), (3, 2, 2, 2, 3), (0., 1.), (0., 0.25, 0.5, 0.75, 1.), .UNSPECIFIED.)
   GEOMETRIC_REPRESENTATION_ITEM ()
   RATIONAL_B_SPLINE_SURFACE (((1., 0.707106781186548, 1., 0.707106781186548, 1., 0.707106781186548, 1., 0.707106781186548, 1.), (1., 0.707106781186548, 1., 0.707106781186548, 1., 0.707106781186548, 1., 0.707106781186548, 1.)))
   REPRESENTATION_ITEM ('')
   SURFACE ()
);
#79 = CARTESIAN_POINT('', (-6., 2.98258605330568E-15, -0.600000000000001));
#80 = CARTESIAN_POINT('', (-6., 6., -0.599999999999978));
#81 = CARTESIAN_POINT('', (4.68298239692583E-15, 6., -0.599999999999978));
#82 = CARTESIAN_POINT('', (6., 6., -0.599999999999978));
#83 = CARTESIAN_POINT('', (6., -2.69188718366733E-15, -0.600000000000001));
#84 = CARTESIAN_POINT('', (6., -6., -0.600000000000024));
#85 = CARTESIAN_POINT('', (-2.56702760558774E-16, -6., -0.600000000000024));
#86 = CARTESIAN_POINT('', (-6., -6., -0.600000000000024));
#87 = CARTESIAN_POINT('', (-6., 2.98258605330568E-15, -0.600000000000001));
#88 = CARTESIAN_POINT('', (-5.4, 3.30654635769784E-16, -6.56858655152258E-47));
#89 = CARTESIAN_POINT('', (-5.4, 5.4, 2.09832151654154E-14));
#90 = CARTESIAN_POINT('', (4.39925873507718E-15, 5.4, 2.09832151654154E-14));
#91 = CARTESIAN_POINT('', (5.4, 5.4, 2.09832151654154E-14));
#92 = CARTESIAN_POINT('', (5.4, -4.77637127750593E-15, 2.27387988935674E-30));
#93 = CARTESIAN_POINT('', (5.4, -5.40000000000001, -2.09832151654154E-14));
#94 = CARTESIAN_POINT('', (-4.64579066589654E-17, -5.4, -2.09832151654154E-14));
#95 = CARTESIAN_POINT('', (-5.4, -5.4, -2.09832151654154E-14));
#96 = CARTESIAN_POINT('', (-5.4, 3.30654635769784E-16, -6.56858655152258E-47));
#97 = ADVANCED_FACE('', (#98), #101, .T.);
#98 = FACE_OUTER_BOUND('', #99, .T.);
#99 = EDGE_LOOP('', (#100));
#100 = ORIENTED_EDGE('', *, *, #64, .F.);
#101 = B_SPLINE_SURFACE_WITH_KNOTS('', 1, 1, ((#102, #103), (#104, #105)), .UNSPECIFIED., .F., .F., .U., (2, 2), (2, 2), (3.00042856049619, 13.8004285604962), (3.00042856049619, 13.8004285604962), .UNSPECIFIED.);
#102 = CARTESIAN_POINT('', (5.4, -5.4, -7.43608199337082E-15));
#103 = CARTESIAN_POINT('', (-5.4, -5.4, -7.43608199337082E-15));
#104 = CARTESIAN_POINT('', (5.4, 5.4, 7.43608199337075E-15));
#105 = CARTESIAN_POINT('', (-5.4, 5.4, 7.43608199337075E-15));
#106 = ADVANCED_FACE('', (#107), #126, .T.);
#107 = FACE_OUTER_BOUND('', #108, .T.);
#108 = EDGE_LOOP('', (#109, #117, #118, #119));
#109 = ORIENTED_EDGE('', *, *, #110, .T.);
#110 = EDGE_CURVE('', #111, #55, #113, .T.);
#111 = VERTEX_POINT('', #112);
#112 = CARTESIAN_POINT('', (-6., 3.24531401774049E-15, -47.));
#113 = LINE('', #114, #115);
#114 = CARTESIAN_POINT('', (-6., 3.24531401774049E-15, -47.));
#115 = VECTOR('', #116, 46.4);
#116 = DIRECTION('', (0., -2.84118057402186E-15, 46.4));
#117 = ORIENTED_EDGE('', *, *, #72, .T.);
#118 = ORIENTED_EDGE('', *, *, #110, .F.);
#119 = ORIENTED_EDGE('', *, *, #120, .F.);
#120 = EDGE_CURVE('', #111, #111, #121, .T.);
#121 = CIRCLE('', #122, 6.);
#122 = AXIS2_PLACEMENT_3D('', #123, #124, #125);
#123 = CARTESIAN_POINT('', (-4.71844785465692E-16, 1.11022302462516E-16, -47.));
#124 = DIRECTION('', (0., 0., -1.));
#125 = DIRECTION('', (-1., 5.22381952546329E-16, 0.));
#126 = (
   BOUNDED_SURFACE ()
   B_SPLINE_SURFACE (1, 2, ((#127, #128, #129, #130, #131, #132, #133, #134, #135), (#136, #137, #138, #139, #140, #141, #142, #143, #144)), .UNSPECIFIED., .F., .T., .U.)
   B_SPLINE_SURFACE_WITH_KNOTS ((2, 2), (3, 2, 2, 2, 3), (0., 1.), (0., 9.42477796076938, 18.8495559215388, 28.2743338823081, 37.6991118430775), .UNSPECIFIED.)
   GEOMETRIC_REPRESENTATION_ITEM ()
   RATIONAL_B_SPLINE_SURFACE (((1., 0.707106781186548, 1., 0.707106781186548, 1., 0.707106781186548, 1., 0.707106781186548, 1.), (1., 0.707106781186548, 1., 0.707106781186548, 1., 0.707106781186548, 1., 0.707106781186548, 1.)))
   REPRESENTATION_ITEM ('')
   SURFACE ()
);
#127 = CARTESIAN_POINT('', (-6., -3.99557661314357E-17, -47.));
#128 = CARTESIAN_POINT('', (-6., 6., -47.));
#129 = CARTESIAN_POINT('', (1.20432395153854E-15, 6., -47.));
#130 = CARTESIAN_POINT('', (6., 6., -47.));
#131 = CARTESIAN_POINT('', (6., -1.22365759870543E-15, -47.));
#132 = CARTESIAN_POINT('', (6., -6., -47.));
#133 = CARTESIAN_POINT('', (7.55410198452958E-16, -6., -47.));
#134 = CARTESIAN_POINT('', (-6., -6., -47.));
#135 = CARTESIAN_POINT('', (-6., -3.99557661314357E-17, -47.));
#136 = CARTESIAN_POINT('', (-6., 4.04133443718627E-16, -0.600000000000001));
#137 = CARTESIAN_POINT('', (-6., 6., -0.600000000000001));
#138 = CARTESIAN_POINT('', (2.06289642391533E-15, 6., -0.600000000000001));
#139 = CARTESIAN_POINT('', (6., 6., -0.600000000000001));
#140 = CARTESIAN_POINT('', (6., -7.79568388855371E-16, -0.600000000000001));
#141 = CARTESIAN_POINT('', (6., -6., -0.600000000000001));
#142 = CARTESIAN_POINT('', (1.61398267082975E-15, -6., -0.600000000000001));
#143 = CARTESIAN_POINT('', (-6., -6., -0.600000000000001));
#144 = CARTESIAN_POINT('', (-6., 4.04133443718627E-16, -0.600000000000001));
#145 = ADVANCED_FACE('', (#146, #149), #152, .T.);
#146 = FACE_OUTER_BOUND('', #147, .T.);
#147 = EDGE_LOOP('', (#148));
#148 = ORIENTED_EDGE('', *, *, #120, .T.);
#149 = FACE_BOUND('', #150, .T.);
#150 = EDGE_LOOP('', (#151));
#151 = ORIENTED_EDGE('', *, *, #17, .F.);
#152 = B_SPLINE_SURFACE_WITH_KNOTS('', 1, 1, ((#153, #154), (#155, #156)), .UNSPECIFIED., .F., .F., .U., (2, 2), (2, 2), (3.33380951166243, 15.3338095116624), (3.33380951166243, 15.3338095116624), .UNSPECIFIED.);
#153 = CARTESIAN_POINT('', (6., -6., -47.));
#154 = CARTESIAN_POINT('', (6., 6., -47.));
#155 = CARTESIAN_POINT('', (-6., -6., -47.));
#156 = CARTESIAN_POINT('', (-6., 6., -47.));
#157 = ADVANCED_FACE('', (#158), #161, .T.);
#158 = FACE_OUTER_BOUND('', #159, .T.);
#159 = EDGE_LOOP('', (#160));
#160 = ORIENTED_EDGE('', *, *, #25, .T.);
#161 = B_SPLINE_SURFACE_WITH_KNOTS('', 1, 1, ((#162, #163), (#164, #165)), .UNSPECIFIED., .F., .F., .U., (2, 2), (2, 2), (81.2581460811476, 92.6581460811476), (76.7762170923249, 88.1762170923249), .UNSPECIFIED.);
#162 = CARTESIAN_POINT('', (-5.7, 5.7, -57.));
#163 = CARTESIAN_POINT('', (-5.7, -5.7, -57.));
#164 = CARTESIAN_POINT('', (5.70000000000001, 5.7, -57.));
#165 = CARTESIAN_POINT('', (5.70000000000001, -5.7, -57.));
#166 = DRAUGHTING_MODEL('', (#174, #298, #354, #359, #364, #369, #374, #379, #384), #398);
#167 = PRESENTATION_STYLE_ASSIGNMENT((#168));
#168 = SURFACE_STYLE_USAGE(.POSITIVE., #169);
#169 = SURFACE_SIDE_STYLE('', (#170));
#170 = SURFACE_STYLE_FILL_AREA(#171);
#171 = FILL_AREA_STYLE('', (#172));
#172 = FILL_AREA_STYLE_COLOUR('', #173);
#173 = COLOUR_RGB('', 0.50196078431373, 0.50196078431373, 0.50196078431373);
#174 = STYLED_ITEM('', (#167), #1);
#175 = MANIFOLD_SOLID_BREP('CUT', #176);
#176 = CLOSED_SHELL('', (#177, #194, #233, #282));
#177 = ADVANCED_FACE('', (#178), #189, .T.);
#178 = FACE_OUTER_BOUND('', #179, .T.);
#179 = EDGE_LOOP('', (#180));
#180 = ORIENTED_EDGE('', *, *, #181, .F.);
#181 = EDGE_CURVE('', #182, #182, #184, .T.);
#182 = VERTEX_POINT('', #183);
#183 = CARTESIAN_POINT('', (-6., 3.85763741731416E-15, -57.));
#184 = CIRCLE('', #185, 6.);
#185 = AXIS2_PLACEMENT_3D('', #186, #187, #188);
#186 = CARTESIAN_POINT('', (-1.38777878078145E-15, 8.88178419700125E-16, -57.));
#187 = DIRECTION('', (1.99478272500669E-30, 4.03059828731664E-15, -1.));
#188 = DIRECTION('', (-1., 4.94909832935673E-16, 0.));
#189 = B_SPLINE_SURFACE_WITH_KNOTS('', 1, 1, ((#190, #191), (#192, #193)), .UNSPECIFIED., .F., .F., .U., (2, 2), (2, 2), (3.33380951166243, 15.3338095116624), (3.33380951166243, 15.3338095116624), .UNSPECIFIED.);
#190 = CARTESIAN_POINT('', (6., -6., -57.));
#191 = CARTESIAN_POINT('', (-6., -6., -57.));
#192 = CARTESIAN_POINT('', (6., 6., -57.));
#193 = CARTESIAN_POINT('', (-6., 6., -57.));
#194 = ADVANCED_FACE('', (#195), #214, .T.);
#195 = FACE_OUTER_BOUND('', #196, .T.);
#196 = EDGE_LOOP('', (#197, #205, #206, #207));
#197 = ORIENTED_EDGE('', *, *, #198, .F.);
#198 = EDGE_CURVE('', #182, #199, #201, .T.);
#199 = VERTEX_POINT('', #200);
#200 = CARTESIAN_POINT('', (-6., 5.38844591624835E-15, -82.));
#201 = LINE('', #202, #203);
#202 = CARTESIAN_POINT('', (-6., 3.85763741731416E-15, -57.));
#203 = VECTOR('', #204, 25.);
#204 = DIRECTION('', (0., 1.53080849893419E-15, -25.));
#205 = ORIENTED_EDGE('', *, *, #181, .T.);
#206 = ORIENTED_EDGE('', *, *, #198, .T.);
#207 = ORIENTED_EDGE('', *, *, #208, .F.);
#208 = EDGE_CURVE('', #199, #199, #209, .T.);
#209 = CIRCLE('', #210, 6.);
#210 = AXIS2_PLACEMENT_3D('', #211, #212, #213);
#211 = CARTESIAN_POINT('', (4.9960036108132E-16, -1.22124532708767E-15, -82.));
#212 = DIRECTION('', (0., 0., -1.));
#213 = DIRECTION('', (-1., 1.10161520722267E-15, 0.));
#214 = (
   BOUNDED_SURFACE ()
   B_SPLINE_SURFACE (2, 1, ((#215, #216), (#217, #218), (#219, #220), (#221, #222), (#223, #224), (#225, #226), (#227, #228), (#229, #230), (#231, #232)), .UNSPECIFIED., .T., .F., .U.)
   B_SPLINE_SURFACE_WITH_KNOTS ((3, 2, 2, 2, 3), (2, 2), (0., 9.42477796076938, 18.8495559215388, 28.2743338823081, 37.6991118430775), (0., 1.), .UNSPECIFIED.)
   GEOMETRIC_REPRESENTATION_ITEM ()
   RATIONAL_B_SPLINE_SURFACE (((1., 1.), (0.707106781186548, 0.707106781186548), (1., 1.), (0.707106781186548, 0.707106781186548), (1., 1.), (0.707106781186548, 0.707106781186548), (1., 1.), (0.707106781186548, 0.707106781186548), (1., 1.)))
   REPRESENTATION_ITEM ('')
   SURFACE ()
);
#215 = CARTESIAN_POINT('', (-6., 3.85763741731416E-15, -57.));
#216 = CARTESIAN_POINT('', (-6., 9.29773023797743E-15, -82.));
#217 = CARTESIAN_POINT('', (-6., 6., -57.));
#218 = CARTESIAN_POINT('', (-6., 6.00000000000001, -82.));
#219 = CARTESIAN_POINT('', (3.54575452880121E-15, 6., -57.));
#220 = CARTESIAN_POINT('', (3.54575452880122E-15, 6.00000000000001, -82.));
#221 = CARTESIAN_POINT('', (6., 6., -57.));
#222 = CARTESIAN_POINT('', (6., 6., -82.));
#223 = CARTESIAN_POINT('', (6., -3.34489394275078E-15, -57.));
#224 = CARTESIAN_POINT('', (6., 2.09519887791249E-15, -82.));
#225 = CARTESIAN_POINT('', (6., -6., -57.));
#226 = CARTESIAN_POINT('', (6., -6., -82.));
#227 = CARTESIAN_POINT('', (-2.92198875177532E-15, -6., -57.));
#228 = CARTESIAN_POINT('', (-2.92198875177531E-15, -5.99999999999999, -82.));
#229 = CARTESIAN_POINT('', (-6., -6., -57.));
#230 = CARTESIAN_POINT('', (-6., -5.99999999999999, -82.));
#231 = CARTESIAN_POINT('', (-6., 3.85763741731416E-15, -57.));
#232 = CARTESIAN_POINT('', (-6., 9.29773023797743E-15, -82.));
#233 = ADVANCED_FACE('', (#234), #254, .T.);
#234 = FACE_OUTER_BOUND('', #235, .T.);
#235 = EDGE_LOOP('', (#236, #245, #246, #247));
#236 = ORIENTED_EDGE('', *, *, #237, .F.);
#237 = EDGE_CURVE('', #199, #238, #240, .T.);
#238 = VERTEX_POINT('', #239);
#239 = CARTESIAN_POINT('', (-5., 5.38844591624835E-15, -83.));
#240 = CIRCLE('', #241, 1.00000000000001);
#241 = AXIS2_PLACEMENT_3D('', #242, #243, #244);
#242 = CARTESIAN_POINT('', (-4.99999999999999, 5.32721357629099E-15, -82.));
#243 = DIRECTION('', (-6.12323399573629E-17, -1., -6.12323399573719E-17));
#244 = DIRECTION('', (-1., 6.12323399573629E-17, 0.));
#245 = ORIENTED_EDGE('', *, *, #208, .T.);
#246 = ORIENTED_EDGE('', *, *, #237, .T.);
#247 = ORIENTED_EDGE('', *, *, #248, .F.);
#248 = EDGE_CURVE('', #238, #238, #249, .T.);
#249 = CIRCLE('', #250, 5.);
#250 = AXIS2_PLACEMENT_3D('', #251, #252, #253);
#251 = CARTESIAN_POINT('', (-1.48492329543615E-15, 4.10782519111308E-15, -83.));
#252 = DIRECTION('', (0., 0., -1.));
#253 = DIRECTION('', (-1., 2.56124145027054E-16, 0.));
#254 = (
   BOUNDED_SURFACE ()
   B_SPLINE_SURFACE (2, 2, ((#255, #256, #257), (#258, #259, #260), (#261, #262, #263), (#264, #265, #266), (#267, #268, #269), (#270, #271, #272), (#273, #274, #275), (#276, #277, #278), (#279, #280, #281)), .UNSPECIFIED., .T., .F., .U.)
   B_SPLINE_SURFACE_WITH_KNOTS ((3, 2, 2, 2, 3), (3, 3), (0., 0.25, 0.5, 0.75, 1.), (0., 1.), .UNSPECIFIED.)
   GEOMETRIC_REPRESENTATION_ITEM ()
   RATIONAL_B_SPLINE_SURFACE (((1., 0.707106781186548, 1.), (0.707106781186548, 0.5, 0.707106781186548), (1., 0.707106781186548, 1.), (0.707106781186548, 0.5, 0.707106781186548), (1., 0.707106781186548, 1.), (0.707106781186548, 0.5, 0.707106781186548), (1., 0.707106781186548, 1.), (0.707106781186548, 0.5, 0.707106781186548), (1., 0.707106781186548, 1.)))
   REPRESENTATION_ITEM ('')
   SURFACE ()
);
#255 = CARTESIAN_POINT('', (-6., 5.38844591624835E-15, -82.));
#256 = CARTESIAN_POINT('', (-6., 5.44967825620572E-15, -83.));
#257 = CARTESIAN_POINT('', (-5., 5.38844591624835E-15, -83.));
#258 = CARTESIAN_POINT('', (-6., 6.00000000000001, -82.));
#259 = CARTESIAN_POINT('', (-6., 6.00000000000001, -83.));
#260 = CARTESIAN_POINT('', (-5., 5.00000000000001, -83.));
#261 = CARTESIAN_POINT('', (5.99249702305116E-15, 6., -82.));
#262 = CARTESIAN_POINT('', (6.05372936300852E-15, 6., -83.));
#263 = CARTESIAN_POINT('', (6.05372936300852E-15, 5., -83.));
#264 = CARTESIAN_POINT('', (6.00000000000001, 6., -82.));
#265 = CARTESIAN_POINT('', (6.00000000000001, 6., -83.));
#266 = CARTESIAN_POINT('', (5.00000000000001, 5., -83.));
#267 = CARTESIAN_POINT('', (6., -3.54343481213478E-15, -82.));
#268 = CARTESIAN_POINT('', (6., -3.60466715209215E-15, -83.));
#269 = CARTESIAN_POINT('', (5., -3.66589949204952E-15, -83.));
#270 = CARTESIAN_POINT('', (6., -6.00000000000001, -82.));
#271 = CARTESIAN_POINT('', (6., -6.00000000000001, -83.));
#272 = CARTESIAN_POINT('', (5., -5.00000000000001, -83.));
#273 = CARTESIAN_POINT('', (-2.20459562584356E-15, -6., -82.));
#274 = CARTESIAN_POINT('', (-2.26582796580093E-15, -6., -83.));
#275 = CARTESIAN_POINT('', (-2.38829264571567E-15, -5., -83.));
#276 = CARTESIAN_POINT('', (-6., -6., -82.));
#277 = CARTESIAN_POINT('', (-6., -6., -83.));
#278 = CARTESIAN_POINT('', (-5., -5., -83.));
#279 = CARTESIAN_POINT('', (-6., 5.38844591624835E-15, -82.));
#280 = CARTESIAN_POINT('', (-6., 5.44967825620572E-15, -83.));
#281 = CARTESIAN_POINT('', (-5., 5.38844591624835E-15, -83.));
#282 = ADVANCED_FACE('', (#283), #286, .T.);
#283 = FACE_OUTER_BOUND('', #284, .T.);
#284 = EDGE_LOOP('', (#285));
#285 = ORIENTED_EDGE('', *, *, #248, .T.);
#286 = B_SPLINE_SURFACE_WITH_KNOTS('', 1, 1, ((#287, #288), (#289, #290)), .UNSPECIFIED., .F., .F., .U., (2, 2), (2, 2), (2.77817459305203, 12.778174593052), (2.77817459305202, 12.778174593052), .UNSPECIFIED.);
#287 = CARTESIAN_POINT('', (5., -5., -83.));
#288 = CARTESIAN_POINT('', (5., 5.00000000000001, -83.));
#289 = CARTESIAN_POINT('', (-5., -5., -83.));
#290 = CARTESIAN_POINT('', (-5., 5.00000000000001, -83.));
#291 = PRESENTATION_STYLE_ASSIGNMENT((#292));
#292 = SURFACE_STYLE_USAGE(.POSITIVE., #293);
#293 = SURFACE_SIDE_STYLE('', (#294));
#294 = SURFACE_STYLE_FILL_AREA(#295);
#295 = FILL_AREA_STYLE('', (#296));
#296 = FILL_AREA_STYLE_COLOUR('', #297);
#297 = COLOUR_RGB('', 0.8, 0.8, 0.8);
#298 = STYLED_ITEM('', (#291), #175);
#299 = TRIMMED_CURVE('cutting part line', #300, (#304), (#305), .T., .CARTESIAN.);
#300 = LINE('', #301, #302);
#301 = CARTESIAN_POINT('', (-6.41147307087945E-31, -3.49024337756996E-15, -57.));
#302 = VECTOR('', #303, 5.7);
#303 = DIRECTION('', (5.7, -1.04707301327098E-15, 0.));
#304 = CARTESIAN_POINT('', (-6.41147307087945E-31, -3.49024337756996E-15, -57.));
#305 = CARTESIAN_POINT('', (5.7, -4.53731639084094E-15, -57.));
#306 = TRIMMED_CURVE('cutting part line', #307, (#311), (#312), .T., .CARTESIAN.);
#307 = LINE('', #308, #309);
#308 = CARTESIAN_POINT('', (5.7, -4.53731639084094E-15, -57.));
#309 = VECTOR('', #310, 0.3);
#310 = DIRECTION('', (0.3, -5.51091059616305E-17, 0.));
#311 = CARTESIAN_POINT('', (5.7, -4.53731639084094E-15, -57.));
#312 = CARTESIAN_POINT('', (6., -4.59242549680257E-15, -57.));
#313 = TRIMMED_CURVE('cutting part line', #314, (#318), (#319), .T., .CARTESIAN.);
#314 = LINE('', #315, #316);
#315 = CARTESIAN_POINT('', (6., -4.59242549680257E-15, -57.));
#316 = VECTOR('', #317, 25.);
#317 = DIRECTION('', (0., -1.53080849893419E-15, -25.));
#318 = CARTESIAN_POINT('', (6., -4.59242549680257E-15, -57.));
#319 = CARTESIAN_POINT('', (6., -6.12323399573676E-15, -82.));
#320 = TRIMMED_CURVE('cutting part line', #321, (#326), (#327), .T., .CARTESIAN.);
#321 = CIRCLE('', #322, 0.999999999999954);
#322 = AXIS2_PLACEMENT_3D('', #323, #324, #325);
#323 = CARTESIAN_POINT('', (5.00000000000005, -5.93953697586467E-15, -82.));
#324 = DIRECTION('', (1.83697019872103E-16, 1., -6.12323399573687E-17));
#325 = DIRECTION('', (1., -1.83697019872102E-16, 2.84217094304053E-14));
#326 = CARTESIAN_POINT('', (6., -6.12323399573676E-15, -82.));
#327 = CARTESIAN_POINT('', (5., -6.00076931582203E-15, -83.));
#328 = TRIMMED_CURVE('cutting part line', #329, (#333), (#334), .T., .CARTESIAN.);
#329 = LINE('', #330, #331);
#330 = CARTESIAN_POINT('', (5., -6.00076931582203E-15, -83.));
#331 = VECTOR('', #332, 5.);
#332 = DIRECTION('', (-5., 9.18485099360507E-16, 0.));
#333 = CARTESIAN_POINT('', (5., -6.00076931582203E-15, -83.));
#334 = CARTESIAN_POINT('', (-6.22400309804671E-31, -5.08228421646152E-15, -83.));
#335 = TRIMMED_CURVE('cutting part line', #336, (#340), (#341), .T., .CARTESIAN.);
#336 = LINE('', #337, #338);
#337 = CARTESIAN_POINT('', (-9.33600464707006E-31, -5.08228421646152E-15, -83.));
#338 = VECTOR('', #339, 26.);
#339 = DIRECTION('', (2.92453157619062E-31, 1.59204083889156E-15, 26.));
#340 = CARTESIAN_POINT('', (-9.33600464707006E-31, -5.08228421646152E-15, -83.));
#341 = CARTESIAN_POINT('', (-6.41147307087945E-31, -3.49024337756996E-15, -57.));
#342 = COMPOSITE_CURVE('cutting part line', (#343, #344, #345, #346, #347, #348), .U.);
#343 = COMPOSITE_CURVE_SEGMENT(.CONTINUOUS., .T., #299);
#344 = COMPOSITE_CURVE_SEGMENT(.CONTINUOUS., .T., #306);
#345 = COMPOSITE_CURVE_SEGMENT(.CONTINUOUS., .T., #313);
#346 = COMPOSITE_CURVE_SEGMENT(.CONTINUOUS., .T., #320);
#347 = COMPOSITE_CURVE_SEGMENT(.CONTINUOUS., .T., #328);
#348 = COMPOSITE_CURVE_SEGMENT(.CONTINUOUS., .T., #335);
#349 = GEOMETRIC_SET('', (#342, #397));
#350 = PRESENTATION_STYLE_ASSIGNMENT((#351));
#351 = CURVE_STYLE('', #353, POSITIVE_LENGTH_MEASURE(1.E-6), #352);
#352 = COLOUR_RGB('', 0., 0., 1.);
#353 = DRAUGHTING_PRE_DEFINED_CURVE_FONT('continuous');
#354 = STYLED_ITEM('', (#350), #342);
#355 = PRESENTATION_STYLE_ASSIGNMENT((#356));
#356 = CURVE_STYLE('', #358, POSITIVE_LENGTH_MEASURE(1.E-6), #357);
#357 = COLOUR_RGB('', 0., 0., 1.);
#358 = DRAUGHTING_PRE_DEFINED_CURVE_FONT('continuous');
#359 = OVER_RIDING_STYLED_ITEM('', (#355), #299, #354);
#360 = PRESENTATION_STYLE_ASSIGNMENT((#361));
#361 = CURVE_STYLE('', #363, POSITIVE_LENGTH_MEASURE(1.E-6), #362);
#362 = COLOUR_RGB('', 0., 0., 1.);
#363 = DRAUGHTING_PRE_DEFINED_CURVE_FONT('continuous');
#364 = OVER_RIDING_STYLED_ITEM('', (#360), #306, #354);
#365 = PRESENTATION_STYLE_ASSIGNMENT((#366));
#366 = CURVE_STYLE('', #368, POSITIVE_LENGTH_MEASURE(1.E-6), #367);
#367 = COLOUR_RGB('', 0., 0., 1.);
#368 = DRAUGHTING_PRE_DEFINED_CURVE_FONT('continuous');
#369 = OVER_RIDING_STYLED_ITEM('', (#365), #313, #354);
#370 = PRESENTATION_STYLE_ASSIGNMENT((#371));
#371 = CURVE_STYLE('', #373, POSITIVE_LENGTH_MEASURE(1.E-6), #372);
#372 = COLOUR_RGB('', 0., 0., 1.);
#373 = DRAUGHTING_PRE_DEFINED_CURVE_FONT('continuous');
#374 = OVER_RIDING_STYLED_ITEM('', (#370), #320, #354);
#375 = PRESENTATION_STYLE_ASSIGNMENT((#376));
#376 = CURVE_STYLE('', #378, POSITIVE_LENGTH_MEASURE(1.E-6), #377);
#377 = COLOUR_RGB('', 0., 0., 1.);
#378 = DRAUGHTING_PRE_DEFINED_CURVE_FONT('continuous');
#379 = OVER_RIDING_STYLED_ITEM('', (#375), #328, #354);
#380 = PRESENTATION_STYLE_ASSIGNMENT((#381));
#381 = CURVE_STYLE('', #383, POSITIVE_LENGTH_MEASURE(1.E-6), #382);
#382 = COLOUR_RGB('', 0., 0., 1.);
#383 = DRAUGHTING_PRE_DEFINED_CURVE_FONT('continuous');
#384 = OVER_RIDING_STYLED_ITEM('', (#380), #335, #354);
#385 = AXIS2_PLACEMENT_3D('CIP', #386, #387, #388);
#386 = CARTESIAN_POINT('', (3.11200154902335E-31, 5.08228421646152E-15, -83.));
#387 = DIRECTION('', (-3.74939945665465E-33, -6.12323399573677E-17, 1.));
#388 = DIRECTION('', (1., -6.12323399573677E-17, 0.));
#389 = AXIS2_PLACEMENT_3D('MCS', #390, #391, #392);
#390 = CARTESIAN_POINT('', (1.68722975549459E-31, 2.75545529808154E-15, -45.));
#391 = DIRECTION('', (-3.74939945665465E-33, -6.12323399573677E-17, 1.));
#392 = DIRECTION('', (1., -6.12323399573677E-17, 0.));
#393 = AXIS2_PLACEMENT_3D('PCS', #394, #395, #396);
#394 = CARTESIAN_POINT('', (0., 0., 0.));
#395 = DIRECTION('', (0., 0., 1.));
#396 = DIRECTION('', (1., 0., 0.));
#397 = CARTESIAN_POINT('CRP', (6., 0., -83.));
#398 = (
   GEOMETRIC_REPRESENTATION_CONTEXT (3)
   GLOBAL_UNCERTAINTY_ASSIGNED_CONTEXT ((#400))
   GLOBAL_UNIT_ASSIGNED_CONTEXT ((#399, #401, #402))
   REPRESENTATION_CONTEXT ('', '3D')
);
#399 = (
   LENGTH_UNIT ()
   NAMED_UNIT (*)
   SI_UNIT (.MILLI., .METRE.)
);
#400 = UNCERTAINTY_MEASURE_WITH_UNIT(LENGTH_MEASURE(1.E-6), #399, 'DISTANCE_ACCURACY_VALUE', '');
#401 = (
   NAMED_UNIT (*)
   SI_UNIT ($, .STERADIAN.)
   SOLID_ANGLE_UNIT ()
);
#402 = (
   NAMED_UNIT (*)
   PLANE_ANGLE_UNIT ()
   SI_UNIT ($, .RADIAN.)
);
#403 = SHAPE_REPRESENTATION('', (), #398);
#404 = PRODUCT_DEFINITION_SHAPE('', '', #405);
#405 = PRODUCT_DEFINITION('', '', #408, #412);
#406 = APPLICATION_CONTEXT('configuration controlled 3D designs of mechanical parts and assemblies');
#407 = APPLICATION_PROTOCOL_DEFINITION('International Standard', 'automotive_design', 2002, #406);
#408 = PRODUCT_DEFINITION_FORMATION_WITH_SPECIFIED_SOURCE('', '', #409, .NOT_KNOWN.);
#409 = PRODUCT('NONE', 'R216.24-12050CCC26P 1620', '', (#410));
#410 = PRODUCT_CONTEXT('', #406, 'mechanical');
#411 = PRODUCT_RELATED_PRODUCT_CATEGORY('detail', '', (#409));
#412 = PRODUCT_DEFINITION_CONTEXT('part definition', #406, 'design');
#413 = SHAPE_DEFINITION_REPRESENTATION(#404, #403);
#414 = CONSTRUCTIVE_GEOMETRY_REPRESENTATION('supplemental geometry', (#385, #389, #393), #398);
#415 = CONSTRUCTIVE_GEOMETRY_REPRESENTATION_RELATIONSHIP('', '', #403, #414);
#416 = SHAPE_REPRESENTATION_RELATIONSHIP('', '', #403, #417);
#417 = SHAPE_REPRESENTATION('', (#349), #398);
#418 = SHAPE_REPRESENTATION_RELATIONSHIP('', '', #403, #419);
#419 = ADVANCED_BREP_SHAPE_REPRESENTATION('', (#1, #175), #398);
ENDSEC;
END-ISO-10303-21;
