ISO-10303-21;
HEADER;
FILE_DESCRIPTION(('STEP'), '1');
FILE_NAME('C:\\Users\\ds2002\\OneDrive - Sandvik\\HomeShare\\Documents\\Batchrepair\\CorSRT2\\NEW_MILSQ_SLD\\Output\\MOD000000000000000020084589800000.stp', '2019-01-02T12:11:51', (''), (''), 'Express v3.0.0.0', 'Express Tool', 'Unknown');
FILE_SCHEMA(('AUTOMOTIVE_DESIGN'));
ENDSEC;

DATA;
#1 = MANIFOLD_SOLID_BREP('NOCUT', #2);
#2 = CLOSED_SHELL('', (#3, #50, #59, #98));
#3 = ADVANCED_FACE('', (#4), #31, .T.);
#4 = FACE_OUTER_BOUND('', #5, .T.);
#5 = EDGE_LOOP('', (#6, #16, #23, #24));
#6 = ORIENTED_EDGE('', *, *, #7, .T.);
#7 = EDGE_CURVE('', #8, #10, #12, .T.);
#8 = VERTEX_POINT('', #9);
#9 = CARTESIAN_POINT('', (-5., 3.36777869765522E-16, -0.5));
#10 = VERTEX_POINT('', #11);
#11 = CARTESIAN_POINT('', (-4.5, 2.75545529808154E-16, 0.));
#12 = LINE('', #13, #14);
#13 = CARTESIAN_POINT('', (-5., 3.36777869765522E-16, -0.5));
#14 = VECTOR('', #15, 0.707106781186548);
#15 = DIRECTION('', (0.5, -6.1232339957368E-17, 0.5));
#16 = ORIENTED_EDGE('', *, *, #17, .T.);
#17 = EDGE_CURVE('', #10, #10, #18, .T.);
#18 = CIRCLE('', #19, 4.5);
#19 = AXIS2_PLACEMENT_3D('', #20, #21, #22);
#20 = CARTESIAN_POINT('', (4.16333634234434E-16, 1.99840144432528E-15, 1.60237371373018E-31));
#21 = DIRECTION('', (1.21650827372764E-32, 6.12323399573677E-17, -1.));
#22 = DIRECTION('', (-1., -6.27786229722166E-16, -5.06059025761781E-32));
#23 = ORIENTED_EDGE('', *, *, #7, .F.);
#24 = ORIENTED_EDGE('', *, *, #25, .F.);
#25 = EDGE_CURVE('', #8, #8, #26, .T.);
#26 = CIRCLE('', #27, 5.);
#27 = AXIS2_PLACEMENT_3D('', #28, #29, #30);
#28 = CARTESIAN_POINT('', (3.33066907387547E-16, -2.22044604925031E-15, -0.5));
#29 = DIRECTION('', (0., 0., -1.));
#30 = DIRECTION('', (-1., 2.66515423973696E-16, 0.));
#31 = (
   BOUNDED_SURFACE ()
   B_SPLINE_SURFACE (1, 2, ((#32, #33, #34, #35, #36, #37, #38, #39, #40), (#41, #42, #43, #44, #45, #46, #47, #48, #49)), .UNSPECIFIED., .F., .T., .U.)
   B_SPLINE_SURFACE_WITH_KNOTS ((2, 2), (3, 2, 2, 2, 3), (0., 1.), (0., 0.25, 0.5, 0.75, 1.), .UNSPECIFIED.)
   GEOMETRIC_REPRESENTATION_ITEM ()
   RATIONAL_B_SPLINE_SURFACE (((1., 0.707106781186548, 1., 0.707106781186548, 1., 0.707106781186548, 1., 0.707106781186548, 1.), (1., 0.707106781186548, 1., 0.707106781186548, 1., 0.707106781186548, 1., 0.707106781186548, 1.)))
   REPRESENTATION_ITEM ('')
   SURFACE ()
);
#32 = CARTESIAN_POINT('', (-5., -2.69144046670109E-15, -0.5));
#33 = CARTESIAN_POINT('', (-5., 5., -0.50000000000003));
#34 = CARTESIAN_POINT('', (2.28983498828938E-15, 5., -0.50000000000003));
#35 = CARTESIAN_POINT('', (5., 5., -0.50000000000003));
#36 = CARTESIAN_POINT('', (5., -2.69144046670108E-15, -0.5));
#37 = CARTESIAN_POINT('', (5., -5., -0.49999999999997));
#38 = CARTESIAN_POINT('', (2.90215838786306E-15, -5., -0.49999999999997));
#39 = CARTESIAN_POINT('', (-5., -5., -0.49999999999997));
#40 = CARTESIAN_POINT('', (-5., -2.69144046670109E-15, -0.5));
#41 = CARTESIAN_POINT('', (-4.5, 2.75545529808154E-16, -5.47382212626882E-48));
#42 = CARTESIAN_POINT('', (-4.5, 4.5, -2.69784194983913E-14));
#43 = CARTESIAN_POINT('', (2.28983498828938E-15, 4.5, -2.69784194983913E-14));
#44 = CARTESIAN_POINT('', (4.5, 4.5, -2.69784194983913E-14));
#45 = CARTESIAN_POINT('', (4.5, 2.75545529808155E-16, -3.34088136340818E-30));
#46 = CARTESIAN_POINT('', (4.5, -4.5, 2.69784194983913E-14));
#47 = CARTESIAN_POINT('', (2.8409260479057E-15, -4.5, 2.69784194983913E-14));
#48 = CARTESIAN_POINT('', (-4.5, -4.5, 2.69784194983913E-14));
#49 = CARTESIAN_POINT('', (-4.5, 2.75545529808154E-16, -5.47382212626882E-48));
#50 = ADVANCED_FACE('', (#51), #54, .T.);
#51 = FACE_OUTER_BOUND('', #52, .T.);
#52 = EDGE_LOOP('', (#53));
#53 = ORIENTED_EDGE('', *, *, #17, .F.);
#54 = B_SPLINE_SURFACE_WITH_KNOTS('', 1, 1, ((#55, #56), (#57, #58)), .UNSPECIFIED., .F., .F., .U., (2, 2), (2, 2), (2.50035713374682, 11.5003571337468), (2.50035713374682, 11.5003571337468), .UNSPECIFIED.);
#55 = CARTESIAN_POINT('', (4.5, -4.5, -2.75545529808149E-16));
#56 = CARTESIAN_POINT('', (-4.5, -4.5, -1.44864002450102E-14));
#57 = CARTESIAN_POINT('', (4.5, 4.5, 1.44864002450102E-14));
#58 = CARTESIAN_POINT('', (-4.5, 4.5, 2.75545529808176E-16));
#59 = ADVANCED_FACE('', (#60), #79, .T.);
#60 = FACE_OUTER_BOUND('', #61, .T.);
#61 = EDGE_LOOP('', (#62, #71, #77, #78));
#62 = ORIENTED_EDGE('', *, *, #63, .F.);
#63 = EDGE_CURVE('', #64, #64, #66, .T.);
#64 = VERTEX_POINT('', #65);
#65 = CARTESIAN_POINT('', (-5., 5.08228421646152E-15, -78.));
#66 = CIRCLE('', #67, 5.);
#67 = AXIS2_PLACEMENT_3D('', #68, #69, #70);
#68 = CARTESIAN_POINT('', (-1.66533453693773E-16, 1.77635683940025E-15, -78.));
#69 = DIRECTION('', (0., 0., -1.));
#70 = DIRECTION('', (-1., 6.61185475412254E-16, 0.));
#71 = ORIENTED_EDGE('', *, *, #72, .F.);
#72 = EDGE_CURVE('', #8, #64, #73, .T.);
#73 = LINE('', #74, #75);
#74 = CARTESIAN_POINT('', (-5., 3.36777869765522E-16, -0.5));
#75 = VECTOR('', #76, 77.5);
#76 = DIRECTION('', (0., 4.745506346696E-15, -77.5));
#77 = ORIENTED_EDGE('', *, *, #25, .T.);
#78 = ORIENTED_EDGE('', *, *, #72, .T.);
#79 = (
   BOUNDED_SURFACE ()
   B_SPLINE_SURFACE (1, 2, ((#80, #81, #82, #83, #84, #85, #86, #87, #88), (#89, #90, #91, #92, #93, #94, #95, #96, #97)), .UNSPECIFIED., .F., .T., .U.)
   B_SPLINE_SURFACE_WITH_KNOTS ((2, 2), (3, 2, 2, 2, 3), (-0.962025316455697, 1.), (0., 0.25, 0.5, 0.75, 1.), .UNSPECIFIED.)
   GEOMETRIC_REPRESENTATION_ITEM ()
   RATIONAL_B_SPLINE_SURFACE (((1., 0.707106781186548, 1., 0.707106781186548, 1., 0.707106781186548, 1., 0.707106781186548, 1.), (1., 0.707106781186548, 1., 0.707106781186548, 1., 0.707106781186548, 1., 0.707106781186548, 1.)))
   REPRESENTATION_ITEM ('')
   SURFACE ()
);
#80 = CARTESIAN_POINT('', (-5., 3.66744694364099E-15, -78.));
#81 = CARTESIAN_POINT('', (-5., 5., -78.));
#82 = CARTESIAN_POINT('', (1.55516260249014E-16, 5., -78.));
#83 = CARTESIAN_POINT('', (5., 5., -78.));
#84 = CARTESIAN_POINT('', (5., 2.49599157905847E-15, -78.));
#85 = CARTESIAN_POINT('', (5., -5., -78.));
#86 = CARTESIAN_POINT('', (-4.03615704759833E-16, -5., -78.));
#87 = CARTESIAN_POINT('', (-5., -5., -78.));
#88 = CARTESIAN_POINT('', (-5., 3.66744694364099E-15, -78.));
#89 = CARTESIAN_POINT('', (-5., 3.36777869765522E-16, -0.5));
#90 = CARTESIAN_POINT('', (-5., 5., -0.5));
#91 = CARTESIAN_POINT('', (1.55516260249014E-16, 5., -0.5));
#92 = CARTESIAN_POINT('', (5., 5., -0.5));
#93 = CARTESIAN_POINT('', (5., -8.34677494817002E-16, -0.5));
#94 = CARTESIAN_POINT('', (5., -5., -0.5));
#95 = CARTESIAN_POINT('', (-4.03615704759834E-16, -5., -0.5));
#96 = CARTESIAN_POINT('', (-5., -5., -0.5));
#97 = CARTESIAN_POINT('', (-5., 3.36777869765522E-16, -0.5));
#98 = ADVANCED_FACE('', (#99), #102, .T.);
#99 = FACE_OUTER_BOUND('', #100, .T.);
#100 = EDGE_LOOP('', (#101));
#101 = ORIENTED_EDGE('', *, *, #63, .T.);
#102 = B_SPLINE_SURFACE_WITH_KNOTS('', 1, 1, ((#103, #104), (#105, #106)), .UNSPECIFIED., .F., .F., .U., (2, 2), (2, 2), (98.795055144329, 108.795055144329), (93.1950531283292, 103.195053128329), .UNSPECIFIED.);
#103 = CARTESIAN_POINT('', (-5., 5.00000000000001, -78.));
#104 = CARTESIAN_POINT('', (-5., -5., -78.));
#105 = CARTESIAN_POINT('', (5., 5.00000000000001, -78.));
#106 = CARTESIAN_POINT('', (5., -5., -78.));
#107 = DRAUGHTING_MODEL('', (#115, #239, #287, #292, #297, #302, #307, #312), #326);
#108 = PRESENTATION_STYLE_ASSIGNMENT((#109));
#109 = SURFACE_STYLE_USAGE(.POSITIVE., #110);
#110 = SURFACE_SIDE_STYLE('', (#111));
#111 = SURFACE_STYLE_FILL_AREA(#112);
#112 = FILL_AREA_STYLE('', (#113));
#113 = FILL_AREA_STYLE_COLOUR('', #114);
#114 = COLOUR_RGB('', 0.50196078431373, 0.50196078431373, 0.50196078431373);
#115 = STYLED_ITEM('', (#108), #1);
#116 = MANIFOLD_SOLID_BREP('CUT', #117);
#117 = CLOSED_SHELL('', (#118, #135, #174, #223));
#118 = ADVANCED_FACE('', (#119), #130, .T.);
#119 = FACE_OUTER_BOUND('', #120, .T.);
#120 = EDGE_LOOP('', (#121));
#121 = ORIENTED_EDGE('', *, *, #122, .F.);
#122 = EDGE_CURVE('', #123, #123, #125, .T.);
#123 = VERTEX_POINT('', #124);
#124 = CARTESIAN_POINT('', (-5., 5.08228421646152E-15, -78.));
#125 = CIRCLE('', #126, 5.);
#126 = AXIS2_PLACEMENT_3D('', #127, #128, #129);
#127 = CARTESIAN_POINT('', (-1.66533453693773E-16, 1.77635683940025E-15, -78.));
#128 = DIRECTION('', (0., 0., -1.));
#129 = DIRECTION('', (-1., 6.61185475412254E-16, 0.));
#130 = B_SPLINE_SURFACE_WITH_KNOTS('', 1, 1, ((#131, #132), (#133, #134)), .UNSPECIFIED., .F., .F., .U., (2, 2), (2, 2), (93.1950531283291, 103.195053128329), (98.795055144329, 108.795055144329), .UNSPECIFIED.);
#131 = CARTESIAN_POINT('', (-5., 5.00000000000001, -78.));
#132 = CARTESIAN_POINT('', (5., 5.00000000000001, -78.));
#133 = CARTESIAN_POINT('', (-5., -5., -78.));
#134 = CARTESIAN_POINT('', (5., -5., -78.));
#135 = ADVANCED_FACE('', (#136), #155, .T.);
#136 = FACE_OUTER_BOUND('', #137, .T.);
#137 = EDGE_LOOP('', (#138, #139, #147, #154));
#138 = ORIENTED_EDGE('', *, *, #122, .T.);
#139 = ORIENTED_EDGE('', *, *, #140, .T.);
#140 = EDGE_CURVE('', #123, #141, #143, .T.);
#141 = VERTEX_POINT('', #142);
#142 = CARTESIAN_POINT('', (-5., 6.30693101560887E-15, -98.));
#143 = LINE('', #144, #145);
#144 = CARTESIAN_POINT('', (-5., 5.08228421646152E-15, -78.));
#145 = VECTOR('', #146, 20.);
#146 = DIRECTION('', (0., 1.22464679914735E-15, -20.));
#147 = ORIENTED_EDGE('', *, *, #148, .F.);
#148 = EDGE_CURVE('', #141, #141, #149, .T.);
#149 = CIRCLE('', #150, 5.);
#150 = AXIS2_PLACEMENT_3D('', #151, #152, #153);
#151 = CARTESIAN_POINT('', (-1.92901250528621E-15, 7.7715611723761E-15, -98.));
#152 = DIRECTION('', (0., 0., -1.));
#153 = DIRECTION('', (-1., -2.92926031353445E-16, 0.));
#154 = ORIENTED_EDGE('', *, *, #140, .F.);
#155 = (
   BOUNDED_SURFACE ()
   B_SPLINE_SURFACE (1, 2, ((#156, #157, #158, #159, #160, #161, #162, #163, #164), (#165, #166, #167, #168, #169, #170, #171, #172, #173)), .UNSPECIFIED., .F., .T., .U.)
   B_SPLINE_SURFACE_WITH_KNOTS ((2, 2), (3, 2, 2, 2, 3), (-1.46835443037975, -0.962025316455696), (0., 0.25, 0.5, 0.75, 1.), .UNSPECIFIED.)
   GEOMETRIC_REPRESENTATION_ITEM ()
   RATIONAL_B_SPLINE_SURFACE (((1., 0.707106781186548, 1., 0.707106781186548, 1., 0.707106781186548, 1., 0.707106781186548, 1.), (1., 0.707106781186548, 1., 0.707106781186548, 1., 0.707106781186548, 1., 0.707106781186548, 1.)))
   REPRESENTATION_ITEM ('')
   SURFACE ()
);
#156 = CARTESIAN_POINT('', (-5., 1.05223770371248E-14, -98.));
#157 = CARTESIAN_POINT('', (-5., 5.00000000000001, -98.));
#158 = CARTESIAN_POINT('', (-4.0029233564011E-16, 5.00000000000001, -98.));
#159 = CARTESIAN_POINT('', (5., 5., -98.));
#160 = CARTESIAN_POINT('', (5., 6.52124712690121E-15, -98.));
#161 = CARTESIAN_POINT('', (4.99999999999999, -4.99999999999999, -98.));
#162 = CARTESIAN_POINT('', (-3.78909884629001E-15, -4.99999999999999, -98.));
#163 = CARTESIAN_POINT('', (-5., -4.99999999999999, -98.));
#164 = CARTESIAN_POINT('', (-5., 1.05223770371248E-14, -98.));
#165 = CARTESIAN_POINT('', (-5., 5.08228421646152E-15, -78.));
#166 = CARTESIAN_POINT('', (-5., 5., -78.));
#167 = CARTESIAN_POINT('', (-4.00292335640111E-16, 5., -78.));
#168 = CARTESIAN_POINT('', (5., 5., -78.));
#169 = CARTESIAN_POINT('', (5., 1.08115430623794E-15, -78.));
#170 = CARTESIAN_POINT('', (4.99999999999999, -5., -78.));
#171 = CARTESIAN_POINT('', (-3.78909884629001E-15, -5., -78.));
#172 = CARTESIAN_POINT('', (-5., -4.99999999999999, -78.));
#173 = CARTESIAN_POINT('', (-5., 5.08228421646152E-15, -78.));
#174 = ADVANCED_FACE('', (#175), #195, .T.);
#175 = FACE_OUTER_BOUND('', #176, .T.);
#176 = EDGE_LOOP('', (#177, #186, #187, #188));
#177 = ORIENTED_EDGE('', *, *, #178, .F.);
#178 = EDGE_CURVE('', #141, #179, #181, .T.);
#179 = VERTEX_POINT('', #180);
#180 = CARTESIAN_POINT('', (-3., 6.30693101560887E-15, -100.));
#181 = CIRCLE('', #182, 1.99999999999997);
#182 = AXIS2_PLACEMENT_3D('', #183, #184, #185);
#183 = CARTESIAN_POINT('', (-3.00000000000002, 6.18446633569414E-15, -98.));
#184 = DIRECTION('', (-6.12323399573686E-17, -1., -6.12323399573688E-17));
#185 = DIRECTION('', (-1., 6.12323399573677E-17, 1.42108547152021E-14));
#186 = ORIENTED_EDGE('', *, *, #148, .T.);
#187 = ORIENTED_EDGE('', *, *, #178, .T.);
#188 = ORIENTED_EDGE('', *, *, #189, .F.);
#189 = EDGE_CURVE('', #179, #179, #190, .T.);
#190 = CIRCLE('', #191, 3.);
#191 = AXIS2_PLACEMENT_3D('', #192, #193, #194);
#192 = CARTESIAN_POINT('', (-3.88578058618805E-16, 7.60502771868232E-15, -100.));
#193 = DIRECTION('', (0., 0., -1.));
#194 = DIRECTION('', (-1., -4.32698901024484E-16, 0.));
#195 = (
   BOUNDED_SURFACE ()
   B_SPLINE_SURFACE (2, 2, ((#196, #197, #198), (#199, #200, #201), (#202, #203, #204), (#205, #206, #207), (#208, #209, #210), (#211, #212, #213), (#214, #215, #216), (#217, #218, #219), (#220, #221, #222)), .UNSPECIFIED., .T., .F., .U.)
   B_SPLINE_SURFACE_WITH_KNOTS ((3, 2, 2, 2, 3), (3, 3), (0., 0.25, 0.5, 0.75, 1.), (0., 1.), .UNSPECIFIED.)
   GEOMETRIC_REPRESENTATION_ITEM ()
   RATIONAL_B_SPLINE_SURFACE (((1., 0.707106781186548, 1.), (0.707106781186548, 0.5, 0.707106781186548), (1., 0.707106781186548, 1.), (0.707106781186548, 0.5, 0.707106781186548), (1., 0.707106781186548, 1.), (0.707106781186548, 0.5, 0.707106781186548), (1., 0.707106781186548, 1.), (0.707106781186548, 0.5, 0.707106781186548), (1., 0.707106781186548, 1.)))
   REPRESENTATION_ITEM ('')
   SURFACE ()
);
#196 = CARTESIAN_POINT('', (-5., 6.30693101560887E-15, -98.));
#197 = CARTESIAN_POINT('', (-5., 6.4293956955236E-15, -100.));
#198 = CARTESIAN_POINT('', (-3., 6.30693101560887E-15, -100.));
#199 = CARTESIAN_POINT('', (-5., 5.00000000000001, -98.));
#200 = CARTESIAN_POINT('', (-5., 5.00000000000001, -100.));
#201 = CARTESIAN_POINT('', (-3., 3.00000000000001, -100.));
#202 = CARTESIAN_POINT('', (4.91287556119693E-16, 5., -98.));
#203 = CARTESIAN_POINT('', (6.13752236034422E-16, 5., -100.));
#204 = CARTESIAN_POINT('', (6.13752236034428E-16, 3., -100.));
#205 = CARTESIAN_POINT('', (5., 5., -98.));
#206 = CARTESIAN_POINT('', (5., 5., -100.));
#207 = CARTESIAN_POINT('', (3., 3., -100.));
#208 = CARTESIAN_POINT('', (5., 4.07535500066618E-15, -98.));
#209 = CARTESIAN_POINT('', (5., 3.95289032075145E-15, -100.));
#210 = CARTESIAN_POINT('', (3., 3.83042564083671E-15, -100.));
#211 = CARTESIAN_POINT('', (5., -5., -98.));
#212 = CARTESIAN_POINT('', (5., -5., -100.));
#213 = CARTESIAN_POINT('', (3., -3., -100.));
#214 = CARTESIAN_POINT('', (-1.12796505924932E-15, -4.99999999999999, -98.));
#215 = CARTESIAN_POINT('', (-1.25042973916405E-15, -4.99999999999999, -100.));
#216 = CARTESIAN_POINT('', (-1.49535909899352E-15, -2.99999999999999, -100.));
#217 = CARTESIAN_POINT('', (-5., -4.99999999999999, -98.));
#218 = CARTESIAN_POINT('', (-5., -4.99999999999999, -100.));
#219 = CARTESIAN_POINT('', (-3., -2.99999999999999, -100.));
#220 = CARTESIAN_POINT('', (-5., 6.30693101560887E-15, -98.));
#221 = CARTESIAN_POINT('', (-5., 6.4293956955236E-15, -100.));
#222 = CARTESIAN_POINT('', (-3., 6.30693101560887E-15, -100.));
#223 = ADVANCED_FACE('', (#224), #227, .T.);
#224 = FACE_OUTER_BOUND('', #225, .T.);
#225 = EDGE_LOOP('', (#226));
#226 = ORIENTED_EDGE('', *, *, #189, .T.);
#227 = B_SPLINE_SURFACE_WITH_KNOTS('', 1, 1, ((#228, #229), (#230, #231)), .UNSPECIFIED., .F., .F., .U., (2, 2), (2, 2), (1.66690475583121, 7.66690475583121), (1.66690475583122, 7.66690475583122), .UNSPECIFIED.);
#228 = CARTESIAN_POINT('', (3., -2.99999999999999, -100.));
#229 = CARTESIAN_POINT('', (3., 3.00000000000001, -100.));
#230 = CARTESIAN_POINT('', (-3., -2.99999999999999, -100.));
#231 = CARTESIAN_POINT('', (-3., 3.00000000000001, -100.));
#232 = PRESENTATION_STYLE_ASSIGNMENT((#233));
#233 = SURFACE_STYLE_USAGE(.POSITIVE., #234);
#234 = SURFACE_SIDE_STYLE('', (#235));
#235 = SURFACE_STYLE_FILL_AREA(#236);
#236 = FILL_AREA_STYLE('', (#237));
#237 = FILL_AREA_STYLE_COLOUR('', #238);
#238 = COLOUR_RGB('', 0.8, 0.8, 0.8);
#239 = STYLED_ITEM('', (#232), #116);
#240 = TRIMMED_CURVE('cutting part line', #241, (#245), (#246), .T., .CARTESIAN.);
#241 = LINE('', #242, #243);
#242 = CARTESIAN_POINT('', (-8.77359472857187E-31, -4.77612251667468E-15, -78.));
#243 = VECTOR('', #244, 5.);
#244 = DIRECTION('', (5., -9.18485099360516E-16, 0.));
#245 = CARTESIAN_POINT('', (-8.77359472857187E-31, -4.77612251667468E-15, -78.));
#246 = CARTESIAN_POINT('', (5., -5.6946076160352E-15, -78.));
#247 = TRIMMED_CURVE('cutting part line', #248, (#252), (#253), .T., .CARTESIAN.);
#248 = LINE('', #249, #250);
#249 = CARTESIAN_POINT('', (5., -5.6946076160352E-15, -78.));
#250 = VECTOR('', #251, 20.);
#251 = DIRECTION('', (0., -1.22464679914735E-15, -20.));
#252 = CARTESIAN_POINT('', (5., -5.6946076160352E-15, -78.));
#253 = CARTESIAN_POINT('', (5., -6.91925441518255E-15, -98.));
#254 = TRIMMED_CURVE('cutting part line', #255, (#260), (#261), .T., .CARTESIAN.);
#255 = CIRCLE('', #256, 1.99999999999997);
#256 = AXIS2_PLACEMENT_3D('', #257, #258, #259);
#257 = CARTESIAN_POINT('', (3.00000000000003, -6.55186037543836E-15, -98.));
#258 = DIRECTION('', (1.83697019872099E-16, 1., -6.12323399573644E-17));
#259 = DIRECTION('', (1., -1.83697019872098E-16, 1.42108547152022E-14));
#260 = CARTESIAN_POINT('', (5., -6.91925441518255E-15, -98.));
#261 = CARTESIAN_POINT('', (3., -6.67432505535308E-15, -100.));
#262 = TRIMMED_CURVE('cutting part line', #263, (#267), (#268), .T., .CARTESIAN.);
#263 = LINE('', #264, #265);
#264 = CARTESIAN_POINT('', (3., -6.67432505535308E-15, -100.));
#265 = VECTOR('', #266, 3.);
#266 = DIRECTION('', (-3., 5.51091059616307E-16, 0.));
#267 = CARTESIAN_POINT('', (3., -6.67432505535308E-15, -100.));
#268 = CARTESIAN_POINT('', (-7.49879891330929E-31, -6.12323399573677E-15, -100.));
#269 = TRIMMED_CURVE('cutting part line', #270, (#274), (#275), .T., .CARTESIAN.);
#270 = LINE('', #271, #272);
#271 = CARTESIAN_POINT('', (-1.12481983699639E-30, -6.12323399573677E-15, -100.));
#272 = VECTOR('', #273, 22.);
#273 = DIRECTION('', (2.47460364139207E-31, 1.34711147906209E-15, 22.));
#274 = CARTESIAN_POINT('', (-1.12481983699639E-30, -6.12323399573677E-15, -100.));
#275 = CARTESIAN_POINT('', (-8.77359472857187E-31, -4.77612251667468E-15, -78.));
#276 = COMPOSITE_CURVE('cutting part line', (#277, #278, #279, #280, #281), .U.);
#277 = COMPOSITE_CURVE_SEGMENT(.CONTINUOUS., .T., #240);
#278 = COMPOSITE_CURVE_SEGMENT(.CONTINUOUS., .T., #247);
#279 = COMPOSITE_CURVE_SEGMENT(.CONTINUOUS., .T., #254);
#280 = COMPOSITE_CURVE_SEGMENT(.CONTINUOUS., .T., #262);
#281 = COMPOSITE_CURVE_SEGMENT(.CONTINUOUS., .T., #269);
#282 = GEOMETRIC_SET('', (#276, #325));
#283 = PRESENTATION_STYLE_ASSIGNMENT((#284));
#284 = CURVE_STYLE('', #286, POSITIVE_LENGTH_MEASURE(1.E-6), #285);
#285 = COLOUR_RGB('', 0., 0., 1.);
#286 = DRAUGHTING_PRE_DEFINED_CURVE_FONT('continuous');
#287 = STYLED_ITEM('', (#283), #276);
#288 = PRESENTATION_STYLE_ASSIGNMENT((#289));
#289 = CURVE_STYLE('', #291, POSITIVE_LENGTH_MEASURE(1.E-6), #290);
#290 = COLOUR_RGB('', 0., 0., 1.);
#291 = DRAUGHTING_PRE_DEFINED_CURVE_FONT('continuous');
#292 = OVER_RIDING_STYLED_ITEM('', (#288), #240, #287);
#293 = PRESENTATION_STYLE_ASSIGNMENT((#294));
#294 = CURVE_STYLE('', #296, POSITIVE_LENGTH_MEASURE(1.E-6), #295);
#295 = COLOUR_RGB('', 0., 0., 1.);
#296 = DRAUGHTING_PRE_DEFINED_CURVE_FONT('continuous');
#297 = OVER_RIDING_STYLED_ITEM('', (#293), #247, #287);
#298 = PRESENTATION_STYLE_ASSIGNMENT((#299));
#299 = CURVE_STYLE('', #301, POSITIVE_LENGTH_MEASURE(1.E-6), #300);
#300 = COLOUR_RGB('', 0., 0., 1.);
#301 = DRAUGHTING_PRE_DEFINED_CURVE_FONT('continuous');
#302 = OVER_RIDING_STYLED_ITEM('', (#298), #254, #287);
#303 = PRESENTATION_STYLE_ASSIGNMENT((#304));
#304 = CURVE_STYLE('', #306, POSITIVE_LENGTH_MEASURE(1.E-6), #305);
#305 = COLOUR_RGB('', 0., 0., 1.);
#306 = DRAUGHTING_PRE_DEFINED_CURVE_FONT('continuous');
#307 = OVER_RIDING_STYLED_ITEM('', (#303), #262, #287);
#308 = PRESENTATION_STYLE_ASSIGNMENT((#309));
#309 = CURVE_STYLE('', #311, POSITIVE_LENGTH_MEASURE(1.E-6), #310);
#310 = COLOUR_RGB('', 0., 0., 1.);
#311 = DRAUGHTING_PRE_DEFINED_CURVE_FONT('continuous');
#312 = OVER_RIDING_STYLED_ITEM('', (#308), #269, #287);
#313 = AXIS2_PLACEMENT_3D('CIP', #314, #315, #316);
#314 = CARTESIAN_POINT('', (3.74939945665464E-31, 6.12323399573677E-15, -100.));
#315 = DIRECTION('', (-3.74939945665465E-33, -6.12323399573677E-17, 1.));
#316 = DIRECTION('', (1., -6.12323399573677E-17, 0.));
#317 = AXIS2_PLACEMENT_3D('MCS', #318, #319, #320);
#318 = CARTESIAN_POINT('', (1.49975978266186E-31, 2.44929359829471E-15, -40.));
#319 = DIRECTION('', (-3.74939945665465E-33, -6.12323399573677E-17, 1.));
#320 = DIRECTION('', (1., -6.12323399573677E-17, 0.));
#321 = AXIS2_PLACEMENT_3D('PCS', #322, #323, #324);
#322 = CARTESIAN_POINT('', (0., 0., 0.));
#323 = DIRECTION('', (0., 0., 1.));
#324 = DIRECTION('', (1., 0., 0.));
#325 = CARTESIAN_POINT('CRP', (5., 0., -100.));
#326 = (
   GEOMETRIC_REPRESENTATION_CONTEXT (3)
   GLOBAL_UNCERTAINTY_ASSIGNED_CONTEXT ((#328))
   GLOBAL_UNIT_ASSIGNED_CONTEXT ((#327, #329, #330))
   REPRESENTATION_CONTEXT ('', '3D')
);
#327 = (
   LENGTH_UNIT ()
   NAMED_UNIT (*)
   SI_UNIT (.MILLI., .METRE.)
);
#328 = UNCERTAINTY_MEASURE_WITH_UNIT(LENGTH_MEASURE(1.E-6), #327, 'DISTANCE_ACCURACY_VALUE', '');
#329 = (
   NAMED_UNIT (*)
   SI_UNIT ($, .STERADIAN.)
   SOLID_ANGLE_UNIT ()
);
#330 = (
   NAMED_UNIT (*)
   PLANE_ANGLE_UNIT ()
   SI_UNIT ($, .RADIAN.)
);
#331 = SHAPE_REPRESENTATION('', (), #326);
#332 = PRODUCT_DEFINITION_SHAPE('', '', #333);
#333 = PRODUCT_DEFINITION('', '', #336, #340);
#334 = APPLICATION_CONTEXT('configuration controlled 3D designs of mechanical parts and assemblies');
#335 = APPLICATION_PROTOCOL_DEFINITION('International Standard', 'automotive_design', 2002, #334);
#336 = PRODUCT_DEFINITION_FORMATION_WITH_SPECIFIED_SOURCE('', '', #337, .NOT_KNOWN.);
#337 = PRODUCT('EmptyName', 'EmptyName', '', (#338));
#338 = PRODUCT_CONTEXT('', #334, 'mechanical');
#339 = PRODUCT_RELATED_PRODUCT_CATEGORY('detail', '', (#337));
#340 = PRODUCT_DEFINITION_CONTEXT('part definition', #334, 'design');
#341 = SHAPE_DEFINITION_REPRESENTATION(#332, #331);
#342 = CONSTRUCTIVE_GEOMETRY_REPRESENTATION('supplemental geometry', (#313, #317, #321), #326);
#343 = CONSTRUCTIVE_GEOMETRY_REPRESENTATION_RELATIONSHIP('', '', #331, #342);
#344 = SHAPE_REPRESENTATION_RELATIONSHIP('', '', #331, #345);
#345 = SHAPE_REPRESENTATION('', (#282), #326);
#346 = SHAPE_REPRESENTATION_RELATIONSHIP('', '', #331, #347);
#347 = ADVANCED_BREP_SHAPE_REPRESENTATION('', (#1, #116), #326);
ENDSEC;
END-ISO-10303-21;
