ISO-10303-21;
HEADER;
FILE_DESCRIPTION(('STEP'), '1');
FILE_NAME('C:\\Users\\ds2002\\OneDrive - Sandvik\\HomeShare\\Documents\\Batchrepair\\CorSRT2\\NEW_MILSQ_SLD\\Output\\MOD000000000000000020084589300000.stp', '2019-01-02T12:06:19', (''), (''), 'Express v3.0.0.0', 'Express Tool', 'Unknown');
FILE_SCHEMA(('AUTOMOTIVE_DESIGN'));
ENDSEC;

DATA;
#1 = MANIFOLD_SOLID_BREP('NOCUT', #2);
#2 = CLOSED_SHELL('', (#3, #31, #48, #87, #126, #135));
#3 = ADVANCED_FACE('', (#4, #15), #26, .T.);
#4 = FACE_OUTER_BOUND('', #5, .T.);
#5 = EDGE_LOOP('', (#6));
#6 = ORIENTED_EDGE('', *, *, #7, .T.);
#7 = EDGE_CURVE('', #8, #8, #10, .T.);
#8 = VERTEX_POINT('', #9);
#9 = CARTESIAN_POINT('', (-5., 0., -42.));
#10 = CIRCLE('', #11, 5.);
#11 = AXIS2_PLACEMENT_3D('', #12, #13, #14);
#12 = CARTESIAN_POINT('', (-1.12410081243297E-15, 6.66133814775094E-16, -42.));
#13 = DIRECTION('', (0., 0., -1.));
#14 = DIRECTION('', (-1., -1.33226762955019E-16, 0.));
#15 = FACE_BOUND('', #16, .T.);
#16 = EDGE_LOOP('', (#17));
#17 = ORIENTED_EDGE('', *, *, #18, .F.);
#18 = EDGE_CURVE('', #19, #19, #21, .T.);
#19 = VERTEX_POINT('', #20);
#20 = CARTESIAN_POINT('', (-4.75, 0., -42.));
#21 = CIRCLE('', #22, 4.75);
#22 = AXIS2_PLACEMENT_3D('', #23, #24, #25);
#23 = CARTESIAN_POINT('', (-9.71445146547012E-16, 1.22124532708767E-15, -42.));
#24 = DIRECTION('', (0., 0., -1.));
#25 = DIRECTION('', (-1., -2.57104279386878E-16, 0.));
#26 = B_SPLINE_SURFACE_WITH_KNOTS('', 1, 1, ((#27, #28), (#29, #30)), .UNSPECIFIED., .F., .F., .U., (2, 2), (2, 2), (-5.001, 5.001), (-10.001, 0.00100000000000033), .UNSPECIFIED.);
#27 = CARTESIAN_POINT('', (5.001, -5.001, -42.));
#28 = CARTESIAN_POINT('', (5.001, 5.001, -42.));
#29 = CARTESIAN_POINT('', (-5.001, -5.001, -42.));
#30 = CARTESIAN_POINT('', (-5.001, 5.001, -42.));
#31 = ADVANCED_FACE('', (#32), #43, .T.);
#32 = FACE_OUTER_BOUND('', #33, .T.);
#33 = EDGE_LOOP('', (#34));
#34 = ORIENTED_EDGE('', *, *, #35, .T.);
#35 = EDGE_CURVE('', #36, #36, #38, .T.);
#36 = VERTEX_POINT('', #37);
#37 = CARTESIAN_POINT('', (-4.6, 0., 0.));
#38 = CIRCLE('', #39, 4.6);
#39 = AXIS2_PLACEMENT_3D('', #40, #41, #42);
#40 = CARTESIAN_POINT('', (-9.71445146547012E-17, -1.4432899320127E-15, 0.));
#41 = DIRECTION('', (0., 0., 1.));
#42 = DIRECTION('', (-1., 3.13758680872327E-16, 0.));
#43 = B_SPLINE_SURFACE_WITH_KNOTS('', 1, 1, ((#44, #45), (#46, #47)), .UNSPECIFIED., .F., .F., .U., (2, 2), (2, 2), (-4.601, 4.601), (-4.601, 4.601), .UNSPECIFIED.);
#44 = CARTESIAN_POINT('', (-4.601, -4.601, 0.));
#45 = CARTESIAN_POINT('', (-4.601, 4.601, 0.));
#46 = CARTESIAN_POINT('', (4.601, -4.601, 0.));
#47 = CARTESIAN_POINT('', (4.601, 4.601, 0.));
#48 = ADVANCED_FACE('', (#49), #68, .T.);
#49 = FACE_OUTER_BOUND('', #50, .T.);
#50 = EDGE_LOOP('', (#51, #59, #66, #67));
#51 = ORIENTED_EDGE('', *, *, #52, .T.);
#52 = EDGE_CURVE('', #8, #53, #55, .T.);
#53 = VERTEX_POINT('', #54);
#54 = CARTESIAN_POINT('', (-5., 0., -0.4));
#55 = LINE('', #56, #57);
#56 = CARTESIAN_POINT('', (-5., 0., -42.));
#57 = VECTOR('', #58, 41.6);
#58 = DIRECTION('', (0., 0., 41.6));
#59 = ORIENTED_EDGE('', *, *, #60, .T.);
#60 = EDGE_CURVE('', #53, #53, #61, .T.);
#61 = CIRCLE('', #62, 5.);
#62 = AXIS2_PLACEMENT_3D('', #63, #64, #65);
#63 = CARTESIAN_POINT('', (-1.12410081243297E-15, 6.66133814775094E-16, -0.4));
#64 = DIRECTION('', (-5.03422089929283E-33, 3.77868589435932E-17, -1.));
#65 = DIRECTION('', (-1., -1.33226762955019E-16, 0.));
#66 = ORIENTED_EDGE('', *, *, #52, .F.);
#67 = ORIENTED_EDGE('', *, *, #7, .F.);
#68 = (
   BOUNDED_SURFACE ()
   B_SPLINE_SURFACE (2, 1, ((#69, #70), (#71, #72), (#73, #74), (#75, #76), (#77, #78), (#79, #80), (#81, #82), (#83, #84), (#85, #86)), .UNSPECIFIED., .T., .F., .U.)
   B_SPLINE_SURFACE_WITH_KNOTS ((3, 2, 2, 2, 3), (2, 2), (0., 0.25, 0.5, 0.75, 1.), (0., 1.), .UNSPECIFIED.)
   GEOMETRIC_REPRESENTATION_ITEM ()
   RATIONAL_B_SPLINE_SURFACE (((1., 1.), (0.707106781186548, 0.707106781186548), (1., 1.), (0.707106781186548, 0.707106781186548), (1., 1.), (0.707106781186548, 0.707106781186548), (1., 1.), (0.707106781186548, 0.707106781186548), (1., 1.)))
   REPRESENTATION_ITEM ('')
   SURFACE ()
);
#69 = CARTESIAN_POINT('', (-5., 0., 3.7612));
#70 = CARTESIAN_POINT('', (-5., 0., -46.1612));
#71 = CARTESIAN_POINT('', (-5., 5., 3.7612));
#72 = CARTESIAN_POINT('', (-5., 5., -46.1612));
#73 = CARTESIAN_POINT('', (-9.72295514561932E-16, 5., 3.7612));
#74 = CARTESIAN_POINT('', (-9.72295514561932E-16, 5., -46.1612));
#75 = CARTESIAN_POINT('', (5., 5., 3.7612));
#76 = CARTESIAN_POINT('', (5., 5., -46.1612));
#77 = CARTESIAN_POINT('', (5., 1.5005018192738E-15, 3.7612));
#78 = CARTESIAN_POINT('', (5., 1.5005018192738E-15, -46.1612));
#79 = CARTESIAN_POINT('', (5., -5., 3.7612));
#80 = CARTESIAN_POINT('', (5., -5., -46.1612));
#81 = CARTESIAN_POINT('', (1.14052970428555E-15, -5., 3.7612));
#82 = CARTESIAN_POINT('', (1.14052970428555E-15, -5., -46.1612));
#83 = CARTESIAN_POINT('', (-5., -5., 3.7612));
#84 = CARTESIAN_POINT('', (-5., -5., -46.1612));
#85 = CARTESIAN_POINT('', (-5., 0., 3.7612));
#86 = CARTESIAN_POINT('', (-5., 0., -46.1612));
#87 = ADVANCED_FACE('', (#88), #107, .T.);
#88 = FACE_OUTER_BOUND('', #89, .T.);
#89 = EDGE_LOOP('', (#90, #98, #99, #100));
#90 = ORIENTED_EDGE('', *, *, #91, .T.);
#91 = EDGE_CURVE('', #92, #19, #94, .T.);
#92 = VERTEX_POINT('', #93);
#93 = CARTESIAN_POINT('', (-4.75, 0., -50.));
#94 = LINE('', #95, #96);
#95 = CARTESIAN_POINT('', (-4.75, -1.97215226305253E-31, -50.));
#96 = VECTOR('', #97, 8.);
#97 = DIRECTION('', (0., 0., 8.));
#98 = ORIENTED_EDGE('', *, *, #18, .T.);
#99 = ORIENTED_EDGE('', *, *, #91, .F.);
#100 = ORIENTED_EDGE('', *, *, #101, .F.);
#101 = EDGE_CURVE('', #92, #92, #102, .T.);
#102 = CIRCLE('', #103, 4.75);
#103 = AXIS2_PLACEMENT_3D('', #104, #105, #106);
#104 = CARTESIAN_POINT('', (-9.71445146547012E-16, 1.22124532708767E-15, -50.));
#105 = DIRECTION('', (-1.30899040188445E-30, 5.09128204713678E-15, -1.));
#106 = DIRECTION('', (-1., -2.57104279386878E-16, 0.));
#107 = (
   BOUNDED_SURFACE ()
   B_SPLINE_SURFACE (2, 1, ((#108, #109), (#110, #111), (#112, #113), (#114, #115), (#116, #117), (#118, #119), (#120, #121), (#122, #123), (#124, #125)), .UNSPECIFIED., .T., .F., .U.)
   B_SPLINE_SURFACE_WITH_KNOTS ((3, 2, 2, 2, 3), (2, 2), (0., 0.25, 0.5, 0.75, 1.), (0., 1.), .UNSPECIFIED.)
   GEOMETRIC_REPRESENTATION_ITEM ()
   RATIONAL_B_SPLINE_SURFACE (((1., 1.), (0.707106781186548, 0.707106781186548), (1., 1.), (0.707106781186548, 0.707106781186548), (1., 1.), (0.707106781186548, 0.707106781186548), (1., 1.), (0.707106781186548, 0.707106781186548), (1., 1.)))
   REPRESENTATION_ITEM ('')
   SURFACE ()
);
#108 = CARTESIAN_POINT('', (-4.75, -1.97215226305253E-31, -41.1988));
#109 = CARTESIAN_POINT('', (-4.75, -1.97215226305253E-31, -50.8012));
#110 = CARTESIAN_POINT('', (-4.75, 4.75, -41.1988));
#111 = CARTESIAN_POINT('', (-4.75, 4.75, -50.8012));
#112 = CARTESIAN_POINT('', (-2.66395532993377E-15, 4.75, -41.1988));
#113 = CARTESIAN_POINT('', (-2.66395532993377E-15, 4.75, -50.8012));
#114 = CARTESIAN_POINT('', (4.75, 4.75, -41.1988));
#115 = CARTESIAN_POINT('', (4.75, 4.75, -50.8012));
#116 = CARTESIAN_POINT('', (4.75, 1.69193025422015E-15, -41.1988));
#117 = CARTESIAN_POINT('', (4.75, 1.69193025422015E-15, -50.8012));
#118 = CARTESIAN_POINT('', (4.75, -4.75, -41.1988));
#119 = CARTESIAN_POINT('', (4.75, -4.75, -50.8012));
#120 = CARTESIAN_POINT('', (-3.90317846118626E-16, -4.75, -41.1988));
#121 = CARTESIAN_POINT('', (-3.90317846118626E-16, -4.75, -50.8012));
#122 = CARTESIAN_POINT('', (-4.75, -4.75, -41.1988));
#123 = CARTESIAN_POINT('', (-4.75, -4.75, -50.8012));
#124 = CARTESIAN_POINT('', (-4.75, -1.97215226305253E-31, -41.1988));
#125 = CARTESIAN_POINT('', (-4.75, -1.97215226305253E-31, -50.8012));
#126 = ADVANCED_FACE('', (#127), #130, .T.);
#127 = FACE_OUTER_BOUND('', #128, .T.);
#128 = EDGE_LOOP('', (#129));
#129 = ORIENTED_EDGE('', *, *, #101, .T.);
#130 = B_SPLINE_SURFACE_WITH_KNOTS('', 1, 1, ((#131, #132), (#133, #134)), .UNSPECIFIED., .F., .F., .U., (2, 2), (2, 2), (-4.751, 4.751), (-9.501, 0.00100000000000033), .UNSPECIFIED.);
#131 = CARTESIAN_POINT('', (4.751, -4.751, -50.));
#132 = CARTESIAN_POINT('', (4.751, 4.751, -50.));
#133 = CARTESIAN_POINT('', (-4.751, -4.751, -50.));
#134 = CARTESIAN_POINT('', (-4.751, 4.751, -50.));
#135 = ADVANCED_FACE('', (#136), #147, .T.);
#136 = FACE_OUTER_BOUND('', #137, .T.);
#137 = EDGE_LOOP('', (#138, #144, #145, #146));
#138 = ORIENTED_EDGE('', *, *, #139, .T.);
#139 = EDGE_CURVE('', #53, #36, #140, .T.);
#140 = LINE('', #141, #142);
#141 = CARTESIAN_POINT('', (-5., -1.62788860985325E-15, -0.399999999999999));
#142 = VECTOR('', #143, 0.565685424949239);
#143 = DIRECTION('', (0.400000000000001, 1.6238290372601E-15, 0.4));
#144 = ORIENTED_EDGE('', *, *, #35, .F.);
#145 = ORIENTED_EDGE('', *, *, #139, .F.);
#146 = ORIENTED_EDGE('', *, *, #60, .F.);
#147 = (
   BOUNDED_SURFACE ()
   B_SPLINE_SURFACE (2, 1, ((#148, #149), (#150, #151), (#152, #153), (#154, #155), (#156, #157), (#158, #159), (#160, #161), (#162, #163), (#164, #165)), .UNSPECIFIED., .T., .F., .U.)
   B_SPLINE_SURFACE_WITH_KNOTS ((3, 2, 2, 2, 3), (2, 2), (0., 0.25, 0.5, 0.75, 1.), (0., 1.), .UNSPECIFIED.)
   GEOMETRIC_REPRESENTATION_ITEM ()
   RATIONAL_B_SPLINE_SURFACE (((1., 1.), (0.707106781186548, 0.707106781186548), (1., 1.), (0.707106781186548, 0.707106781186548), (1., 1.), (0.707106781186548, 0.707106781186548), (1., 1.), (0.707106781186548, 0.707106781186548), (1., 1.)))
   REPRESENTATION_ITEM ('')
   SURFACE ()
);
#148 = CARTESIAN_POINT('', (-4.599, 0., 0.0010000000000002));
#149 = CARTESIAN_POINT('', (-5.001, -1.6319481824464E-15, -0.401));
#150 = CARTESIAN_POINT('', (-4.599, 4.599, 0.000999999999982421));
#151 = CARTESIAN_POINT('', (-5.001, 5.001, -0.401000000000019));
#152 = CARTESIAN_POINT('', (-1.40570834389691E-15, 4.599, 0.000999999999982219));
#153 = CARTESIAN_POINT('', (-1.52558699517089E-15, 5.001, -0.401000000000019));
#154 = CARTESIAN_POINT('', (4.599, 4.599, 0.000999999999982017));
#155 = CARTESIAN_POINT('', (5.001, 5.001, -0.40100000000002));
#156 = CARTESIAN_POINT('', (4.599, 2.33957190232812E-15, 0.000999999999999799));
#157 = CARTESIAN_POINT('', (5.001, 9.12126417149802E-16, -0.401));
#158 = CARTESIAN_POINT('', (4.599, -4.599, 0.00100000000001758));
#159 = CARTESIAN_POINT('', (5.001, -5.001, -0.400999999999981));
#160 = CARTESIAN_POINT('', (1.49707862135908E-15, -4.599, 0.00100000000001778));
#161 = CARTESIAN_POINT('', (1.63093346867891E-15, -5.001, -0.400999999999981));
#162 = CARTESIAN_POINT('', (-4.599, -4.599, 0.00100000000001798));
#163 = CARTESIAN_POINT('', (-5.001, -5.001, -0.40099999999998));
#164 = CARTESIAN_POINT('', (-4.599, 0., 0.0010000000000002));
#165 = CARTESIAN_POINT('', (-5.001, -1.6319481824464E-15, -0.401));
#166 = DRAUGHTING_MODEL('', (#174, #362, #410, #415, #420, #425, #430, #435), #449);
#167 = PRESENTATION_STYLE_ASSIGNMENT((#168));
#168 = SURFACE_STYLE_USAGE(.POSITIVE., #169);
#169 = SURFACE_SIDE_STYLE('', (#170));
#170 = SURFACE_STYLE_FILL_AREA(#171);
#171 = FILL_AREA_STYLE('', (#172));
#172 = FILL_AREA_STYLE_COLOUR('', #173);
#173 = COLOUR_RGB('', 0.50196078431373, 0.50196078431373, 0.50196078431373);
#174 = STYLED_ITEM('', (#167), #1);
#175 = MANIFOLD_SOLID_BREP('CUT', #176);
#176 = CLOSED_SHELL('', (#177, #194, #242, #259));
#177 = ADVANCED_FACE('', (#178), #189, .T.);
#178 = FACE_OUTER_BOUND('', #179, .T.);
#179 = EDGE_LOOP('', (#180));
#180 = ORIENTED_EDGE('', *, *, #181, .F.);
#181 = EDGE_CURVE('', #182, #182, #184, .T.);
#182 = VERTEX_POINT('', #183);
#183 = CARTESIAN_POINT('', (-5., 0., -50.));
#184 = CIRCLE('', #185, 5.);
#185 = AXIS2_PLACEMENT_3D('', #186, #187, #188);
#186 = CARTESIAN_POINT('', (-1.12410081243297E-15, 6.66133814775094E-16, -50.));
#187 = DIRECTION('', (-6.44380275109482E-31, 4.83671794477993E-15, -1.));
#188 = DIRECTION('', (-1., -1.33226762955019E-16, 0.));
#189 = B_SPLINE_SURFACE_WITH_KNOTS('', 1, 1, ((#190, #191), (#192, #193)), .UNSPECIFIED., .F., .F., .U., (2, 2), (2, 2), (-5.001, 5.001), (-5.001, 5.00100000000001), .UNSPECIFIED.);
#190 = CARTESIAN_POINT('', (-5.001, -5.001, -50.));
#191 = CARTESIAN_POINT('', (-5.001, 5.001, -50.));
#192 = CARTESIAN_POINT('', (5.001, -5.001, -50.));
#193 = CARTESIAN_POINT('', (5.001, 5.001, -50.));
#194 = ADVANCED_FACE('', (#195), #223, .T.);
#195 = FACE_OUTER_BOUND('', #196, .T.);
#196 = EDGE_LOOP('', (#197, #205, #206, #207, #216));
#197 = ORIENTED_EDGE('', *, *, #198, .T.);
#198 = EDGE_CURVE('', #199, #182, #201, .T.);
#199 = VERTEX_POINT('', #200);
#200 = CARTESIAN_POINT('', (-5., 6.12323399573677E-16, -71.));
#201 = LINE('', #202, #203);
#202 = CARTESIAN_POINT('', (-5.00000000000003, -2.93755798143221E-30, -71.));
#203 = VECTOR('', #204, 21.);
#204 = DIRECTION('', (3.01980662698043E-14, 2.67036853540407E-30, 21.));
#205 = ORIENTED_EDGE('', *, *, #181, .T.);
#206 = ORIENTED_EDGE('', *, *, #198, .F.);
#207 = ORIENTED_EDGE('', *, *, #208, .T.);
#208 = EDGE_CURVE('', #199, #209, #211, .T.);
#209 = VERTEX_POINT('', #210);
#210 = CARTESIAN_POINT('', (5., 0., -71.));
#211 = CIRCLE('', #212, 5.);
#212 = AXIS2_PLACEMENT_3D('', #213, #214, #215);
#213 = CARTESIAN_POINT('', (1.12410081243297E-15, 6.66133814775094E-16, -71.));
#214 = DIRECTION('', (0., 0., 1.));
#215 = DIRECTION('', (1., -1.33226762955019E-16, 0.));
#216 = ORIENTED_EDGE('', *, *, #217, .T.);
#217 = EDGE_CURVE('', #209, #199, #218, .T.);
#218 = CIRCLE('', #219, 5.);
#219 = AXIS2_PLACEMENT_3D('', #220, #221, #222);
#220 = CARTESIAN_POINT('', (1.12410081243297E-15, 6.66133814775094E-16, -71.));
#221 = DIRECTION('', (0., 0., 1.));
#222 = DIRECTION('', (1., -1.33226762955019E-16, 0.));
#223 = (
   BOUNDED_SURFACE ()
   B_SPLINE_SURFACE (2, 1, ((#224, #225), (#226, #227), (#228, #229), (#230, #231), (#232, #233), (#234, #235), (#236, #237), (#238, #239), (#240, #241)), .UNSPECIFIED., .T., .F., .U.)
   B_SPLINE_SURFACE_WITH_KNOTS ((3, 2, 2, 2, 3), (2, 2), (0., 0.25, 0.5, 0.75, 1.), (0., 1.), .UNSPECIFIED.)
   GEOMETRIC_REPRESENTATION_ITEM ()
   RATIONAL_B_SPLINE_SURFACE (((1., 1.), (0.707106781186548, 0.707106781186548), (1., 1.), (0.707106781186548, 0.707106781186548), (1., 1.), (0.707106781186548, 0.707106781186548), (1., 1.), (0.707106781186548, 0.707106781186548), (1., 1.)))
   REPRESENTATION_ITEM ('')
   SURFACE ()
);
#224 = CARTESIAN_POINT('', (-5., 0., -47.8988));
#225 = CARTESIAN_POINT('', (-5.00000000000004, -3.20474742746036E-30, -73.1012));
#226 = CARTESIAN_POINT('', (-5., 5., -47.8988));
#227 = CARTESIAN_POINT('', (-5.00000000000004, 5., -73.1012));
#228 = CARTESIAN_POINT('', (-9.72295514561932E-16, 5., -47.8988));
#229 = CARTESIAN_POINT('', (-3.67870600020026E-14, 5., -73.1012));
#230 = CARTESIAN_POINT('', (5., 5., -47.8988));
#231 = CARTESIAN_POINT('', (4.99999999999996, 5., -73.1012));
#232 = CARTESIAN_POINT('', (5., 1.5005018192738E-15, -47.8988));
#233 = CARTESIAN_POINT('', (4.99999999999996, 1.5005018192738E-15, -73.1012));
#234 = CARTESIAN_POINT('', (5., -5., -47.8988));
#235 = CARTESIAN_POINT('', (4.99999999999996, -5., -73.1012));
#236 = CARTESIAN_POINT('', (1.14052970428555E-15, -5., -47.8988));
#237 = CARTESIAN_POINT('', (-3.46742347831552E-14, -5., -73.1012));
#238 = CARTESIAN_POINT('', (-5., -5., -47.8988));
#239 = CARTESIAN_POINT('', (-5.00000000000003, -5., -73.1012));
#240 = CARTESIAN_POINT('', (-5., 0., -47.8988));
#241 = CARTESIAN_POINT('', (-5.00000000000004, -3.20474742746036E-30, -73.1012));
#242 = ADVANCED_FACE('', (#243), #254, .T.);
#243 = FACE_OUTER_BOUND('', #244, .T.);
#244 = EDGE_LOOP('', (#245));
#245 = ORIENTED_EDGE('', *, *, #246, .T.);
#246 = EDGE_CURVE('', #247, #247, #249, .T.);
#247 = VERTEX_POINT('', #248);
#248 = CARTESIAN_POINT('', (4., 0., -72.));
#249 = CIRCLE('', #250, 4.);
#250 = AXIS2_PLACEMENT_3D('', #251, #252, #253);
#251 = CARTESIAN_POINT('', (-2.91433543964104E-16, 1.4432899320127E-15, -72.));
#252 = DIRECTION('', (0., 0., -1.));
#253 = DIRECTION('', (1., -3.60822483003176E-16, 0.));
#254 = B_SPLINE_SURFACE_WITH_KNOTS('', 1, 1, ((#255, #256), (#257, #258)), .UNSPECIFIED., .F., .F., .U., (2, 2), (2, 2), (-4.001, 4.001), (-9.001, -0.998999999999999), .UNSPECIFIED.);
#255 = CARTESIAN_POINT('', (4.001, -4.001, -72.));
#256 = CARTESIAN_POINT('', (4.001, 4.001, -72.));
#257 = CARTESIAN_POINT('', (-4.001, -4.001, -72.));
#258 = CARTESIAN_POINT('', (-4.001, 4.001, -72.));
#259 = ADVANCED_FACE('', (#260), #273, .T.);
#260 = FACE_OUTER_BOUND('', #261, .T.);
#261 = EDGE_LOOP('', (#262, #269, #270, #271, #272));
#262 = ORIENTED_EDGE('', *, *, #263, .T.);
#263 = EDGE_CURVE('', #209, #247, #264, .T.);
#264 = CIRCLE('', #265, 1.00000000000001);
#265 = AXIS2_PLACEMENT_3D('', #266, #267, #268);
#266 = CARTESIAN_POINT('', (3.99999999999999, 0., -71.));
#267 = DIRECTION('', (0., 1., 0.));
#268 = DIRECTION('', (1., 0., 0.));
#269 = ORIENTED_EDGE('', *, *, #246, .F.);
#270 = ORIENTED_EDGE('', *, *, #263, .F.);
#271 = ORIENTED_EDGE('', *, *, #208, .F.);
#272 = ORIENTED_EDGE('', *, *, #217, .F.);
#273 = (
   BOUNDED_SURFACE ()
   B_SPLINE_SURFACE (2, 2, ((#274, #275, #276, #277, #278, #279, #280, #281, #282), (#283, #284, #285, #286, #287, #288, #289, #290, #291), (#292, #293, #294, #295, #296, #297, #298, #299, #300), (#301, #302, #303, #304, #305, #306, #307, #308, #309), (#310, #311, #312, #313, #314, #315, #316, #317, #318), (#319, #320, #321, #322, #323, #324, #325, #326, #327), (#328, #329, #330, #331, #332, #333, #334, #335, #336), (#337, #338, #339, #340, #341, #342, #343, #344, #345), (#346, #347, #348, #349, #350, #351, #352, #353, #354)), .UNSPECIFIED., .T., .T., .U.)
   B_SPLINE_SURFACE_WITH_KNOTS ((3, 2, 2, 2, 3), (3, 2, 2, 2, 3), (0., 0.25, 0.5, 0.75, 1.), (0., 0.25, 0.5, 0.75, 1.), .UNSPECIFIED.)
   GEOMETRIC_REPRESENTATION_ITEM ()
   RATIONAL_B_SPLINE_SURFACE (((1., 0.707106781186548, 1., 0.707106781186548, 1., 0.707106781186548, 1., 0.707106781186548, 1.), (0.707106781186548, 0.5, 0.707106781186548, 0.5, 0.707106781186548, 0.5, 0.707106781186548, 0.5, 0.707106781186548), (1., 0.707106781186548, 1., 0.707106781186548, 1., 0.707106781186548, 1., 0.707106781186548, 1.), (0.707106781186548, 0.5, 0.707106781186548, 0.5, 0.707106781186548, 0.5, 0.707106781186548, 0.5, 0.707106781186548), (1., 0.707106781186548, 1., 0.707106781186548, 1., 0.707106781186548, 1., 0.707106781186548, 1.), (0.707106781186548, 0.5, 0.707106781186548, 0.5, 0.707106781186548, 0.5, 0.707106781186548, 0.5, 0.707106781186548), (1., 0.707106781186548, 1., 0.707106781186548, 1., 0.707106781186548, 1., 0.707106781186548, 1.), (0.707106781186548, 0.5, 0.707106781186548, 0.5, 0.707106781186548, 0.5, 0.707106781186548, 0.5, 0.707106781186548), (1., 0.707106781186548, 1., 0.707106781186548, 1., 0.707106781186548, 1., 0.707106781186548, 1.)))
   REPRESENTATION_ITEM ('')
   SURFACE ()
);
#274 = CARTESIAN_POINT('', (5., 0., -71.));
#275 = CARTESIAN_POINT('', (5., 0., -70.));
#276 = CARTESIAN_POINT('', (4., 0., -70.));
#277 = CARTESIAN_POINT('', (3., 0., -70.));
#278 = CARTESIAN_POINT('', (3., 0., -71.));
#279 = CARTESIAN_POINT('', (3., 0., -72.));
#280 = CARTESIAN_POINT('', (4., 0., -72.));
#281 = CARTESIAN_POINT('', (5., 0., -72.));
#282 = CARTESIAN_POINT('', (5., 0., -71.));
#283 = CARTESIAN_POINT('', (5., 5., -71.));
#284 = CARTESIAN_POINT('', (5., 5., -70.));
#285 = CARTESIAN_POINT('', (4., 4., -70.));
#286 = CARTESIAN_POINT('', (3., 3., -70.));
#287 = CARTESIAN_POINT('', (3., 3., -71.));
#288 = CARTESIAN_POINT('', (3., 3., -72.));
#289 = CARTESIAN_POINT('', (4., 4., -72.));
#290 = CARTESIAN_POINT('', (5., 5., -72.));
#291 = CARTESIAN_POINT('', (5., 5., -71.));
#292 = CARTESIAN_POINT('', (9.72295514561932E-16, 5., -71.));
#293 = CARTESIAN_POINT('', (9.72295514561932E-16, 5., -70.));
#294 = CARTESIAN_POINT('', (9.11063174604565E-16, 4., -70.));
#295 = CARTESIAN_POINT('', (8.49830834647197E-16, 3., -70.));
#296 = CARTESIAN_POINT('', (8.49830834647197E-16, 3., -71.));
#297 = CARTESIAN_POINT('', (8.49830834647197E-16, 3., -72.));
#298 = CARTESIAN_POINT('', (9.11063174604565E-16, 4., -72.));
#299 = CARTESIAN_POINT('', (9.72295514561932E-16, 5., -72.));
#300 = CARTESIAN_POINT('', (9.72295514561932E-16, 5., -71.));
#301 = CARTESIAN_POINT('', (-5., 5., -71.));
#302 = CARTESIAN_POINT('', (-5., 5., -70.));
#303 = CARTESIAN_POINT('', (-4., 4., -70.));
#304 = CARTESIAN_POINT('', (-3., 3., -70.));
#305 = CARTESIAN_POINT('', (-3., 3., -71.));
#306 = CARTESIAN_POINT('', (-3., 3., -72.));
#307 = CARTESIAN_POINT('', (-4., 4., -72.));
#308 = CARTESIAN_POINT('', (-5., 5., -72.));
#309 = CARTESIAN_POINT('', (-5., 5., -71.));
#310 = CARTESIAN_POINT('', (-5., 1.5005018192738E-15, -71.));
#311 = CARTESIAN_POINT('', (-5., 1.5005018192738E-15, -70.));
#312 = CARTESIAN_POINT('', (-4., 1.37803713935907E-15, -70.));
#313 = CARTESIAN_POINT('', (-3., 1.25557245944433E-15, -70.));
#314 = CARTESIAN_POINT('', (-3., 1.25557245944433E-15, -71.));
#315 = CARTESIAN_POINT('', (-3., 1.25557245944433E-15, -72.));
#316 = CARTESIAN_POINT('', (-4., 1.37803713935907E-15, -72.));
#317 = CARTESIAN_POINT('', (-5., 1.5005018192738E-15, -72.));
#318 = CARTESIAN_POINT('', (-5., 1.5005018192738E-15, -71.));
#319 = CARTESIAN_POINT('', (-5., -5., -71.));
#320 = CARTESIAN_POINT('', (-5., -5., -70.));
#321 = CARTESIAN_POINT('', (-4., -4., -70.));
#322 = CARTESIAN_POINT('', (-3., -3., -70.));
#323 = CARTESIAN_POINT('', (-3., -3., -71.));
#324 = CARTESIAN_POINT('', (-3., -3., -72.));
#325 = CARTESIAN_POINT('', (-4., -4., -72.));
#326 = CARTESIAN_POINT('', (-5., -5., -72.));
#327 = CARTESIAN_POINT('', (-5., -5., -71.));
#328 = CARTESIAN_POINT('', (-1.14052970428555E-15, -5., -71.));
#329 = CARTESIAN_POINT('', (-1.14052970428555E-15, -5., -70.));
#330 = CARTESIAN_POINT('', (-9.56832684413443E-16, -4., -70.));
#331 = CARTESIAN_POINT('', (-7.7313566454134E-16, -3., -70.));
#332 = CARTESIAN_POINT('', (-7.7313566454134E-16, -3., -71.));
#333 = CARTESIAN_POINT('', (-7.7313566454134E-16, -3., -72.));
#334 = CARTESIAN_POINT('', (-9.56832684413443E-16, -4., -72.));
#335 = CARTESIAN_POINT('', (-1.14052970428555E-15, -5., -72.));
#336 = CARTESIAN_POINT('', (-1.14052970428555E-15, -5., -71.));
#337 = CARTESIAN_POINT('', (5., -5., -71.));
#338 = CARTESIAN_POINT('', (5., -5., -70.));
#339 = CARTESIAN_POINT('', (4., -4., -70.));
#340 = CARTESIAN_POINT('', (3., -3., -70.));
#341 = CARTESIAN_POINT('', (3., -3., -71.));
#342 = CARTESIAN_POINT('', (3., -3., -72.));
#343 = CARTESIAN_POINT('', (4., -4., -72.));
#344 = CARTESIAN_POINT('', (5., -5., -72.));
#345 = CARTESIAN_POINT('', (5., -5., -71.));
#346 = CARTESIAN_POINT('', (5., 0., -71.));
#347 = CARTESIAN_POINT('', (5., 0., -70.));
#348 = CARTESIAN_POINT('', (4., 0., -70.));
#349 = CARTESIAN_POINT('', (3., 0., -70.));
#350 = CARTESIAN_POINT('', (3., 0., -71.));
#351 = CARTESIAN_POINT('', (3., 0., -72.));
#352 = CARTESIAN_POINT('', (4., 0., -72.));
#353 = CARTESIAN_POINT('', (5., 0., -72.));
#354 = CARTESIAN_POINT('', (5., 0., -71.));
#355 = PRESENTATION_STYLE_ASSIGNMENT((#356));
#356 = SURFACE_STYLE_USAGE(.POSITIVE., #357);
#357 = SURFACE_SIDE_STYLE('', (#358));
#358 = SURFACE_STYLE_FILL_AREA(#359);
#359 = FILL_AREA_STYLE('', (#360));
#360 = FILL_AREA_STYLE_COLOUR('', #361);
#361 = COLOUR_RGB('', 0.8, 0.8, 0.8);
#362 = STYLED_ITEM('', (#355), #175);
#363 = TRIMMED_CURVE('cutting part line', #364, (#369), (#370), .T., .CARTESIAN.);
#364 = CIRCLE('', #365, 1.);
#365 = AXIS2_PLACEMENT_3D('', #366, #367, #368);
#366 = CARTESIAN_POINT('', (4., -1.90481453554699E-16, -71.));
#367 = DIRECTION('', (-4.16333634234434E-17, -1., -4.3140830754274E-32));
#368 = DIRECTION('', (2.22044604925031E-15, -4.93038065763132E-32, -1.));
#369 = CARTESIAN_POINT('', (4., -1.90481453554699E-16, -72.));
#370 = CARTESIAN_POINT('', (5., -2.32114816978143E-16, -71.));
#371 = TRIMMED_CURVE('cutting part line', #372, (#376), (#377), .T., .CARTESIAN.);
#372 = LINE('', #373, #374);
#373 = CARTESIAN_POINT('', (4.99999999999997, -5.20828585852877E-16, -71.));
#374 = VECTOR('', #375, 21.);
#375 = DIRECTION('', (3.01980662698043E-14, 5.20828585852877E-16, 21.));
#376 = CARTESIAN_POINT('', (4.99999999999997, -5.20828585852877E-16, -71.));
#377 = CARTESIAN_POINT('', (5., 0., -50.));
#378 = TRIMMED_CURVE('cutting part line', #379, (#383), (#384), .T., .CARTESIAN.);
#379 = LINE('', #380, #381);
#380 = CARTESIAN_POINT('', (5., 0., -50.));
#381 = VECTOR('', #382, 5.);
#382 = DIRECTION('', (-5., 0., 0.));
#383 = CARTESIAN_POINT('', (5., 0., -50.));
#384 = CARTESIAN_POINT('', (0., 0., -50.));
#385 = TRIMMED_CURVE('cutting part line', #386, (#390), (#391), .T., .CARTESIAN.);
#386 = LINE('', #387, #388);
#387 = CARTESIAN_POINT('', (0., 0., -50.));
#388 = VECTOR('', #389, 22.);
#389 = DIRECTION('', (0., 0., -22.));
#390 = CARTESIAN_POINT('', (0., 0., -50.));
#391 = CARTESIAN_POINT('', (0., 0., -72.));
#392 = TRIMMED_CURVE('cutting part line', #393, (#397), (#398), .T., .CARTESIAN.);
#393 = LINE('', #394, #395);
#394 = CARTESIAN_POINT('', (3.05311331771918E-16, 0., -72.));
#395 = VECTOR('', #396, 4.);
#396 = DIRECTION('', (4., 0., 0.));
#397 = CARTESIAN_POINT('', (3.05311331771918E-16, 0., -72.));
#398 = CARTESIAN_POINT('', (4., 0., -72.));
#399 = COMPOSITE_CURVE('cutting part line', (#400, #401, #402, #403, #404), .U.);
#400 = COMPOSITE_CURVE_SEGMENT(.CONTINUOUS., .T., #363);
#401 = COMPOSITE_CURVE_SEGMENT(.CONTINUOUS., .T., #371);
#402 = COMPOSITE_CURVE_SEGMENT(.CONTINUOUS., .T., #378);
#403 = COMPOSITE_CURVE_SEGMENT(.CONTINUOUS., .T., #385);
#404 = COMPOSITE_CURVE_SEGMENT(.CONTINUOUS., .T., #392);
#405 = GEOMETRIC_SET('', (#399, #448));
#406 = PRESENTATION_STYLE_ASSIGNMENT((#407));
#407 = CURVE_STYLE('', #409, POSITIVE_LENGTH_MEASURE(1.E-6), #408);
#408 = COLOUR_RGB('', 0., 0., 1.);
#409 = DRAUGHTING_PRE_DEFINED_CURVE_FONT('continuous');
#410 = STYLED_ITEM('', (#406), #399);
#411 = PRESENTATION_STYLE_ASSIGNMENT((#412));
#412 = CURVE_STYLE('', #414, POSITIVE_LENGTH_MEASURE(1.E-6), #413);
#413 = COLOUR_RGB('', 0., 0., 1.);
#414 = DRAUGHTING_PRE_DEFINED_CURVE_FONT('continuous');
#415 = OVER_RIDING_STYLED_ITEM('', (#411), #363, #410);
#416 = PRESENTATION_STYLE_ASSIGNMENT((#417));
#417 = CURVE_STYLE('', #419, POSITIVE_LENGTH_MEASURE(1.E-6), #418);
#418 = COLOUR_RGB('', 0., 0., 1.);
#419 = DRAUGHTING_PRE_DEFINED_CURVE_FONT('continuous');
#420 = OVER_RIDING_STYLED_ITEM('', (#416), #371, #410);
#421 = PRESENTATION_STYLE_ASSIGNMENT((#422));
#422 = CURVE_STYLE('', #424, POSITIVE_LENGTH_MEASURE(1.E-6), #423);
#423 = COLOUR_RGB('', 0., 0., 1.);
#424 = DRAUGHTING_PRE_DEFINED_CURVE_FONT('continuous');
#425 = OVER_RIDING_STYLED_ITEM('', (#421), #378, #410);
#426 = PRESENTATION_STYLE_ASSIGNMENT((#427));
#427 = CURVE_STYLE('', #429, POSITIVE_LENGTH_MEASURE(1.E-6), #428);
#428 = COLOUR_RGB('', 0., 0., 1.);
#429 = DRAUGHTING_PRE_DEFINED_CURVE_FONT('continuous');
#430 = OVER_RIDING_STYLED_ITEM('', (#426), #385, #410);
#431 = PRESENTATION_STYLE_ASSIGNMENT((#432));
#432 = CURVE_STYLE('', #434, POSITIVE_LENGTH_MEASURE(1.E-6), #433);
#433 = COLOUR_RGB('', 0., 0., 1.);
#434 = DRAUGHTING_PRE_DEFINED_CURVE_FONT('continuous');
#435 = OVER_RIDING_STYLED_ITEM('', (#431), #392, #410);
#436 = AXIS2_PLACEMENT_3D('MCS', #437, #438, #439);
#437 = CARTESIAN_POINT('', (0., 0., -40.));
#438 = DIRECTION('', (0., 0., 1.));
#439 = DIRECTION('', (1., 0., 0.));
#440 = AXIS2_PLACEMENT_3D('PCS', #441, #442, #443);
#441 = CARTESIAN_POINT('', (0., 0., 0.));
#442 = DIRECTION('', (0., 0., 1.));
#443 = DIRECTION('', (1., 0., 0.));
#444 = AXIS2_PLACEMENT_3D('CIP', #445, #446, #447);
#445 = CARTESIAN_POINT('', (0., 0., -72.));
#446 = DIRECTION('', (0., 0., 1.));
#447 = DIRECTION('', (1., 0., 0.));
#448 = CARTESIAN_POINT('CRP', (5., 0., -72.));
#449 = (
   GEOMETRIC_REPRESENTATION_CONTEXT (3)
   GLOBAL_UNCERTAINTY_ASSIGNED_CONTEXT ((#451))
   GLOBAL_UNIT_ASSIGNED_CONTEXT ((#450, #452, #453))
   REPRESENTATION_CONTEXT ('', '3D')
);
#450 = (
   LENGTH_UNIT ()
   NAMED_UNIT (*)
   SI_UNIT (.MILLI., .METRE.)
);
#451 = UNCERTAINTY_MEASURE_WITH_UNIT(LENGTH_MEASURE(1.E-6), #450, 'DISTANCE_ACCURACY_VALUE', '');
#452 = (
   NAMED_UNIT (*)
   SI_UNIT ($, .STERADIAN.)
   SOLID_ANGLE_UNIT ()
);
#453 = (
   NAMED_UNIT (*)
   PLANE_ANGLE_UNIT ()
   SI_UNIT ($, .RADIAN.)
);
#454 = SHAPE_REPRESENTATION('', (), #449);
#455 = PRODUCT_DEFINITION_SHAPE('', '', #456);
#456 = PRODUCT_DEFINITION('', '', #459, #463);
#457 = APPLICATION_CONTEXT('configuration controlled 3D designs of mechanical parts and assemblies');
#458 = APPLICATION_PROTOCOL_DEFINITION('International Standard', 'automotive_design', 2002, #457);
#459 = PRODUCT_DEFINITION_FORMATION_WITH_SPECIFIED_SOURCE('', '', #460, .NOT_KNOWN.);
#460 = PRODUCT('titg044855B5e2fn', 'R216.24-10050CCC22P 1620', '', (#461));
#461 = PRODUCT_CONTEXT('', #457, 'mechanical');
#462 = PRODUCT_RELATED_PRODUCT_CATEGORY('detail', '', (#460));
#463 = PRODUCT_DEFINITION_CONTEXT('part definition', #457, 'design');
#464 = SHAPE_DEFINITION_REPRESENTATION(#455, #454);
#465 = CONSTRUCTIVE_GEOMETRY_REPRESENTATION('supplemental geometry', (#436, #440, #444), #449);
#466 = CONSTRUCTIVE_GEOMETRY_REPRESENTATION_RELATIONSHIP('', '', #454, #465);
#467 = SHAPE_REPRESENTATION_RELATIONSHIP('', '', #454, #468);
#468 = SHAPE_REPRESENTATION('', (#405), #449);
#469 = SHAPE_REPRESENTATION_RELATIONSHIP('', '', #454, #470);
#470 = ADVANCED_BREP_SHAPE_REPRESENTATION('', (#1, #175), #449);
ENDSEC;
END-ISO-10303-21;
