ISO-10303-21;
HEADER;
FILE_DESCRIPTION(('STEP'), '1');
FILE_NAME('C:\\Users\\ds2002\\OneDrive - Sandvik\\HomeShare\\Documents\\Batchrepair\\CorSRT2\\NEW_MILSQ_SLD\\Output\\MOD000000000000000020084588000000.stp', '2019-01-02T12:10:58', (''), (''), 'Express v3.0.0.0', 'Express Tool', 'Unknown');
FILE_SCHEMA(('AUTOMOTIVE_DESIGN'));
ENDSEC;

DATA;
#1 = MANIFOLD_SOLID_BREP('NOCUT', #2);
#2 = CLOSED_SHELL('', (#3, #20, #37, #85));
#3 = ADVANCED_FACE('', (#4), #15, .T.);
#4 = FACE_OUTER_BOUND('', #5, .T.);
#5 = EDGE_LOOP('', (#6));
#6 = ORIENTED_EDGE('', *, *, #7, .F.);
#7 = EDGE_CURVE('', #8, #8, #10, .T.);
#8 = VERTEX_POINT('', #9);
#9 = CARTESIAN_POINT('', (-4.0000000000002, 0., -61.));
#10 = CIRCLE('', #11, 4.0000000000002);
#11 = AXIS2_PLACEMENT_3D('', #12, #13, #14);
#12 = CARTESIAN_POINT('', (1.2490009027033E-16, 1.11022302462516E-16, -61.));
#13 = DIRECTION('', (0., 0., 1.));
#14 = DIRECTION('', (-1., -2.77555756156275E-17, 0.));
#15 = B_SPLINE_SURFACE_WITH_KNOTS('', 1, 1, ((#16, #17), (#18, #19)), .UNSPECIFIED., .F., .F., .U., (2, 2), (2, 2), (-4.0010000000002, 4.0010000000002), (-4.0010000000002, 4.0010000000002), .UNSPECIFIED.);
#16 = CARTESIAN_POINT('', (4.0010000000002, -4.0010000000002, -61.));
#17 = CARTESIAN_POINT('', (4.0010000000002, 4.0010000000002, -61.));
#18 = CARTESIAN_POINT('', (-4.0010000000002, -4.0010000000002, -61.));
#19 = CARTESIAN_POINT('', (-4.0010000000002, 4.0010000000002, -61.));
#20 = ADVANCED_FACE('', (#21), #32, .T.);
#21 = FACE_OUTER_BOUND('', #22, .T.);
#22 = EDGE_LOOP('', (#23));
#23 = ORIENTED_EDGE('', *, *, #24, .T.);
#24 = EDGE_CURVE('', #25, #25, #27, .T.);
#25 = VERTEX_POINT('', #26);
#26 = CARTESIAN_POINT('', (3.40000000000019, 0., 0.));
#27 = CIRCLE('', #28, 3.40000000000019);
#28 = AXIS2_PLACEMENT_3D('', #29, #30, #31);
#29 = CARTESIAN_POINT('', (1.40165656858926E-15, -1.16573417585641E-15, 0.));
#30 = DIRECTION('', (0., 0., 1.));
#31 = DIRECTION('', (1., 3.42862992898926E-16, 0.));
#32 = B_SPLINE_SURFACE_WITH_KNOTS('', 1, 1, ((#33, #34), (#35, #36)), .UNSPECIFIED., .F., .F., .U., (2, 2), (2, 2), (-3.40100000000014, 3.40100000000024), (-3.40100000000019, 3.40100000000019), .UNSPECIFIED.);
#33 = CARTESIAN_POINT('', (3.40100000000019, 3.40100000000019, 0.));
#34 = CARTESIAN_POINT('', (3.40100000000019, -3.40100000000019, 0.));
#35 = CARTESIAN_POINT('', (-3.40100000000019, 3.40100000000019, 0.));
#36 = CARTESIAN_POINT('', (-3.40100000000019, -3.40100000000019, 0.));
#37 = ADVANCED_FACE('', (#38), #66, .T.);
#38 = FACE_OUTER_BOUND('', #39, .T.);
#39 = EDGE_LOOP('', (#40, #48, #49, #50, #59));
#40 = ORIENTED_EDGE('', *, *, #41, .T.);
#41 = EDGE_CURVE('', #42, #25, #44, .T.);
#42 = VERTEX_POINT('', #43);
#43 = CARTESIAN_POINT('', (4.0000000000002, 0., -0.600000000000003));
#44 = LINE('', #45, #46);
#45 = CARTESIAN_POINT('', (4.00000000000019, -6.65027280199062E-16, -0.600000000000009));
#46 = VECTOR('', #47, 0.848528137423866);
#47 = DIRECTION('', (-0.600000000000004, 6.63920745623024E-16, 0.600000000000009));
#48 = ORIENTED_EDGE('', *, *, #24, .F.);
#49 = ORIENTED_EDGE('', *, *, #41, .F.);
#50 = ORIENTED_EDGE('', *, *, #51, .F.);
#51 = EDGE_CURVE('', #52, #42, #54, .T.);
#52 = VERTEX_POINT('', #53);
#53 = CARTESIAN_POINT('', (-4.0000000000002, -4.89858719658966E-16, -0.600000000000003));
#54 = CIRCLE('', #55, 4.0000000000002);
#55 = AXIS2_PLACEMENT_3D('', #56, #57, #58);
#56 = CARTESIAN_POINT('', (-1.2490009027033E-16, 1.11022302462516E-16, -0.600000000000003));
#57 = DIRECTION('', (0., 0., -1.));
#58 = DIRECTION('', (1., -2.77555756156275E-17, 0.));
#59 = ORIENTED_EDGE('', *, *, #60, .F.);
#60 = EDGE_CURVE('', #42, #52, #61, .T.);
#61 = CIRCLE('', #62, 4.0000000000002);
#62 = AXIS2_PLACEMENT_3D('', #63, #64, #65);
#63 = CARTESIAN_POINT('', (-1.2490009027033E-16, 1.11022302462516E-16, -0.600000000000003));
#64 = DIRECTION('', (0., 0., -1.));
#65 = DIRECTION('', (1., -2.77555756156275E-17, 0.));
#66 = (
   BOUNDED_SURFACE ()
   B_SPLINE_SURFACE (2, 1, ((#67, #68), (#69, #70), (#71, #72), (#73, #74), (#75, #76), (#77, #78), (#79, #80), (#81, #82), (#83, #84)), .UNSPECIFIED., .T., .F., .U.)
   B_SPLINE_SURFACE_WITH_KNOTS ((3, 2, 2, 2, 3), (2, 2), (0., 0.25, 0.5, 0.75, 1.), (0., 1.), .UNSPECIFIED.)
   GEOMETRIC_REPRESENTATION_ITEM ()
   RATIONAL_B_SPLINE_SURFACE (((1., 1.), (0.707106781186548, 0.707106781186548), (1., 1.), (0.707106781186548, 0.707106781186548), (1., 1.), (0.707106781186548, 0.707106781186548), (1., 1.), (0.707106781186548, 0.707106781186548), (1., 1.)))
   REPRESENTATION_ITEM ('')
   SURFACE ()
);
#67 = CARTESIAN_POINT('', (3.39900000000019, 0., 0.001));
#68 = CARTESIAN_POINT('', (4.00100000000019, -6.66133814775094E-16, -0.601000000000003));
#69 = CARTESIAN_POINT('', (3.39900000000019, -3.39900000000019, 0.00100000000000376));
#70 = CARTESIAN_POINT('', (4.00100000000019, -4.00100000000019, -0.600999999999999));
#71 = CARTESIAN_POINT('', (-6.38416332761577E-16, -3.39900000000019, 0.00100000000000376));
#72 = CARTESIAN_POINT('', (-6.01554464107242E-16, -4.00100000000019, -0.600999999999999));
#73 = CARTESIAN_POINT('', (-3.39900000000019, -3.39900000000019, 0.00100000000000376));
#74 = CARTESIAN_POINT('', (-4.00100000000019, -4.00100000000019, -0.600999999999999));
#75 = CARTESIAN_POINT('', (-3.39900000000019, -4.16257447030209E-16, 0.001));
#76 = CARTESIAN_POINT('', (-4.00100000000019, -1.15611499911397E-15, -0.601000000000003));
#77 = CARTESIAN_POINT('', (-3.39900000000019, 3.39900000000019, 0.000999999999996239));
#78 = CARTESIAN_POINT('', (-4.00100000000019, 4.00100000000019, -0.601000000000007));
#79 = CARTESIAN_POINT('', (-1.47093122682199E-15, 3.39900000000019, 0.000999999999996239));
#80 = CARTESIAN_POINT('', (-1.581516832785E-15, 4.00100000000019, -0.601000000000007));
#81 = CARTESIAN_POINT('', (3.39900000000019, 3.39900000000019, 0.000999999999996239));
#82 = CARTESIAN_POINT('', (4.00100000000019, 4.00100000000019, -0.601000000000007));
#83 = CARTESIAN_POINT('', (3.39900000000019, 0., 0.001));
#84 = CARTESIAN_POINT('', (4.00100000000019, -6.66133814775094E-16, -0.601000000000003));
#85 = ADVANCED_FACE('', (#86), #98, .T.);
#86 = FACE_OUTER_BOUND('', #87, .T.);
#87 = EDGE_LOOP('', (#88, #94, #95, #96, #97));
#88 = ORIENTED_EDGE('', *, *, #89, .T.);
#89 = EDGE_CURVE('', #52, #8, #90, .T.);
#90 = LINE('', #91, #92);
#91 = CARTESIAN_POINT('', (-4.0000000000002, -1.97215226305253E-31, -0.600000000000003));
#92 = VECTOR('', #93, 60.4);
#93 = DIRECTION('', (0., 0., -60.4));
#94 = ORIENTED_EDGE('', *, *, #7, .T.);
#95 = ORIENTED_EDGE('', *, *, #89, .F.);
#96 = ORIENTED_EDGE('', *, *, #51, .T.);
#97 = ORIENTED_EDGE('', *, *, #60, .T.);
#98 = (
   BOUNDED_SURFACE ()
   B_SPLINE_SURFACE (2, 1, ((#99, #100), (#101, #102), (#103, #104), (#105, #106), (#107, #108), (#109, #110), (#111, #112), (#113, #114), (#115, #116)), .UNSPECIFIED., .T., .F., .U.)
   B_SPLINE_SURFACE_WITH_KNOTS ((3, 2, 2, 2, 3), (2, 2), (0., 0.25, 0.5, 0.75, 1.), (0., 1.), .UNSPECIFIED.)
   GEOMETRIC_REPRESENTATION_ITEM ()
   RATIONAL_B_SPLINE_SURFACE (((1., 1.), (0.707106781186548, 0.707106781186548), (1., 1.), (0.707106781186548, 0.707106781186548), (1., 1.), (0.707106781186548, 0.707106781186548), (1., 1.), (0.707106781186548, 0.707106781186548), (1., 1.)))
   REPRESENTATION_ITEM ('')
   SURFACE ()
);
#99 = CARTESIAN_POINT('', (-4.0000000000002, -1.97215226305253E-31, -67.0412));
#100 = CARTESIAN_POINT('', (-4.0000000000002, -1.97215226305253E-31, 5.44119999999999));
#101 = CARTESIAN_POINT('', (-4.0000000000002, -4.0000000000002, -67.0412));
#102 = CARTESIAN_POINT('', (-4.0000000000002, -4.0000000000002, 5.44119999999999));
#103 = CARTESIAN_POINT('', (-1.45229689910934E-15, -4.0000000000002, -67.0412));
#104 = CARTESIAN_POINT('', (-1.45229689910934E-15, -4.0000000000002, 5.44119999999999));
#105 = CARTESIAN_POINT('', (4.0000000000002, -4.0000000000002, -67.0412));
#106 = CARTESIAN_POINT('', (4.0000000000002, -4.0000000000002, 5.44119999999999));
#107 = CARTESIAN_POINT('', (4.0000000000002, -2.71030476890928E-15, -67.0412));
#108 = CARTESIAN_POINT('', (4.0000000000002, -2.71030476890928E-15, 5.44119999999999));
#109 = CARTESIAN_POINT('', (4.0000000000002, 4.0000000000002, -67.0412));
#110 = CARTESIAN_POINT('', (4.0000000000002, 4.0000000000002, 5.44119999999999));
#111 = CARTESIAN_POINT('', (1.7478665894589E-15, 4.0000000000002, -67.0412));
#112 = CARTESIAN_POINT('', (1.7478665894589E-15, 4.0000000000002, 5.44119999999999));
#113 = CARTESIAN_POINT('', (-4.0000000000002, 4.0000000000002, -67.0412));
#114 = CARTESIAN_POINT('', (-4.0000000000002, 4.0000000000002, 5.44119999999999));
#115 = CARTESIAN_POINT('', (-4.0000000000002, -1.97215226305253E-31, -67.0412));
#116 = CARTESIAN_POINT('', (-4.0000000000002, -1.97215226305253E-31, 5.44119999999999));
#117 = DRAUGHTING_MODEL('', (#125, #323, #371, #376, #381, #386, #391, #396), #410);
#118 = PRESENTATION_STYLE_ASSIGNMENT((#119));
#119 = SURFACE_STYLE_USAGE(.POSITIVE., #120);
#120 = SURFACE_SIDE_STYLE('', (#121));
#121 = SURFACE_STYLE_FILL_AREA(#122);
#122 = FILL_AREA_STYLE('', (#123));
#123 = FILL_AREA_STYLE_COLOUR('', #124);
#124 = COLOUR_RGB('', 0.50196078431373, 0.50196078431373, 0.50196078431373);
#125 = STYLED_ITEM('', (#118), #1);
#126 = MANIFOLD_SOLID_BREP('CUT', #127);
#127 = CLOSED_SHELL('', (#128, #154, #210, #307));
#128 = ADVANCED_FACE('', (#129), #149, .T.);
#129 = FACE_OUTER_BOUND('', #130, .T.);
#130 = EDGE_LOOP('', (#131, #142));
#131 = ORIENTED_EDGE('', *, *, #132, .T.);
#132 = EDGE_CURVE('', #133, #135, #137, .T.);
#133 = VERTEX_POINT('', #134);
#134 = CARTESIAN_POINT('', (-2.0000000000002, 0., -80.));
#135 = VERTEX_POINT('', #136);
#136 = CARTESIAN_POINT('', (2.0000000000002, 2.44929359829495E-16, -80.));
#137 = CIRCLE('', #138, 2.0000000000002);
#138 = AXIS2_PLACEMENT_3D('', #139, #140, #141);
#139 = CARTESIAN_POINT('', (-2.70616862252382E-16, 3.88578058618805E-16, -80.));
#140 = DIRECTION('', (-4.69860617267237E-30, 2.41835897238973E-14, -1.));
#141 = DIRECTION('', (-1., -1.94289029309383E-16, 0.));
#142 = ORIENTED_EDGE('', *, *, #143, .T.);
#143 = EDGE_CURVE('', #135, #133, #144, .T.);
#144 = CIRCLE('', #145, 2.0000000000002);
#145 = AXIS2_PLACEMENT_3D('', #146, #147, #148);
#146 = CARTESIAN_POINT('', (-2.70616862252382E-16, 3.88578058618805E-16, -80.));
#147 = DIRECTION('', (-4.69860617267237E-30, 2.41835897238973E-14, -1.));
#148 = DIRECTION('', (-1., -1.94289029309383E-16, 0.));
#149 = B_SPLINE_SURFACE_WITH_KNOTS('', 1, 1, ((#150, #151), (#152, #153)), .UNSPECIFIED., .F., .F., .U., (2, 2), (2, 2), (-6.00100000000042, -1.99900000000002), (-2.0010000000002, 2.0010000000002), .UNSPECIFIED.);
#150 = CARTESIAN_POINT('', (-2.0010000000002, 2.0010000000002, -80.));
#151 = CARTESIAN_POINT('', (-2.0010000000002, -2.0010000000002, -80.));
#152 = CARTESIAN_POINT('', (2.0010000000002, 2.0010000000002, -80.));
#153 = CARTESIAN_POINT('', (2.0010000000002, -2.0010000000002, -80.));
#154 = ADVANCED_FACE('', (#155), #191, .T.);
#155 = FACE_OUTER_BOUND('', #156, .T.);
#156 = EDGE_LOOP('', (#157, #167, #176, #183, #184));
#157 = ORIENTED_EDGE('', *, *, #158, .T.);
#158 = EDGE_CURVE('', #159, #161, #163, .T.);
#159 = VERTEX_POINT('', #160);
#160 = CARTESIAN_POINT('', (-4.0000000000002, 0., -61.));
#161 = VERTEX_POINT('', #162);
#162 = CARTESIAN_POINT('', (-4.0000000000002, 0., -78.));
#163 = LINE('', #164, #165);
#164 = CARTESIAN_POINT('', (-4.0000000000002, -1.97215226305253E-31, -61.));
#165 = VECTOR('', #166, 17.);
#166 = DIRECTION('', (0., 0., -17.));
#167 = ORIENTED_EDGE('', *, *, #168, .T.);
#168 = EDGE_CURVE('', #161, #169, #171, .T.);
#169 = VERTEX_POINT('', #170);
#170 = CARTESIAN_POINT('', (4.0000000000002, -4.89858719658966E-16, -78.));
#171 = CIRCLE('', #172, 4.0000000000002);
#172 = AXIS2_PLACEMENT_3D('', #173, #174, #175);
#173 = CARTESIAN_POINT('', (1.2490009027033E-16, 1.11022302462516E-16, -78.));
#174 = DIRECTION('', (-3.35614726619488E-31, 1.20917948619492E-14, 1.));
#175 = DIRECTION('', (-1., -2.77555756156275E-17, 0.));
#176 = ORIENTED_EDGE('', *, *, #177, .T.);
#177 = EDGE_CURVE('', #169, #161, #178, .T.);
#178 = CIRCLE('', #179, 4.0000000000002);
#179 = AXIS2_PLACEMENT_3D('', #180, #181, #182);
#180 = CARTESIAN_POINT('', (1.2490009027033E-16, 1.11022302462516E-16, -78.));
#181 = DIRECTION('', (-3.35614726619488E-31, 1.20917948619492E-14, 1.));
#182 = DIRECTION('', (-1., -2.77555756156275E-17, 0.));
#183 = ORIENTED_EDGE('', *, *, #158, .F.);
#184 = ORIENTED_EDGE('', *, *, #185, .F.);
#185 = EDGE_CURVE('', #159, #159, #186, .T.);
#186 = CIRCLE('', #187, 4.0000000000002);
#187 = AXIS2_PLACEMENT_3D('', #188, #189, #190);
#188 = CARTESIAN_POINT('', (1.2490009027033E-16, 1.11022302462516E-16, -61.));
#189 = DIRECTION('', (0., 0., 1.));
#190 = DIRECTION('', (-1., -2.77555756156275E-17, 0.));
#191 = (
   BOUNDED_SURFACE ()
   B_SPLINE_SURFACE (2, 1, ((#192, #193), (#194, #195), (#196, #197), (#198, #199), (#200, #201), (#202, #203), (#204, #205), (#206, #207), (#208, #209)), .UNSPECIFIED., .T., .F., .U.)
   B_SPLINE_SURFACE_WITH_KNOTS ((3, 2, 2, 2, 3), (2, 2), (0., 0.25, 0.5, 0.75, 1.), (0., 1.), .UNSPECIFIED.)
   GEOMETRIC_REPRESENTATION_ITEM ()
   RATIONAL_B_SPLINE_SURFACE (((1., 1.), (0.707106781186548, 0.707106781186548), (1., 1.), (0.707106781186548, 0.707106781186548), (1., 1.), (0.707106781186548, 0.707106781186548), (1., 1.), (0.707106781186548, 0.707106781186548), (1., 1.)))
   REPRESENTATION_ITEM ('')
   SURFACE ()
);
#192 = CARTESIAN_POINT('', (-4.0000000000002, -1.97215226305253E-31, -79.7012));
#193 = CARTESIAN_POINT('', (-4.0000000000002, -1.97215226305253E-31, -59.2988));
#194 = CARTESIAN_POINT('', (-4.0000000000002, -4.0000000000002, -79.7012));
#195 = CARTESIAN_POINT('', (-4.0000000000002, -4.0000000000002, -59.2988));
#196 = CARTESIAN_POINT('', (-1.45229689910934E-15, -4.0000000000002, -79.7012));
#197 = CARTESIAN_POINT('', (-1.45229689910934E-15, -4.0000000000002, -59.2988));
#198 = CARTESIAN_POINT('', (4.0000000000002, -4.0000000000002, -79.7012));
#199 = CARTESIAN_POINT('', (4.0000000000002, -4.0000000000002, -59.2988));
#200 = CARTESIAN_POINT('', (4.0000000000002, -2.71030476890928E-15, -79.7012));
#201 = CARTESIAN_POINT('', (4.0000000000002, -2.71030476890928E-15, -59.2988));
#202 = CARTESIAN_POINT('', (4.0000000000002, 4.0000000000002, -79.7012));
#203 = CARTESIAN_POINT('', (4.0000000000002, 4.0000000000002, -59.2988));
#204 = CARTESIAN_POINT('', (1.7478665894589E-15, 4.0000000000002, -79.7012));
#205 = CARTESIAN_POINT('', (1.7478665894589E-15, 4.0000000000002, -59.2988));
#206 = CARTESIAN_POINT('', (-4.0000000000002, 4.0000000000002, -79.7012));
#207 = CARTESIAN_POINT('', (-4.0000000000002, 4.0000000000002, -59.2988));
#208 = CARTESIAN_POINT('', (-4.0000000000002, -1.97215226305253E-31, -79.7012));
#209 = CARTESIAN_POINT('', (-4.0000000000002, -1.97215226305253E-31, -59.2988));
#210 = ADVANCED_FACE('', (#211), #225, .T.);
#211 = FACE_OUTER_BOUND('', #212, .T.);
#212 = EDGE_LOOP('', (#213, #220, #221, #222, #223, #224));
#213 = ORIENTED_EDGE('', *, *, #214, .T.);
#214 = EDGE_CURVE('', #135, #169, #215, .T.);
#215 = CIRCLE('', #216, 1.99999999999996);
#216 = AXIS2_PLACEMENT_3D('', #217, #218, #219);
#217 = CARTESIAN_POINT('', (2.00000000000023, 0., -78.));
#218 = DIRECTION('', (0., -1., 0.));
#219 = DIRECTION('', (-1.31006316905771E-14, 0., -1.));
#220 = ORIENTED_EDGE('', *, *, #168, .F.);
#221 = ORIENTED_EDGE('', *, *, #177, .F.);
#222 = ORIENTED_EDGE('', *, *, #214, .F.);
#223 = ORIENTED_EDGE('', *, *, #132, .F.);
#224 = ORIENTED_EDGE('', *, *, #143, .F.);
#225 = (
   BOUNDED_SURFACE ()
   B_SPLINE_SURFACE (2, 2, ((#226, #227, #228, #229, #230, #231, #232, #233, #234), (#235, #236, #237, #238, #239, #240, #241, #242, #243), (#244, #245, #246, #247, #248, #249, #250, #251, #252), (#253, #254, #255, #256, #257, #258, #259, #260, #261), (#262, #263, #264, #265, #266, #267, #268, #269, #270), (#271, #272, #273, #274, #275, #276, #277, #278, #279), (#280, #281, #282, #283, #284, #285, #286, #287, #288), (#289, #290, #291, #292, #293, #294, #295, #296, #297), (#298, #299, #300, #301, #302, #303, #304, #305, #306)), .UNSPECIFIED., .T., .T., .U.)
   B_SPLINE_SURFACE_WITH_KNOTS ((3, 2, 2, 2, 3), (3, 2, 2, 2, 3), (0., 0.25, 0.5, 0.75, 1.), (0., 0.25, 0.5, 0.75, 1.), .UNSPECIFIED.)
   GEOMETRIC_REPRESENTATION_ITEM ()
   RATIONAL_B_SPLINE_SURFACE (((1., 0.707106781186548, 1., 0.707106781186548, 1., 0.707106781186548, 1., 0.707106781186548, 1.), (0.707106781186548, 0.5, 0.707106781186548, 0.5, 0.707106781186548, 0.5, 0.707106781186548, 0.5, 0.707106781186548), (1., 0.707106781186548, 1., 0.707106781186548, 1., 0.707106781186548, 1., 0.707106781186548, 1.), (0.707106781186548, 0.5, 0.707106781186548, 0.5, 0.707106781186548, 0.5, 0.707106781186548, 0.5, 0.707106781186548), (1., 0.707106781186548, 1., 0.707106781186548, 1., 0.707106781186548, 1., 0.707106781186548, 1.), (0.707106781186548, 0.5, 0.707106781186548, 0.5, 0.707106781186548, 0.5, 0.707106781186548, 0.5, 0.707106781186548), (1., 0.707106781186548, 1., 0.707106781186548, 1., 0.707106781186548, 1., 0.707106781186548, 1.), (0.707106781186548, 0.5, 0.707106781186548, 0.5, 0.707106781186548, 0.5, 0.707106781186548, 0.5, 0.707106781186548), (1., 0.707106781186548, 1., 0.707106781186548, 1., 0.707106781186548, 1., 0.707106781186548, 1.)))
   REPRESENTATION_ITEM ('')
   SURFACE ()
);
#226 = CARTESIAN_POINT('', (0., 0., -78.));
#227 = CARTESIAN_POINT('', (0., 0., -76.));
#228 = CARTESIAN_POINT('', (2.0000000000002, 0., -76.));
#229 = CARTESIAN_POINT('', (4.0000000000002, 0., -76.));
#230 = CARTESIAN_POINT('', (4.0000000000002, 0., -78.));
#231 = CARTESIAN_POINT('', (4.0000000000002, 0., -80.));
#232 = CARTESIAN_POINT('', (2.0000000000002, 0., -80.));
#233 = CARTESIAN_POINT('', (0., 0., -80.));
#234 = CARTESIAN_POINT('', (0., 0., -78.));
#235 = CARTESIAN_POINT('', (0., 0., -78.));
#236 = CARTESIAN_POINT('', (0., 0., -76.));
#237 = CARTESIAN_POINT('', (2.0000000000002, -2.0000000000002, -76.));
#238 = CARTESIAN_POINT('', (4.0000000000002, -4.0000000000002, -76.));
#239 = CARTESIAN_POINT('', (4.0000000000002, -4.0000000000002, -78.));
#240 = CARTESIAN_POINT('', (4.0000000000002, -4.0000000000002, -80.));
#241 = CARTESIAN_POINT('', (2.0000000000002, -2.0000000000002, -80.));
#242 = CARTESIAN_POINT('', (0., 0., -80.));
#243 = CARTESIAN_POINT('', (0., 0., -78.));
#244 = CARTESIAN_POINT('', (0., 0., -78.));
#245 = CARTESIAN_POINT('', (0., 0., -76.));
#246 = CARTESIAN_POINT('', (5.56778260896405E-17, -2.0000000000002, -76.));
#247 = CARTESIAN_POINT('', (1.78142506004376E-16, -4.0000000000002, -76.));
#248 = CARTESIAN_POINT('', (1.78142506004376E-16, -4.0000000000002, -78.));
#249 = CARTESIAN_POINT('', (1.78142506004376E-16, -4.0000000000002, -80.));
#250 = CARTESIAN_POINT('', (5.56778260896405E-17, -2.0000000000002, -80.));
#251 = CARTESIAN_POINT('', (0., 0., -80.));
#252 = CARTESIAN_POINT('', (0., 0., -78.));
#253 = CARTESIAN_POINT('', (0., 0., -78.));
#254 = CARTESIAN_POINT('', (0., 0., -76.));
#255 = CARTESIAN_POINT('', (-2.0000000000002, -2.0000000000002, -76.));
#256 = CARTESIAN_POINT('', (-4.0000000000002, -4.0000000000002, -76.));
#257 = CARTESIAN_POINT('', (-4.0000000000002, -4.0000000000002, -78.));
#258 = CARTESIAN_POINT('', (-4.0000000000002, -4.0000000000002, -80.));
#259 = CARTESIAN_POINT('', (-2.0000000000002, -2.0000000000002, -80.));
#260 = CARTESIAN_POINT('', (0., 0., -80.));
#261 = CARTESIAN_POINT('', (0., 0., -78.));
#262 = CARTESIAN_POINT('', (0., 0., -78.));
#263 = CARTESIAN_POINT('', (0., 0., -76.));
#264 = CARTESIAN_POINT('', (-2.0000000000002, 4.87082071116517E-18, -76.));
#265 = CARTESIAN_POINT('', (-4.0000000000002, -2.40058539118305E-16, -76.));
#266 = CARTESIAN_POINT('', (-4.0000000000002, -2.40058539118306E-16, -78.));
#267 = CARTESIAN_POINT('', (-4.0000000000002, -2.40058539118306E-16, -80.));
#268 = CARTESIAN_POINT('', (-2.0000000000002, 4.87082071116508E-18, -80.));
#269 = CARTESIAN_POINT('', (0., 0., -80.));
#270 = CARTESIAN_POINT('', (0., 0., -78.));
#271 = CARTESIAN_POINT('', (0., 0., -78.));
#272 = CARTESIAN_POINT('', (0., 0., -76.));
#273 = CARTESIAN_POINT('', (-2.0000000000002, 2.0000000000002, -76.));
#274 = CARTESIAN_POINT('', (-4.0000000000002, 4.0000000000002, -76.));
#275 = CARTESIAN_POINT('', (-4.0000000000002, 4.0000000000002, -78.));
#276 = CARTESIAN_POINT('', (-4.0000000000002, 4.0000000000002, -80.));
#277 = CARTESIAN_POINT('', (-2.0000000000002, 2.0000000000002, -80.));
#278 = CARTESIAN_POINT('', (0., 0., -80.));
#279 = CARTESIAN_POINT('', (0., 0., -78.));
#280 = CARTESIAN_POINT('', (0., 0., -78.));
#281 = CARTESIAN_POINT('', (0., 0., -76.));
#282 = CARTESIAN_POINT('', (-1.84380713028689E-16, 2.0000000000002, -76.));
#283 = CARTESIAN_POINT('', (-5.51774752772895E-16, 4.0000000000002, -76.));
#284 = CARTESIAN_POINT('', (-5.51774752772895E-16, 4.0000000000002, -78.));
#285 = CARTESIAN_POINT('', (-5.51774752772896E-16, 4.0000000000002, -80.));
#286 = CARTESIAN_POINT('', (-1.8438071302869E-16, 2.0000000000002, -80.));
#287 = CARTESIAN_POINT('', (0., 0., -80.));
#288 = CARTESIAN_POINT('', (0., 0., -78.));
#289 = CARTESIAN_POINT('', (0., 0., -78.));
#290 = CARTESIAN_POINT('', (0., 0., -76.));
#291 = CARTESIAN_POINT('', (2.0000000000002, 2.0000000000002, -76.));
#292 = CARTESIAN_POINT('', (4.0000000000002, 4.0000000000002, -76.));
#293 = CARTESIAN_POINT('', (4.0000000000002, 4.0000000000002, -78.));
#294 = CARTESIAN_POINT('', (4.0000000000002, 4.0000000000002, -80.));
#295 = CARTESIAN_POINT('', (2.0000000000002, 2.0000000000002, -80.));
#296 = CARTESIAN_POINT('', (0., 0., -80.));
#297 = CARTESIAN_POINT('', (0., 0., -78.));
#298 = CARTESIAN_POINT('', (0., 0., -78.));
#299 = CARTESIAN_POINT('', (0., 0., -76.));
#300 = CARTESIAN_POINT('', (2.0000000000002, 0., -76.));
#301 = CARTESIAN_POINT('', (4.0000000000002, 0., -76.));
#302 = CARTESIAN_POINT('', (4.0000000000002, 0., -78.));
#303 = CARTESIAN_POINT('', (4.0000000000002, 0., -80.));
#304 = CARTESIAN_POINT('', (2.0000000000002, 0., -80.));
#305 = CARTESIAN_POINT('', (0., 0., -80.));
#306 = CARTESIAN_POINT('', (0., 0., -78.));
#307 = ADVANCED_FACE('', (#308), #311, .T.);
#308 = FACE_OUTER_BOUND('', #309, .T.);
#309 = EDGE_LOOP('', (#310));
#310 = ORIENTED_EDGE('', *, *, #185, .T.);
#311 = B_SPLINE_SURFACE_WITH_KNOTS('', 1, 1, ((#312, #313), (#314, #315)), .UNSPECIFIED., .F., .F., .U., (2, 2), (2, 2), (-4.0010000000002, 4.0010000000002), (-4.0010000000002, 4.0010000000002), .UNSPECIFIED.);
#312 = CARTESIAN_POINT('', (-4.0010000000002, -4.0010000000002, -61.));
#313 = CARTESIAN_POINT('', (-4.0010000000002, 4.0010000000002, -61.));
#314 = CARTESIAN_POINT('', (4.0010000000002, -4.0010000000002, -61.));
#315 = CARTESIAN_POINT('', (4.0010000000002, 4.0010000000002, -61.));
#316 = PRESENTATION_STYLE_ASSIGNMENT((#317));
#317 = SURFACE_STYLE_USAGE(.POSITIVE., #318);
#318 = SURFACE_SIDE_STYLE('', (#319));
#319 = SURFACE_STYLE_FILL_AREA(#320);
#320 = FILL_AREA_STYLE('', (#321));
#321 = FILL_AREA_STYLE_COLOUR('', #322);
#322 = COLOUR_RGB('', 0.8, 0.8, 0.8);
#323 = STYLED_ITEM('', (#316), #126);
#324 = TRIMMED_CURVE('cutting part line', #325, (#329), (#330), .T., .CARTESIAN.);
#325 = LINE('', #326, #327);
#326 = CARTESIAN_POINT('', (4.0000000000002, 0., -61.));
#327 = VECTOR('', #328, 4.0000000000002);
#328 = DIRECTION('', (-4.0000000000002, 0., 7.105427357601E-15));
#329 = CARTESIAN_POINT('', (4.0000000000002, 0., -61.));
#330 = CARTESIAN_POINT('', (-1.38777878078145E-17, 0., -61.));
#331 = TRIMMED_CURVE('cutting part line', #332, (#336), (#337), .T., .CARTESIAN.);
#332 = LINE('', #333, #334);
#333 = CARTESIAN_POINT('', (0., 0., -61.));
#334 = VECTOR('', #335, 19.);
#335 = DIRECTION('', (0., 0., -19.));
#336 = CARTESIAN_POINT('', (0., 0., -61.));
#337 = CARTESIAN_POINT('', (0., 0., -80.));
#338 = TRIMMED_CURVE('cutting part line', #339, (#343), (#344), .T., .CARTESIAN.);
#339 = LINE('', #340, #341);
#340 = CARTESIAN_POINT('', (9.71445146547012E-17, 0., -80.));
#341 = VECTOR('', #342, 2.0000000000002);
#342 = DIRECTION('', (2.0000000000002, 0., 0.));
#343 = CARTESIAN_POINT('', (9.71445146547012E-17, 0., -80.));
#344 = CARTESIAN_POINT('', (2.0000000000002, 0., -80.));
#345 = TRIMMED_CURVE('cutting part line', #346, (#351), (#352), .T., .CARTESIAN.);
#346 = CIRCLE('', #347, 1.99999999999996);
#347 = AXIS2_PLACEMENT_3D('', #348, #349, #350);
#348 = CARTESIAN_POINT('', (2.00000000000023, 9.79379233384045E-16, -78.));
#349 = DIRECTION('', (4.82253126321552E-16, -1., 3.8749710481072E-31));
#350 = DIRECTION('', (-1.31006316905771E-14, -6.70531769437874E-30, -1.));
#351 = CARTESIAN_POINT('', (2.0000000000002, 9.79379233384032E-16, -80.));
#352 = CARTESIAN_POINT('', (4.00000000000018, 1.94388548602713E-15, -78.));
#353 = TRIMMED_CURVE('cutting part line', #354, (#358), (#359), .T., .CARTESIAN.);
#354 = LINE('', #355, #356);
#355 = CARTESIAN_POINT('', (4.0000000000002, 0., -78.));
#356 = VECTOR('', #357, 17.);
#357 = DIRECTION('', (0., 0., 17.));
#358 = CARTESIAN_POINT('', (4.0000000000002, 0., -78.));
#359 = CARTESIAN_POINT('', (4.0000000000002, 0., -61.));
#360 = COMPOSITE_CURVE('cutting part line', (#361, #362, #363, #364, #365), .U.);
#361 = COMPOSITE_CURVE_SEGMENT(.CONTINUOUS., .T., #324);
#362 = COMPOSITE_CURVE_SEGMENT(.CONTINUOUS., .T., #331);
#363 = COMPOSITE_CURVE_SEGMENT(.CONTINUOUS., .T., #338);
#364 = COMPOSITE_CURVE_SEGMENT(.CONTINUOUS., .T., #345);
#365 = COMPOSITE_CURVE_SEGMENT(.CONTINUOUS., .T., #353);
#366 = GEOMETRIC_SET('', (#360, #409));
#367 = PRESENTATION_STYLE_ASSIGNMENT((#368));
#368 = CURVE_STYLE('', #370, POSITIVE_LENGTH_MEASURE(1.E-6), #369);
#369 = COLOUR_RGB('', 0., 0., 1.);
#370 = DRAUGHTING_PRE_DEFINED_CURVE_FONT('continuous');
#371 = STYLED_ITEM('', (#367), #360);
#372 = PRESENTATION_STYLE_ASSIGNMENT((#373));
#373 = CURVE_STYLE('', #375, POSITIVE_LENGTH_MEASURE(1.E-6), #374);
#374 = COLOUR_RGB('', 0., 0., 1.);
#375 = DRAUGHTING_PRE_DEFINED_CURVE_FONT('continuous');
#376 = OVER_RIDING_STYLED_ITEM('', (#372), #324, #371);
#377 = PRESENTATION_STYLE_ASSIGNMENT((#378));
#378 = CURVE_STYLE('', #380, POSITIVE_LENGTH_MEASURE(1.E-6), #379);
#379 = COLOUR_RGB('', 0., 0., 1.);
#380 = DRAUGHTING_PRE_DEFINED_CURVE_FONT('continuous');
#381 = OVER_RIDING_STYLED_ITEM('', (#377), #331, #371);
#382 = PRESENTATION_STYLE_ASSIGNMENT((#383));
#383 = CURVE_STYLE('', #385, POSITIVE_LENGTH_MEASURE(1.E-6), #384);
#384 = COLOUR_RGB('', 0., 0., 1.);
#385 = DRAUGHTING_PRE_DEFINED_CURVE_FONT('continuous');
#386 = OVER_RIDING_STYLED_ITEM('', (#382), #338, #371);
#387 = PRESENTATION_STYLE_ASSIGNMENT((#388));
#388 = CURVE_STYLE('', #390, POSITIVE_LENGTH_MEASURE(1.E-6), #389);
#389 = COLOUR_RGB('', 0., 0., 1.);
#390 = DRAUGHTING_PRE_DEFINED_CURVE_FONT('continuous');
#391 = OVER_RIDING_STYLED_ITEM('', (#387), #345, #371);
#392 = PRESENTATION_STYLE_ASSIGNMENT((#393));
#393 = CURVE_STYLE('', #395, POSITIVE_LENGTH_MEASURE(1.E-6), #394);
#394 = COLOUR_RGB('', 0., 0., 1.);
#395 = DRAUGHTING_PRE_DEFINED_CURVE_FONT('continuous');
#396 = OVER_RIDING_STYLED_ITEM('', (#392), #353, #371);
#397 = AXIS2_PLACEMENT_3D('MCS', #398, #399, #400);
#398 = CARTESIAN_POINT('', (0., 0., -36.));
#399 = DIRECTION('', (0., 0., 1.));
#400 = DIRECTION('', (1., 0., 0.));
#401 = AXIS2_PLACEMENT_3D('PCS', #402, #403, #404);
#402 = CARTESIAN_POINT('', (0., 0., 0.));
#403 = DIRECTION('', (0., 0., 1.));
#404 = DIRECTION('', (1., 0., 0.));
#405 = AXIS2_PLACEMENT_3D('CIP', #406, #407, #408);
#406 = CARTESIAN_POINT('', (0., 0., -80.));
#407 = DIRECTION('', (0., 0., 1.));
#408 = DIRECTION('', (1., 0., 0.));
#409 = CARTESIAN_POINT('CRP', (4.0000000000002, 0., -80.));
#410 = (
   GEOMETRIC_REPRESENTATION_CONTEXT (3)
   GLOBAL_UNCERTAINTY_ASSIGNED_CONTEXT ((#412))
   GLOBAL_UNIT_ASSIGNED_CONTEXT ((#411, #413, #414))
   REPRESENTATION_CONTEXT ('', '3D')
);
#411 = (
   LENGTH_UNIT ()
   NAMED_UNIT (*)
   SI_UNIT (.MILLI., .METRE.)
);
#412 = UNCERTAINTY_MEASURE_WITH_UNIT(LENGTH_MEASURE(1.E-6), #411, 'DISTANCE_ACCURACY_VALUE', '');
#413 = (
   NAMED_UNIT (*)
   SI_UNIT ($, .STERADIAN.)
   SOLID_ANGLE_UNIT ()
);
#414 = (
   NAMED_UNIT (*)
   PLANE_ANGLE_UNIT ()
   SI_UNIT ($, .RADIAN.)
);
#415 = SHAPE_REPRESENTATION('', (), #410);
#416 = PRODUCT_DEFINITION_SHAPE('', '', #417);
#417 = PRODUCT_DEFINITION('', '', #420, #424);
#418 = APPLICATION_CONTEXT('configuration controlled 3D designs of mechanical parts and assemblies');
#419 = APPLICATION_PROTOCOL_DEFINITION('International Standard', 'automotive_design', 2002, #418);
#420 = PRODUCT_DEFINITION_FORMATION_WITH_SPECIFIED_SOURCE('', '', #421, .NOT_KNOWN.);
#421 = PRODUCT('R216.24-08050EAK19H-634153036392180269-1', 'R216.24-08050EAK19H 1620', '', (#422));
#422 = PRODUCT_CONTEXT('', #418, 'mechanical');
#423 = PRODUCT_RELATED_PRODUCT_CATEGORY('detail', '', (#421));
#424 = PRODUCT_DEFINITION_CONTEXT('part definition', #418, 'design');
#425 = SHAPE_DEFINITION_REPRESENTATION(#416, #415);
#426 = CONSTRUCTIVE_GEOMETRY_REPRESENTATION('supplemental geometry', (#397, #401, #405), #410);
#427 = CONSTRUCTIVE_GEOMETRY_REPRESENTATION_RELATIONSHIP('', '', #415, #426);
#428 = SHAPE_REPRESENTATION_RELATIONSHIP('', '', #415, #429);
#429 = SHAPE_REPRESENTATION('', (#366), #410);
#430 = SHAPE_REPRESENTATION_RELATIONSHIP('', '', #415, #431);
#431 = ADVANCED_BREP_SHAPE_REPRESENTATION('', (#1, #126), #410);
ENDSEC;
END-ISO-10303-21;
