ISO-10303-21;
HEADER;
FILE_DESCRIPTION(('STEP'), '1');
FILE_NAME('C:\\Users\\ds2002\\OneDrive - Sandvik\\HomeShare\\Documents\\Batchrepair\\CorSRT2\\NEW_MILSQ_SLD\\Output\\MOD000000000000000020084586700000.stp', '2019-01-02T12:11:26', (''), (''), 'Express v3.0.0.0', 'Express Tool', 'Unknown');
FILE_SCHEMA(('AUTOMOTIVE_DESIGN'));
ENDSEC;

DATA;
#1 = MANIFOLD_SOLID_BREP('NOCUT', #2);
#2 = CLOSED_SHELL('', (#3, #50, #59, #98));
#3 = ADVANCED_FACE('', (#4), #31, .T.);
#4 = FACE_OUTER_BOUND('', #5, .T.);
#5 = EDGE_LOOP('', (#6, #16, #23, #24));
#6 = ORIENTED_EDGE('', *, *, #7, .T.);
#7 = EDGE_CURVE('', #8, #10, #12, .T.);
#8 = VERTEX_POINT('', #9);
#9 = CARTESIAN_POINT('', (-3., 2.02066721859313E-16, -0.299999999999997));
#10 = VERTEX_POINT('', #11);
#11 = CARTESIAN_POINT('', (-2.7, 1.65327317884893E-16, 0.));
#12 = LINE('', #13, #14);
#13 = CARTESIAN_POINT('', (-3., 2.02066721859313E-16, -0.299999999999997));
#14 = VECTOR('', #15, 0.424264068711926);
#15 = DIRECTION('', (0.3, -3.673940397442E-17, 0.299999999999997));
#16 = ORIENTED_EDGE('', *, *, #17, .T.);
#17 = EDGE_CURVE('', #10, #10, #18, .T.);
#18 = CIRCLE('', #19, 2.7);
#19 = AXIS2_PLACEMENT_3D('', #20, #21, #22);
#20 = CARTESIAN_POINT('', (6.24500451351651E-17, -1.88737914186277E-15, -1.07852076885685E-31));
#21 = DIRECTION('', (6.60738625565492E-33, 6.12323399573678E-17, -1.));
#22 = DIRECTION('', (-1., 7.60261651758392E-16, 3.99452136613649E-32));
#23 = ORIENTED_EDGE('', *, *, #7, .F.);
#24 = ORIENTED_EDGE('', *, *, #25, .F.);
#25 = EDGE_CURVE('', #8, #8, #26, .T.);
#26 = CIRCLE('', #27, 3.);
#27 = AXIS2_PLACEMENT_3D('', #28, #29, #30);
#28 = CARTESIAN_POINT('', (-8.32667268468867E-16, 1.66533453693773E-16, -0.299999999999997));
#29 = DIRECTION('', (7.45939217764516E-34, 6.29780982393227E-17, -1.));
#30 = DIRECTION('', (-1., 1.18444227218465E-17, 0.));
#31 = (
   BOUNDED_SURFACE ()
   B_SPLINE_SURFACE (1, 2, ((#32, #33, #34, #35, #36, #37, #38, #39, #40), (#41, #42, #43, #44, #45, #46, #47, #48, #49)), .UNSPECIFIED., .F., .T., .U.)
   B_SPLINE_SURFACE_WITH_KNOTS ((2, 2), (3, 2, 2, 2, 3), (0., 1.), (0., 0.25, 0.5, 0.75, 1.), .UNSPECIFIED.)
   GEOMETRIC_REPRESENTATION_ITEM ()
   RATIONAL_B_SPLINE_SURFACE (((1., 0.707106781186548, 1., 0.707106781186548, 1., 0.707106781186548, 1., 0.707106781186548, 1.), (1., 0.707106781186548, 1., 0.707106781186548, 1., 0.707106781186548, 1., 0.707106781186548, 1.)))
   REPRESENTATION_ITEM ('')
   SURFACE ()
);
#32 = CARTESIAN_POINT('', (-3., 1.49129302665284E-15, -0.299999999999997));
#33 = CARTESIAN_POINT('', (-3., 3., -0.299999999999985));
#34 = CARTESIAN_POINT('', (2.34149119846292E-15, 3., -0.299999999999985));
#35 = CARTESIAN_POINT('', (3., 3., -0.299999999999985));
#36 = CARTESIAN_POINT('', (3., -1.34594359183367E-15, -0.299999999999997));
#37 = CARTESIAN_POINT('', (3., -3., -0.300000000000009));
#38 = CARTESIAN_POINT('', (-1.28351380279387E-16, -3., -0.300000000000009));
#39 = CARTESIAN_POINT('', (-3., -3., -0.300000000000009));
#40 = CARTESIAN_POINT('', (-3., 1.49129302665284E-15, -0.299999999999997));
#41 = CARTESIAN_POINT('', (-2.7, 1.65327317884893E-16, -2.18952885050753E-47));
#42 = CARTESIAN_POINT('', (-2.7, 2.7, 1.04916075827078E-14));
#43 = CARTESIAN_POINT('', (2.19962936753859E-15, 2.7, 1.04916075827078E-14));
#44 = CARTESIAN_POINT('', (2.7, 2.7, 1.04916075827078E-14));
#45 = CARTESIAN_POINT('', (2.7, -2.38818563875297E-15, 1.12461399303431E-30));
#46 = CARTESIAN_POINT('', (2.7, -2.7, -1.04916075827078E-14));
#47 = CARTESIAN_POINT('', (-2.32289533294833E-17, -2.7, -1.04916075827078E-14));
#48 = CARTESIAN_POINT('', (-2.7, -2.7, -1.04916075827078E-14));
#49 = CARTESIAN_POINT('', (-2.7, 1.65327317884893E-16, -2.18952885050753E-47));
#50 = ADVANCED_FACE('', (#51), #54, .T.);
#51 = FACE_OUTER_BOUND('', #52, .T.);
#52 = EDGE_LOOP('', (#53));
#53 = ORIENTED_EDGE('', *, *, #17, .F.);
#54 = B_SPLINE_SURFACE_WITH_KNOTS('', 1, 1, ((#55, #56), (#57, #58)), .UNSPECIFIED., .F., .F., .U., (2, 2), (2, 2), (1.50021428024809, 6.90021428024809), (1.50021428024809, 6.90021428024809), .UNSPECIFIED.);
#55 = CARTESIAN_POINT('', (2.7, -2.7, 6.94010003971609E-15));
#56 = CARTESIAN_POINT('', (-2.7, -2.7, -7.27075467548589E-15));
#57 = CARTESIAN_POINT('', (2.7, 2.7, 7.27075467548587E-15));
#58 = CARTESIAN_POINT('', (-2.7, 2.7, -6.9401000397161E-15));
#59 = ADVANCED_FACE('', (#60), #79, .T.);
#60 = FACE_OUTER_BOUND('', #61, .T.);
#61 = EDGE_LOOP('', (#62, #71, #77, #78));
#62 = ORIENTED_EDGE('', *, *, #63, .F.);
#63 = EDGE_CURVE('', #64, #64, #66, .T.);
#64 = VERTEX_POINT('', #65);
#65 = CARTESIAN_POINT('', (-3., 2.87791997799628E-15, -44.));
#66 = CIRCLE('', #67, 3.);
#67 = AXIS2_PLACEMENT_3D('', #68, #69, #70);
#68 = CARTESIAN_POINT('', (1.12410081243297E-15, 8.88178419700125E-16, -44.));
#69 = DIRECTION('', (0., 0., -1.));
#70 = DIRECTION('', (-1., 4.18317826269248E-16, 0.));
#71 = ORIENTED_EDGE('', *, *, #72, .T.);
#72 = EDGE_CURVE('', #64, #8, #73, .T.);
#73 = LINE('', #74, #75);
#74 = CARTESIAN_POINT('', (-3., 2.87791997799628E-15, -44.));
#75 = VECTOR('', #76, 43.7);
#76 = DIRECTION('', (0., -2.67585325613697E-15, 43.7));
#77 = ORIENTED_EDGE('', *, *, #25, .T.);
#78 = ORIENTED_EDGE('', *, *, #72, .F.);
#79 = (
   BOUNDED_SURFACE ()
   B_SPLINE_SURFACE (1, 2, ((#80, #81, #82, #83, #84, #85, #86, #87, #88), (#89, #90, #91, #92, #93, #94, #95, #96, #97)), .UNSPECIFIED., .F., .T., .U.)
   B_SPLINE_SURFACE_WITH_KNOTS ((2, 2), (3, 2, 2, 2, 3), (-0.224089635854342, 1.), (0., 0.25, 0.5, 0.75, 1.), .UNSPECIFIED.)
   GEOMETRIC_REPRESENTATION_ITEM ()
   RATIONAL_B_SPLINE_SURFACE (((1., 0.707106781186548, 1., 0.707106781186548, 1., 0.707106781186548, 1., 0.707106781186548, 1.), (1., 0.707106781186548, 1., 0.707106781186548, 1., 0.707106781186548, 1., 0.707106781186548, 1.)))
   REPRESENTATION_ITEM ('')
   SURFACE ()
);
#80 = CARTESIAN_POINT('', (-3., 2.81109082972843E-15, -44.));
#81 = CARTESIAN_POINT('', (-3., 3., -44.));
#82 = CARTESIAN_POINT('', (4.48581124029459E-16, 3., -44.));
#83 = CARTESIAN_POINT('', (3., 3., -44.));
#84 = CARTESIAN_POINT('', (3., 2.44128451836646E-15, -44.));
#85 = CARTESIAN_POINT('', (3., -3., -44.));
#86 = CARTESIAN_POINT('', (4.46168852411697E-16, -3., -44.));
#87 = CARTESIAN_POINT('', (-3., -3., -44.));
#88 = CARTESIAN_POINT('', (-3., 2.81109082972843E-15, -44.));
#89 = CARTESIAN_POINT('', (-3., 2.02066721859313E-16, -0.299999999999997));
#90 = CARTESIAN_POINT('', (-3., 3., -0.299999999999997));
#91 = CARTESIAN_POINT('', (4.48581124029458E-16, 3., -0.299999999999997));
#92 = CARTESIAN_POINT('', (3., 3., -0.299999999999997));
#93 = CARTESIAN_POINT('', (3., -1.67739589502654E-16, -0.299999999999997));
#94 = CARTESIAN_POINT('', (3., -3., -0.299999999999997));
#95 = CARTESIAN_POINT('', (4.46168852411697E-16, -3., -0.299999999999997));
#96 = CARTESIAN_POINT('', (-3., -3., -0.299999999999997));
#97 = CARTESIAN_POINT('', (-3., 2.02066721859313E-16, -0.299999999999997));
#98 = ADVANCED_FACE('', (#99), #102, .T.);
#99 = FACE_OUTER_BOUND('', #100, .T.);
#100 = EDGE_LOOP('', (#101));
#101 = ORIENTED_EDGE('', *, *, #63, .T.);
#102 = B_SPLINE_SURFACE_WITH_KNOTS('', 1, 1, ((#103, #104), (#105, #106)), .UNSPECIFIED., .F., .F., .U., (2, 2), (2, 2), (56.2597028468154, 62.2597028468154), (52.9965430056337, 58.9965430056337), .UNSPECIFIED.);
#103 = CARTESIAN_POINT('', (-3., 3.00000000000001, -44.));
#104 = CARTESIAN_POINT('', (-3., -3., -44.));
#105 = CARTESIAN_POINT('', (3., 3.00000000000001, -44.));
#106 = CARTESIAN_POINT('', (3., -3., -44.));
#107 = DRAUGHTING_MODEL('', (#115, #239, #287, #292, #297, #302, #307, #312), #326);
#108 = PRESENTATION_STYLE_ASSIGNMENT((#109));
#109 = SURFACE_STYLE_USAGE(.POSITIVE., #110);
#110 = SURFACE_SIDE_STYLE('', (#111));
#111 = SURFACE_STYLE_FILL_AREA(#112);
#112 = FILL_AREA_STYLE('', (#113));
#113 = FILL_AREA_STYLE_COLOUR('', #114);
#114 = COLOUR_RGB('', 0.50196078431373, 0.50196078431373, 0.50196078431373);
#115 = STYLED_ITEM('', (#108), #1);
#116 = MANIFOLD_SOLID_BREP('CUT', #117);
#117 = CLOSED_SHELL('', (#118, #135, #174, #223));
#118 = ADVANCED_FACE('', (#119), #130, .T.);
#119 = FACE_OUTER_BOUND('', #120, .T.);
#120 = EDGE_LOOP('', (#121));
#121 = ORIENTED_EDGE('', *, *, #122, .F.);
#122 = EDGE_CURVE('', #123, #123, #125, .T.);
#123 = VERTEX_POINT('', #124);
#124 = CARTESIAN_POINT('', (-3., 2.87791997799628E-15, -44.));
#125 = CIRCLE('', #126, 3.);
#126 = AXIS2_PLACEMENT_3D('', #127, #128, #129);
#127 = CARTESIAN_POINT('', (1.12410081243297E-15, 4.44089209850063E-16, -44.));
#128 = DIRECTION('', (0., 0., -1.));
#129 = DIRECTION('', (-1., 8.11276922715405E-16, 0.));
#130 = B_SPLINE_SURFACE_WITH_KNOTS('', 1, 1, ((#131, #132), (#133, #134)), .UNSPECIFIED., .F., .F., .U., (2, 2), (2, 2), (52.9965430056337, 58.9965430056337), (56.2597028468154, 62.2597028468154), .UNSPECIFIED.);
#131 = CARTESIAN_POINT('', (-3., 3.00000000000001, -44.));
#132 = CARTESIAN_POINT('', (3., 3.00000000000001, -44.));
#133 = CARTESIAN_POINT('', (-3., -3., -44.));
#134 = CARTESIAN_POINT('', (3., -3., -44.));
#135 = ADVANCED_FACE('', (#136), #155, .T.);
#136 = FACE_OUTER_BOUND('', #137, .T.);
#137 = EDGE_LOOP('', (#138, #139, #147, #154));
#138 = ORIENTED_EDGE('', *, *, #122, .T.);
#139 = ORIENTED_EDGE('', *, *, #140, .F.);
#140 = EDGE_CURVE('', #141, #123, #143, .T.);
#141 = VERTEX_POINT('', #142);
#142 = CARTESIAN_POINT('', (-3., 3.61270805748469E-15, -56.));
#143 = LINE('', #144, #145);
#144 = CARTESIAN_POINT('', (-3., 3.61270805748469E-15, -56.));
#145 = VECTOR('', #146, 12.);
#146 = DIRECTION('', (0., -7.3478807948841E-16, 12.));
#147 = ORIENTED_EDGE('', *, *, #148, .F.);
#148 = EDGE_CURVE('', #141, #141, #149, .T.);
#149 = CIRCLE('', #150, 3.);
#150 = AXIS2_PLACEMENT_3D('', #151, #152, #153);
#151 = CARTESIAN_POINT('', (9.71445146547012E-17, -1.66533453693773E-16, -56.));
#152 = DIRECTION('', (0., 0., -1.));
#153 = DIRECTION('', (-1., 1.01481781056335E-15, 0.));
#154 = ORIENTED_EDGE('', *, *, #140, .T.);
#155 = (
   BOUNDED_SURFACE ()
   B_SPLINE_SURFACE (1, 2, ((#156, #157, #158, #159, #160, #161, #162, #163, #164), (#165, #166, #167, #168, #169, #170, #171, #172, #173)), .UNSPECIFIED., .F., .T., .U.)
   B_SPLINE_SURFACE_WITH_KNOTS ((2, 2), (3, 2, 2, 2, 3), (-0.560224089635854, -0.224089635854342), (0., 0.25, 0.5, 0.75, 1.), .UNSPECIFIED.)
   GEOMETRIC_REPRESENTATION_ITEM ()
   RATIONAL_B_SPLINE_SURFACE (((1., 0.707106781186548, 1., 0.707106781186548, 1., 0.707106781186548, 1., 0.707106781186548, 1.), (1., 0.707106781186548, 1., 0.707106781186548, 1., 0.707106781186548, 1., 0.707106781186548, 1.)))
   REPRESENTATION_ITEM ('')
   SURFACE ()
);
#156 = CARTESIAN_POINT('', (-3., 3.09996458292131E-15, -56.));
#157 = CARTESIAN_POINT('', (-3., 3., -56.));
#158 = CARTESIAN_POINT('', (1.23705523830366E-15, 3., -56.));
#159 = CARTESIAN_POINT('', (3., 3., -56.));
#160 = CARTESIAN_POINT('', (3., 2.59649997502365E-15, -56.));
#161 = CARTESIAN_POINT('', (3., -3., -56.));
#162 = CARTESIAN_POINT('', (1.1009846701502E-15, -3., -56.));
#163 = CARTESIAN_POINT('', (-3., -3., -56.));
#164 = CARTESIAN_POINT('', (-3., 3.09996458292131E-15, -56.));
#165 = CARTESIAN_POINT('', (-3., 2.87791997799628E-15, -44.));
#166 = CARTESIAN_POINT('', (-3., 3., -44.));
#167 = CARTESIAN_POINT('', (1.23705523830366E-15, 3., -44.));
#168 = CARTESIAN_POINT('', (3., 3., -44.));
#169 = CARTESIAN_POINT('', (3., 2.37445537009862E-15, -44.));
#170 = CARTESIAN_POINT('', (3., -3., -44.));
#171 = CARTESIAN_POINT('', (1.1009846701502E-15, -3., -44.));
#172 = CARTESIAN_POINT('', (-3., -3., -44.));
#173 = CARTESIAN_POINT('', (-3., 2.87791997799628E-15, -44.));
#174 = ADVANCED_FACE('', (#175), #195, .T.);
#175 = FACE_OUTER_BOUND('', #176, .T.);
#176 = EDGE_LOOP('', (#177, #186, #187, #188));
#177 = ORIENTED_EDGE('', *, *, #178, .F.);
#178 = EDGE_CURVE('', #141, #179, #181, .T.);
#179 = VERTEX_POINT('', #180);
#180 = CARTESIAN_POINT('', (-2., 3.61270805748469E-15, -57.));
#181 = CIRCLE('', #182, 0.999999999999985);
#182 = AXIS2_PLACEMENT_3D('', #183, #184, #185);
#183 = CARTESIAN_POINT('', (-2.00000000000002, 3.55147571752732E-15, -56.));
#184 = DIRECTION('', (-6.12323399573689E-17, -1., -6.12323399573698E-17));
#185 = DIRECTION('', (-1., 6.12323399573685E-17, 7.10542735760111E-15));
#186 = ORIENTED_EDGE('', *, *, #148, .T.);
#187 = ORIENTED_EDGE('', *, *, #178, .T.);
#188 = ORIENTED_EDGE('', *, *, #189, .F.);
#189 = EDGE_CURVE('', #179, #179, #190, .T.);
#190 = CIRCLE('', #191, 2.);
#191 = AXIS2_PLACEMENT_3D('', #192, #193, #194);
#192 = CARTESIAN_POINT('', (1.38777878078145E-16, 1.0547118733939E-15, -57.));
#193 = DIRECTION('', (1.54653825578382E-29, 1.20917948619499E-14, -1.));
#194 = DIRECTION('', (-1., 1.2789980920454E-15, 0.));
#195 = (
   BOUNDED_SURFACE ()
   B_SPLINE_SURFACE (2, 2, ((#196, #197, #198), (#199, #200, #201), (#202, #203, #204), (#205, #206, #207), (#208, #209, #210), (#211, #212, #213), (#214, #215, #216), (#217, #218, #219), (#220, #221, #222)), .UNSPECIFIED., .T., .F., .U.)
   B_SPLINE_SURFACE_WITH_KNOTS ((3, 2, 2, 2, 3), (3, 3), (0., 0.25, 0.5, 0.75, 1.), (0., 1.), .UNSPECIFIED.)
   GEOMETRIC_REPRESENTATION_ITEM ()
   RATIONAL_B_SPLINE_SURFACE (((1., 0.707106781186548, 1.), (0.707106781186548, 0.5, 0.707106781186548), (1., 0.707106781186548, 1.), (0.707106781186548, 0.5, 0.707106781186548), (1., 0.707106781186548, 1.), (0.707106781186548, 0.5, 0.707106781186548), (1., 0.707106781186548, 1.), (0.707106781186548, 0.5, 0.707106781186548), (1., 0.707106781186548, 1.)))
   REPRESENTATION_ITEM ('')
   SURFACE ()
);
#196 = CARTESIAN_POINT('', (-3., 3.61270805748469E-15, -56.));
#197 = CARTESIAN_POINT('', (-3., 3.67394039744206E-15, -57.));
#198 = CARTESIAN_POINT('', (-2., 3.61270805748469E-15, -57.));
#199 = CARTESIAN_POINT('', (-3., 3., -56.));
#200 = CARTESIAN_POINT('', (-2.99999999999999, 3.00000000000001, -57.));
#201 = CARTESIAN_POINT('', (-1.99999999999999, 2.00000000000001, -57.));
#202 = CARTESIAN_POINT('', (2.36042137641093E-15, 3., -56.));
#203 = CARTESIAN_POINT('', (1.24955310275706E-14, 3., -57.));
#204 = CARTESIAN_POINT('', (1.24955310275706E-14, 2., -57.));
#205 = CARTESIAN_POINT('', (3., 3., -56.));
#206 = CARTESIAN_POINT('', (3.00000000000002, 2.99999999999999, -57.));
#207 = CARTESIAN_POINT('', (2.00000000000002, 1.99999999999999, -57.));
#208 = CARTESIAN_POINT('', (3., 5.29444265985048E-16, -56.));
#209 = CARTESIAN_POINT('', (3.00000000000001, -1.49425911246429E-14, -57.));
#210 = CARTESIAN_POINT('', (2.00000000000001, -1.50038234646003E-14, -57.));
#211 = CARTESIAN_POINT('', (3., -3., -56.));
#212 = CARTESIAN_POINT('', (3., -3.00000000000002, -57.));
#213 = CARTESIAN_POINT('', (2., -2.00000000000002, -57.));
#214 = CARTESIAN_POINT('', (-3.55448375344617E-16, -3., -56.));
#215 = CARTESIAN_POINT('', (-5.75360645477029E-15, -3.00000000000001, -57.));
#216 = CARTESIAN_POINT('', (-5.87607113468504E-15, -2.00000000000001, -57.));
#217 = CARTESIAN_POINT('', (-3., -3., -56.));
#218 = CARTESIAN_POINT('', (-3.00000000000001, -3., -57.));
#219 = CARTESIAN_POINT('', (-2.00000000000001, -2., -57.));
#220 = CARTESIAN_POINT('', (-3., 3.61270805748469E-15, -56.));
#221 = CARTESIAN_POINT('', (-3., 3.67394039744206E-15, -57.));
#222 = CARTESIAN_POINT('', (-2., 3.61270805748469E-15, -57.));
#223 = ADVANCED_FACE('', (#224), #227, .T.);
#224 = FACE_OUTER_BOUND('', #225, .T.);
#225 = EDGE_LOOP('', (#226));
#226 = ORIENTED_EDGE('', *, *, #189, .T.);
#227 = B_SPLINE_SURFACE_WITH_KNOTS('', 1, 1, ((#228, #229), (#230, #231)), .UNSPECIFIED., .F., .F., .U., (2, 2), (2, 2), (1.11126983722081, 5.11126983722081), (1.11126983722081, 5.11126983722081), .UNSPECIFIED.);
#228 = CARTESIAN_POINT('', (2., -2., -57.));
#229 = CARTESIAN_POINT('', (2., 2., -57.));
#230 = CARTESIAN_POINT('', (-2., -2., -57.));
#231 = CARTESIAN_POINT('', (-2., 2., -57.));
#232 = PRESENTATION_STYLE_ASSIGNMENT((#233));
#233 = SURFACE_STYLE_USAGE(.POSITIVE., #234);
#234 = SURFACE_SIDE_STYLE('', (#235));
#235 = SURFACE_STYLE_FILL_AREA(#236);
#236 = FILL_AREA_STYLE('', (#237));
#237 = FILL_AREA_STYLE_COLOUR('', #238);
#238 = COLOUR_RGB('', 0.8, 0.8, 0.8);
#239 = STYLED_ITEM('', (#232), #116);
#240 = TRIMMED_CURVE('cutting part line', #241, (#245), (#246), .T., .CARTESIAN.);
#241 = LINE('', #242, #243);
#242 = CARTESIAN_POINT('', (-4.94920728278413E-31, -2.69422295812418E-15, -44.));
#243 = VECTOR('', #244, 3.);
#244 = DIRECTION('', (3., -5.51091059616306E-16, 0.));
#245 = CARTESIAN_POINT('', (-4.94920728278413E-31, -2.69422295812418E-15, -44.));
#246 = CARTESIAN_POINT('', (3., -3.24531401774049E-15, -44.));
#247 = TRIMMED_CURVE('cutting part line', #248, (#252), (#253), .T., .CARTESIAN.);
#248 = LINE('', #249, #250);
#249 = CARTESIAN_POINT('', (3., -3.24531401774049E-15, -44.));
#250 = VECTOR('', #251, 12.);
#251 = DIRECTION('', (0., -7.3478807948841E-16, -12.));
#252 = CARTESIAN_POINT('', (3., -3.24531401774049E-15, -44.));
#253 = CARTESIAN_POINT('', (3., -3.9801020972289E-15, -56.));
#254 = TRIMMED_CURVE('cutting part line', #255, (#260), (#261), .T., .CARTESIAN.);
#255 = CIRCLE('', #256, 1.00000000000001);
#256 = AXIS2_PLACEMENT_3D('', #257, #258, #259);
#257 = CARTESIAN_POINT('', (1.99999999999999, -3.79640507735679E-15, -56.));
#258 = DIRECTION('', (1.83697019872107E-16, 1., -6.12323399573703E-17));
#259 = DIRECTION('', (1., -1.83697019872107E-16, -7.10542735760091E-15));
#260 = CARTESIAN_POINT('', (3., -3.9801020972289E-15, -56.));
#261 = CARTESIAN_POINT('', (2., -3.85763741731416E-15, -57.));
#262 = TRIMMED_CURVE('cutting part line', #263, (#267), (#268), .T., .CARTESIAN.);
#263 = LINE('', #264, #265);
#264 = CARTESIAN_POINT('', (2., -3.85763741731416E-15, -57.));
#265 = VECTOR('', #266, 2.);
#266 = DIRECTION('', (-2., 3.673940397442E-16, 0.));
#267 = CARTESIAN_POINT('', (2., -3.85763741731416E-15, -57.));
#268 = CARTESIAN_POINT('', (-4.2743153805863E-31, -3.49024337756996E-15, -57.));
#269 = TRIMMED_CURVE('cutting part line', #270, (#274), (#275), .T., .CARTESIAN.);
#270 = LINE('', #271, #272);
#271 = CARTESIAN_POINT('', (-6.41147307087945E-31, -3.49024337756996E-15, -57.));
#272 = VECTOR('', #273, 13.);
#273 = DIRECTION('', (1.46226578809532E-31, 7.9602041944578E-16, 13.));
#274 = CARTESIAN_POINT('', (-6.41147307087945E-31, -3.49024337756996E-15, -57.));
#275 = CARTESIAN_POINT('', (-4.94920728278413E-31, -2.69422295812418E-15, -44.));
#276 = COMPOSITE_CURVE('cutting part line', (#277, #278, #279, #280, #281), .U.);
#277 = COMPOSITE_CURVE_SEGMENT(.CONTINUOUS., .T., #240);
#278 = COMPOSITE_CURVE_SEGMENT(.CONTINUOUS., .T., #247);
#279 = COMPOSITE_CURVE_SEGMENT(.CONTINUOUS., .T., #254);
#280 = COMPOSITE_CURVE_SEGMENT(.CONTINUOUS., .T., #262);
#281 = COMPOSITE_CURVE_SEGMENT(.CONTINUOUS., .T., #269);
#282 = GEOMETRIC_SET('', (#276, #325));
#283 = PRESENTATION_STYLE_ASSIGNMENT((#284));
#284 = CURVE_STYLE('', #286, POSITIVE_LENGTH_MEASURE(1.E-6), #285);
#285 = COLOUR_RGB('', 0., 0., 1.);
#286 = DRAUGHTING_PRE_DEFINED_CURVE_FONT('continuous');
#287 = STYLED_ITEM('', (#283), #276);
#288 = PRESENTATION_STYLE_ASSIGNMENT((#289));
#289 = CURVE_STYLE('', #291, POSITIVE_LENGTH_MEASURE(1.E-6), #290);
#290 = COLOUR_RGB('', 0., 0., 1.);
#291 = DRAUGHTING_PRE_DEFINED_CURVE_FONT('continuous');
#292 = OVER_RIDING_STYLED_ITEM('', (#288), #240, #287);
#293 = PRESENTATION_STYLE_ASSIGNMENT((#294));
#294 = CURVE_STYLE('', #296, POSITIVE_LENGTH_MEASURE(1.E-6), #295);
#295 = COLOUR_RGB('', 0., 0., 1.);
#296 = DRAUGHTING_PRE_DEFINED_CURVE_FONT('continuous');
#297 = OVER_RIDING_STYLED_ITEM('', (#293), #247, #287);
#298 = PRESENTATION_STYLE_ASSIGNMENT((#299));
#299 = CURVE_STYLE('', #301, POSITIVE_LENGTH_MEASURE(1.E-6), #300);
#300 = COLOUR_RGB('', 0., 0., 1.);
#301 = DRAUGHTING_PRE_DEFINED_CURVE_FONT('continuous');
#302 = OVER_RIDING_STYLED_ITEM('', (#298), #254, #287);
#303 = PRESENTATION_STYLE_ASSIGNMENT((#304));
#304 = CURVE_STYLE('', #306, POSITIVE_LENGTH_MEASURE(1.E-6), #305);
#305 = COLOUR_RGB('', 0., 0., 1.);
#306 = DRAUGHTING_PRE_DEFINED_CURVE_FONT('continuous');
#307 = OVER_RIDING_STYLED_ITEM('', (#303), #262, #287);
#308 = PRESENTATION_STYLE_ASSIGNMENT((#309));
#309 = CURVE_STYLE('', #311, POSITIVE_LENGTH_MEASURE(1.E-6), #310);
#310 = COLOUR_RGB('', 0., 0., 1.);
#311 = DRAUGHTING_PRE_DEFINED_CURVE_FONT('continuous');
#312 = OVER_RIDING_STYLED_ITEM('', (#308), #269, #287);
#313 = AXIS2_PLACEMENT_3D('CIP', #314, #315, #316);
#314 = CARTESIAN_POINT('', (2.13715769029315E-31, 3.49024337756996E-15, -57.));
#315 = DIRECTION('', (-3.74939945665465E-33, -6.12323399573677E-17, 1.));
#316 = DIRECTION('', (1., -6.12323399573677E-17, 0.));
#317 = AXIS2_PLACEMENT_3D('MCS', #318, #319, #320);
#318 = CARTESIAN_POINT('', (1.34978380439567E-31, 2.20436423846524E-15, -36.));
#319 = DIRECTION('', (-3.74939945665465E-33, -6.12323399573677E-17, 1.));
#320 = DIRECTION('', (1., -6.12323399573677E-17, 0.));
#321 = AXIS2_PLACEMENT_3D('PCS', #322, #323, #324);
#322 = CARTESIAN_POINT('', (0., 0., 0.));
#323 = DIRECTION('', (0., 0., 1.));
#324 = DIRECTION('', (1., 0., 0.));
#325 = CARTESIAN_POINT('CRP', (3., 0., -57.));
#326 = (
   GEOMETRIC_REPRESENTATION_CONTEXT (3)
   GLOBAL_UNCERTAINTY_ASSIGNED_CONTEXT ((#328))
   GLOBAL_UNIT_ASSIGNED_CONTEXT ((#327, #329, #330))
   REPRESENTATION_CONTEXT ('', '3D')
);
#327 = (
   LENGTH_UNIT ()
   NAMED_UNIT (*)
   SI_UNIT (.MILLI., .METRE.)
);
#328 = UNCERTAINTY_MEASURE_WITH_UNIT(LENGTH_MEASURE(1.E-6), #327, 'DISTANCE_ACCURACY_VALUE', '');
#329 = (
   NAMED_UNIT (*)
   SI_UNIT ($, .STERADIAN.)
   SOLID_ANGLE_UNIT ()
);
#330 = (
   NAMED_UNIT (*)
   PLANE_ANGLE_UNIT ()
   SI_UNIT ($, .RADIAN.)
);
#331 = SHAPE_REPRESENTATION('', (), #326);
#332 = PRODUCT_DEFINITION_SHAPE('', '', #333);
#333 = PRODUCT_DEFINITION('', '', #336, #340);
#334 = APPLICATION_CONTEXT('configuration controlled 3D designs of mechanical parts and assemblies');
#335 = APPLICATION_PROTOCOL_DEFINITION('International Standard', 'automotive_design', 2002, #334);
#336 = PRODUCT_DEFINITION_FORMATION_WITH_SPECIFIED_SOURCE('', '', #337, .NOT_KNOWN.);
#337 = PRODUCT('EmptyName', 'EmptyName', '', (#338));
#338 = PRODUCT_CONTEXT('', #334, 'mechanical');
#339 = PRODUCT_RELATED_PRODUCT_CATEGORY('detail', '', (#337));
#340 = PRODUCT_DEFINITION_CONTEXT('part definition', #334, 'design');
#341 = SHAPE_DEFINITION_REPRESENTATION(#332, #331);
#342 = CONSTRUCTIVE_GEOMETRY_REPRESENTATION('supplemental geometry', (#313, #317, #321), #326);
#343 = CONSTRUCTIVE_GEOMETRY_REPRESENTATION_RELATIONSHIP('', '', #331, #342);
#344 = SHAPE_REPRESENTATION_RELATIONSHIP('', '', #331, #345);
#345 = SHAPE_REPRESENTATION('', (#282), #326);
#346 = SHAPE_REPRESENTATION_RELATIONSHIP('', '', #331, #347);
#347 = ADVANCED_BREP_SHAPE_REPRESENTATION('', (#1, #116), #326);
ENDSEC;
END-ISO-10303-21;
