ISO-10303-21;
HEADER;
FILE_DESCRIPTION(('STEP'), '1');
FILE_NAME('C:\\Users\\ds2002\\OneDrive - Sandvik\\HomeShare\\Documents\\Batchrepair\\CorSRT2\\NEW_MILSQ_SLD\\Output\\MOD000000000000000020084584100000.stp', '2019-01-02T12:11:46', (''), (''), 'Express v3.0.0.0', 'Express Tool', 'Unknown');
FILE_SCHEMA(('AUTOMOTIVE_DESIGN'));
ENDSEC;

DATA;
#1 = MANIFOLD_SOLID_BREP('NOCUT', #2);
#2 = CLOSED_SHELL('', (#3, #50, #97, #106, #137, #176));
#3 = ADVANCED_FACE('', (#4), #31, .T.);
#4 = FACE_OUTER_BOUND('', #5, .T.);
#5 = EDGE_LOOP('', (#6, #16, #23, #24));
#6 = ORIENTED_EDGE('', *, *, #7, .F.);
#7 = EDGE_CURVE('', #8, #10, #12, .T.);
#8 = VERTEX_POINT('', #9);
#9 = CARTESIAN_POINT('', (-3., 2.63299061816681E-15, -40.));
#10 = VERTEX_POINT('', #11);
#11 = CARTESIAN_POINT('', (-2., 2.67769022633569E-15, -41.73));
#12 = LINE('', #13, #14);
#13 = CARTESIAN_POINT('', (-3., 2.63299061816681E-15, -40.));
#14 = VECTOR('', #15, 1.99822421164393);
#15 = DIRECTION('', (1., 4.46996081688801E-17, -1.73));
#16 = ORIENTED_EDGE('', *, *, #17, .T.);
#17 = EDGE_CURVE('', #8, #8, #18, .T.);
#18 = CIRCLE('', #19, 3.);
#19 = AXIS2_PLACEMENT_3D('', #20, #21, #22);
#20 = CARTESIAN_POINT('', (-2.91433543964104E-16, 1.11022302462516E-15, -40.));
#21 = DIRECTION('', (0., 0., -1.));
#22 = DIRECTION('', (-1., 5.07589197847218E-16, 0.));
#23 = ORIENTED_EDGE('', *, *, #7, .T.);
#24 = ORIENTED_EDGE('', *, *, #25, .F.);
#25 = EDGE_CURVE('', #10, #10, #26, .T.);
#26 = CIRCLE('', #27, 2.);
#27 = AXIS2_PLACEMENT_3D('', #28, #29, #30);
#28 = CARTESIAN_POINT('', (6.24500451351651E-17, 7.7715611723761E-16, -41.73));
#29 = DIRECTION('', (-3.55271367880049E-15, 1.15581022880031E-14, -1.));
#30 = DIRECTION('', (-1., 9.5026705454904E-16, 3.5527136788005E-15));
#31 = (
   BOUNDED_SURFACE ()
   B_SPLINE_SURFACE (2, 1, ((#32, #33), (#34, #35), (#36, #37), (#38, #39), (#40, #41), (#42, #43), (#44, #45), (#46, #47), (#48, #49)), .UNSPECIFIED., .T., .F., .U.)
   B_SPLINE_SURFACE_WITH_KNOTS ((3, 2, 2, 2, 3), (2, 2), (0., 0.25, 0.5, 0.75, 1.), (0., 1.), .UNSPECIFIED.)
   GEOMETRIC_REPRESENTATION_ITEM ()
   RATIONAL_B_SPLINE_SURFACE (((1., 1.), (0.707106781186548, 0.707106781186548), (1., 1.), (0.707106781186548, 0.707106781186548), (1., 1.), (0.707106781186548, 0.707106781186548), (1., 1.), (0.707106781186548, 0.707106781186548), (1., 1.)))
   REPRESENTATION_ITEM ('')
   SURFACE ()
);
#32 = CARTESIAN_POINT('', (-3., 2.63299061816681E-15, -40.));
#33 = CARTESIAN_POINT('', (-2., 2.10689770324251E-15, -41.73));
#34 = CARTESIAN_POINT('', (-3., 3., -40.));
#35 = CARTESIAN_POINT('', (-2., 2., -41.73));
#36 = CARTESIAN_POINT('', (4.37014366161611E-16, 3., -40.));
#37 = CARTESIAN_POINT('', (3.60731849813479E-16, 2., -41.73));
#38 = CARTESIAN_POINT('', (3., 3., -40.));
#39 = CARTESIAN_POINT('', (2., 2., -41.73));
#40 = CARTESIAN_POINT('', (3., 2.17529552007802E-15, -40.));
#41 = CARTESIAN_POINT('', (2., 1.80176763784998E-15, -41.73));
#42 = CARTESIAN_POINT('', (3., -3., -40.));
#43 = CARTESIAN_POINT('', (2., -2., -41.73));
#44 = CARTESIAN_POINT('', (3.46713307817029E-16, -3., -40.));
#45 = CARTESIAN_POINT('', (3.00531144250425E-16, -2., -41.73));
#46 = CARTESIAN_POINT('', (-3., -3., -40.));
#47 = CARTESIAN_POINT('', (-2., -2., -41.73));
#48 = CARTESIAN_POINT('', (-3., 2.63299061816681E-15, -40.));
#49 = CARTESIAN_POINT('', (-2., 2.10689770324251E-15, -41.73));
#50 = ADVANCED_FACE('', (#51), #78, .T.);
#51 = FACE_OUTER_BOUND('', #52, .T.);
#52 = EDGE_LOOP('', (#53, #63, #70, #71));
#53 = ORIENTED_EDGE('', *, *, #54, .T.);
#54 = EDGE_CURVE('', #55, #57, #59, .T.);
#55 = VERTEX_POINT('', #56);
#56 = CARTESIAN_POINT('', (-3., 2.02066721859313E-16, -0.299999999999997));
#57 = VERTEX_POINT('', #58);
#58 = CARTESIAN_POINT('', (-2.7, 1.65327317884893E-16, 0.));
#59 = LINE('', #60, #61);
#60 = CARTESIAN_POINT('', (-3., 2.02066721859313E-16, -0.299999999999997));
#61 = VECTOR('', #62, 0.424264068711926);
#62 = DIRECTION('', (0.3, -3.673940397442E-17, 0.299999999999997));
#63 = ORIENTED_EDGE('', *, *, #64, .T.);
#64 = EDGE_CURVE('', #57, #57, #65, .T.);
#65 = CIRCLE('', #66, 2.7);
#66 = AXIS2_PLACEMENT_3D('', #67, #68, #69);
#67 = CARTESIAN_POINT('', (6.24500451351651E-17, -1.88737914186277E-15, -1.07852076885685E-31));
#68 = DIRECTION('', (6.60738625565492E-33, 6.12323399573678E-17, -1.));
#69 = DIRECTION('', (-1., 7.60261651758392E-16, 3.99452136613649E-32));
#70 = ORIENTED_EDGE('', *, *, #54, .F.);
#71 = ORIENTED_EDGE('', *, *, #72, .F.);
#72 = EDGE_CURVE('', #55, #55, #73, .T.);
#73 = CIRCLE('', #74, 3.);
#74 = AXIS2_PLACEMENT_3D('', #75, #76, #77);
#75 = CARTESIAN_POINT('', (-8.32667268468867E-16, 1.66533453693773E-16, -0.299999999999997));
#76 = DIRECTION('', (7.45939217764516E-34, 6.29780982393227E-17, -1.));
#77 = DIRECTION('', (-1., 1.18444227218465E-17, 0.));
#78 = (
   BOUNDED_SURFACE ()
   B_SPLINE_SURFACE (1, 2, ((#79, #80, #81, #82, #83, #84, #85, #86, #87), (#88, #89, #90, #91, #92, #93, #94, #95, #96)), .UNSPECIFIED., .F., .T., .U.)
   B_SPLINE_SURFACE_WITH_KNOTS ((2, 2), (3, 2, 2, 2, 3), (0., 1.), (0., 0.25, 0.5, 0.75, 1.), .UNSPECIFIED.)
   GEOMETRIC_REPRESENTATION_ITEM ()
   RATIONAL_B_SPLINE_SURFACE (((1., 0.707106781186548, 1., 0.707106781186548, 1., 0.707106781186548, 1., 0.707106781186548, 1.), (1., 0.707106781186548, 1., 0.707106781186548, 1., 0.707106781186548, 1., 0.707106781186548, 1.)))
   REPRESENTATION_ITEM ('')
   SURFACE ()
);
#79 = CARTESIAN_POINT('', (-3., 1.49129302665284E-15, -0.299999999999997));
#80 = CARTESIAN_POINT('', (-3., 3., -0.299999999999985));
#81 = CARTESIAN_POINT('', (2.34149119846292E-15, 3., -0.299999999999985));
#82 = CARTESIAN_POINT('', (3., 3., -0.299999999999985));
#83 = CARTESIAN_POINT('', (3., -1.34594359183367E-15, -0.299999999999997));
#84 = CARTESIAN_POINT('', (3., -3., -0.300000000000009));
#85 = CARTESIAN_POINT('', (-1.28351380279387E-16, -3., -0.300000000000009));
#86 = CARTESIAN_POINT('', (-3., -3., -0.300000000000009));
#87 = CARTESIAN_POINT('', (-3., 1.49129302665284E-15, -0.299999999999997));
#88 = CARTESIAN_POINT('', (-2.7, 1.65327317884893E-16, -2.18952885050753E-47));
#89 = CARTESIAN_POINT('', (-2.7, 2.7, 1.04916075827078E-14));
#90 = CARTESIAN_POINT('', (2.19962936753859E-15, 2.7, 1.04916075827078E-14));
#91 = CARTESIAN_POINT('', (2.7, 2.7, 1.04916075827078E-14));
#92 = CARTESIAN_POINT('', (2.7, -2.38818563875297E-15, 1.12461399303431E-30));
#93 = CARTESIAN_POINT('', (2.7, -2.7, -1.04916075827078E-14));
#94 = CARTESIAN_POINT('', (-2.32289533294833E-17, -2.7, -1.04916075827078E-14));
#95 = CARTESIAN_POINT('', (-2.7, -2.7, -1.04916075827078E-14));
#96 = CARTESIAN_POINT('', (-2.7, 1.65327317884893E-16, -2.18952885050753E-47));
#97 = ADVANCED_FACE('', (#98), #101, .T.);
#98 = FACE_OUTER_BOUND('', #99, .T.);
#99 = EDGE_LOOP('', (#100));
#100 = ORIENTED_EDGE('', *, *, #64, .F.);
#101 = B_SPLINE_SURFACE_WITH_KNOTS('', 1, 1, ((#102, #103), (#104, #105)), .UNSPECIFIED., .F., .F., .U., (2, 2), (2, 2), (1.50021428024809, 6.90021428024809), (1.50021428024809, 6.90021428024809), .UNSPECIFIED.);
#102 = CARTESIAN_POINT('', (2.7, -2.7, 6.94010003971609E-15));
#103 = CARTESIAN_POINT('', (-2.7, -2.7, -7.27075467548589E-15));
#104 = CARTESIAN_POINT('', (2.7, 2.7, 7.27075467548587E-15));
#105 = CARTESIAN_POINT('', (-2.7, 2.7, -6.9401000397161E-15));
#106 = ADVANCED_FACE('', (#107), #118, .T.);
#107 = FACE_OUTER_BOUND('', #108, .T.);
#108 = EDGE_LOOP('', (#109, #115, #116, #117));
#109 = ORIENTED_EDGE('', *, *, #110, .T.);
#110 = EDGE_CURVE('', #8, #55, #111, .T.);
#111 = LINE('', #112, #113);
#112 = CARTESIAN_POINT('', (-3., 2.63299061816681E-15, -40.));
#113 = VECTOR('', #114, 39.7);
#114 = DIRECTION('', (0., -2.4309238963075E-15, 39.7));
#115 = ORIENTED_EDGE('', *, *, #72, .T.);
#116 = ORIENTED_EDGE('', *, *, #110, .F.);
#117 = ORIENTED_EDGE('', *, *, #17, .F.);
#118 = (
   BOUNDED_SURFACE ()
   B_SPLINE_SURFACE (1, 2, ((#119, #120, #121, #122, #123, #124, #125, #126, #127), (#128, #129, #130, #131, #132, #133, #134, #135, #136)), .UNSPECIFIED., .F., .T., .U.)
   B_SPLINE_SURFACE_WITH_KNOTS ((2, 2), (3, 2, 2, 2, 3), (0., 1.), (0., 4.7123889803847, 9.4247779607694, 14.1371669411541, 18.8495559215388), .UNSPECIFIED.)
   GEOMETRIC_REPRESENTATION_ITEM ()
   RATIONAL_B_SPLINE_SURFACE (((1., 0.707106781186548, 1., 0.707106781186548, 1., 0.707106781186548, 1., 0.707106781186548, 1.), (1., 0.707106781186548, 1., 0.707106781186548, 1., 0.707106781186548, 1., 0.707106781186548, 1.)))
   REPRESENTATION_ITEM ('')
   SURFACE ()
);
#119 = CARTESIAN_POINT('', (-3., 1.09024514155944E-15, -40.));
#120 = CARTESIAN_POINT('', (-3., 3., -40.));
#121 = CARTESIAN_POINT('', (2.51729669324767E-15, 3., -40.));
#122 = CARTESIAN_POINT('', (3., 3., -40.));
#123 = CARTESIAN_POINT('', (3., -2.72125254614051E-15, -40.));
#124 = CARTESIAN_POINT('', (3., -3., -40.));
#125 = CARTESIAN_POINT('', (-9.26806954708078E-16, -3., -40.));
#126 = CARTESIAN_POINT('', (-3., -3., -40.));
#127 = CARTESIAN_POINT('', (-3., 1.09024514155944E-15, -40.));
#128 = CARTESIAN_POINT('', (-3., 2.02066721859312E-16, -0.299999999999997));
#129 = CARTESIAN_POINT('', (-3., 3., -0.299999999999997));
#130 = CARTESIAN_POINT('', (3.25189426120798E-15, 3., -0.299999999999997));
#131 = CARTESIAN_POINT('', (3., 3., -0.299999999999997));
#132 = CARTESIAN_POINT('', (3., -3.60943096584064E-15, -0.299999999999997));
#133 = CARTESIAN_POINT('', (3., -3., -0.299999999999997));
#134 = CARTESIAN_POINT('', (-1.92209386747767E-16, -3., -0.299999999999997));
#135 = CARTESIAN_POINT('', (-3., -3., -0.299999999999997));
#136 = CARTESIAN_POINT('', (-3., 2.02066721859312E-16, -0.299999999999997));
#137 = ADVANCED_FACE('', (#138), #157, .T.);
#138 = FACE_OUTER_BOUND('', #139, .T.);
#139 = EDGE_LOOP('', (#140, #149, #155, #156));
#140 = ORIENTED_EDGE('', *, *, #141, .F.);
#141 = EDGE_CURVE('', #142, #142, #144, .T.);
#142 = VERTEX_POINT('', #143);
#143 = CARTESIAN_POINT('', (-2., 2.93915231795365E-15, -46.));
#144 = CIRCLE('', #145, 2.);
#145 = AXIS2_PLACEMENT_3D('', #146, #147, #148);
#146 = CARTESIAN_POINT('', (6.24500451351651E-17, 1.0547118733939E-15, -46.));
#147 = DIRECTION('', (0., 0., -1.));
#148 = DIRECTION('', (-1., 9.42220222279876E-16, 0.));
#149 = ORIENTED_EDGE('', *, *, #150, .F.);
#150 = EDGE_CURVE('', #10, #142, #151, .T.);
#151 = LINE('', #152, #153);
#152 = CARTESIAN_POINT('', (-2., 2.67769022633569E-15, -41.73));
#153 = VECTOR('', #154, 4.27);
#154 = DIRECTION('', (0., 2.6146209161796E-16, -4.27));
#155 = ORIENTED_EDGE('', *, *, #25, .T.);
#156 = ORIENTED_EDGE('', *, *, #150, .T.);
#157 = (
   BOUNDED_SURFACE ()
   B_SPLINE_SURFACE (2, 1, ((#158, #159), (#160, #161), (#162, #163), (#164, #165), (#166, #167), (#168, #169), (#170, #171), (#172, #173), (#174, #175)), .UNSPECIFIED., .T., .F., .U.)
   B_SPLINE_SURFACE_WITH_KNOTS ((3, 2, 2, 2, 3), (2, 2), (0., 3.1415926535898, 6.2831853071796, 9.4247779607694, 12.5663706143592), (0., 0.299229152067274), .UNSPECIFIED.)
   GEOMETRIC_REPRESENTATION_ITEM ()
   RATIONAL_B_SPLINE_SURFACE (((1., 1.), (0.707106781186548, 0.707106781186548), (1., 1.), (0.707106781186548, 0.707106781186548), (1., 1.), (0.707106781186548, 0.707106781186548), (1., 1.), (0.707106781186548, 0.707106781186548), (1., 1.)))
   REPRESENTATION_ITEM ('')
   SURFACE ()
);
#158 = CARTESIAN_POINT('', (-2., 2.67769022633569E-15, -41.73));
#159 = CARTESIAN_POINT('', (-2., 2.95524598249198E-15, -46.));
#160 = CARTESIAN_POINT('', (-2., 2., -41.73));
#161 = CARTESIAN_POINT('', (-2., 2., -46.));
#162 = CARTESIAN_POINT('', (2.18746416951387E-15, 2., -41.73));
#163 = CARTESIAN_POINT('', (2.18746416951387E-15, 2., -46.));
#164 = CARTESIAN_POINT('', (2., 2., -41.73));
#165 = CARTESIAN_POINT('', (2., 2., -46.));
#166 = CARTESIAN_POINT('', (2., -2.09969395911867E-15, -41.73));
#167 = CARTESIAN_POINT('', (2., -1.82213820296238E-15, -46.));
#168 = CARTESIAN_POINT('', (2., -2., -41.73));
#169 = CARTESIAN_POINT('', (2., -2., -46.));
#170 = CARTESIAN_POINT('', (-2.34499065611102E-15, -2., -41.73));
#171 = CARTESIAN_POINT('', (-2.34499065611102E-15, -2., -46.));
#172 = CARTESIAN_POINT('', (-2., -2., -41.73));
#173 = CARTESIAN_POINT('', (-2., -2., -46.));
#174 = CARTESIAN_POINT('', (-2., 2.67769022633569E-15, -41.73));
#175 = CARTESIAN_POINT('', (-2., 2.95524598249198E-15, -46.));
#176 = ADVANCED_FACE('', (#177), #180, .T.);
#177 = FACE_OUTER_BOUND('', #178, .T.);
#178 = EDGE_LOOP('', (#179));
#179 = ORIENTED_EDGE('', *, *, #141, .T.);
#180 = B_SPLINE_SURFACE_WITH_KNOTS('', 1, 1, ((#181, #182), (#183, #184)), .UNSPECIFIED., .F., .F., .U., (2, 2), (2, 2), (57.470229288182, 61.470229288182), (53.7860165642671, 57.7860165642671), .UNSPECIFIED.);
#181 = CARTESIAN_POINT('', (-2., 2., -46.));
#182 = CARTESIAN_POINT('', (-2., -2., -46.));
#183 = CARTESIAN_POINT('', (2., 2., -46.));
#184 = CARTESIAN_POINT('', (2., -2., -46.));
#185 = DRAUGHTING_MODEL('', (#193, #317, #365, #370, #375, #380, #385, #390), #404);
#186 = PRESENTATION_STYLE_ASSIGNMENT((#187));
#187 = SURFACE_STYLE_USAGE(.POSITIVE., #188);
#188 = SURFACE_SIDE_STYLE('', (#189));
#189 = SURFACE_STYLE_FILL_AREA(#190);
#190 = FILL_AREA_STYLE('', (#191));
#191 = FILL_AREA_STYLE_COLOUR('', #192);
#192 = COLOUR_RGB('', 0.50196078431373, 0.50196078431373, 0.50196078431373);
#193 = STYLED_ITEM('', (#186), #1);
#194 = MANIFOLD_SOLID_BREP('CUT', #195);
#195 = CLOSED_SHELL('', (#196, #213, #252, #301));
#196 = ADVANCED_FACE('', (#197), #208, .T.);
#197 = FACE_OUTER_BOUND('', #198, .T.);
#198 = EDGE_LOOP('', (#199));
#199 = ORIENTED_EDGE('', *, *, #200, .F.);
#200 = EDGE_CURVE('', #201, #201, #203, .T.);
#201 = VERTEX_POINT('', #202);
#202 = CARTESIAN_POINT('', (-2., 2.93915231795365E-15, -46.));
#203 = CIRCLE('', #204, 2.);
#204 = AXIS2_PLACEMENT_3D('', #205, #206, #207);
#205 = CARTESIAN_POINT('', (6.24500451351651E-17, 1.0547118733939E-15, -46.));
#206 = DIRECTION('', (0., 0., -1.));
#207 = DIRECTION('', (-1., 9.42220222279876E-16, 0.));
#208 = B_SPLINE_SURFACE_WITH_KNOTS('', 1, 1, ((#209, #210), (#211, #212)), .UNSPECIFIED., .F., .F., .U., (2, 2), (2, 2), (53.7860165642671, 57.7860165642671), (57.470229288182, 61.470229288182), .UNSPECIFIED.);
#209 = CARTESIAN_POINT('', (-2., 2., -46.));
#210 = CARTESIAN_POINT('', (2., 2., -46.));
#211 = CARTESIAN_POINT('', (-2., -2., -46.));
#212 = CARTESIAN_POINT('', (2., -2., -46.));
#213 = ADVANCED_FACE('', (#214), #233, .T.);
#214 = FACE_OUTER_BOUND('', #215, .T.);
#215 = EDGE_LOOP('', (#216, #217, #225, #232));
#216 = ORIENTED_EDGE('', *, *, #200, .T.);
#217 = ORIENTED_EDGE('', *, *, #218, .T.);
#218 = EDGE_CURVE('', #201, #219, #221, .T.);
#219 = VERTEX_POINT('', #220);
#220 = CARTESIAN_POINT('', (-2., 3.55147571752732E-15, -56.));
#221 = LINE('', #222, #223);
#222 = CARTESIAN_POINT('', (-2., 2.93915231795365E-15, -46.));
#223 = VECTOR('', #224, 10.);
#224 = DIRECTION('', (0., 6.1232339957367E-16, -10.));
#225 = ORIENTED_EDGE('', *, *, #226, .F.);
#226 = EDGE_CURVE('', #219, #219, #227, .T.);
#227 = CIRCLE('', #228, 2.);
#228 = AXIS2_PLACEMENT_3D('', #229, #230, #231);
#229 = CARTESIAN_POINT('', (1.2490009027033E-16, 9.43689570931383E-16, -56.));
#230 = DIRECTION('', (1.57664075642364E-29, 1.20917948619499E-14, -1.));
#231 = DIRECTION('', (-1., 1.30389307329797E-15, 0.));
#232 = ORIENTED_EDGE('', *, *, #218, .F.);
#233 = (
   BOUNDED_SURFACE ()
   B_SPLINE_SURFACE (2, 1, ((#234, #235), (#236, #237), (#238, #239), (#240, #241), (#242, #243), (#244, #245), (#246, #247), (#248, #249), (#250, #251)), .UNSPECIFIED., .T., .F., .U.)
   B_SPLINE_SURFACE_WITH_KNOTS ((3, 2, 2, 2, 3), (2, 2), (0., 3.1415926535898, 6.2831853071796, 9.4247779607694, 12.5663706143592), (0.299229152067274, 1.), .UNSPECIFIED.)
   GEOMETRIC_REPRESENTATION_ITEM ()
   RATIONAL_B_SPLINE_SURFACE (((1., 1.), (0.707106781186548, 0.707106781186548), (1., 1.), (0.707106781186548, 0.707106781186548), (1., 1.), (0.707106781186548, 0.707106781186548), (1., 1.), (0.707106781186548, 0.707106781186548), (1., 1.)))
   REPRESENTATION_ITEM ('')
   SURFACE ()
);
#234 = CARTESIAN_POINT('', (-2., 2.93915231795365E-15, -46.));
#235 = CARTESIAN_POINT('', (-2., 3.49426383026623E-15, -56.));
#236 = CARTESIAN_POINT('', (-2., 2., -46.));
#237 = CARTESIAN_POINT('', (-2., 2., -56.));
#238 = CARTESIAN_POINT('', (2.17137050497554E-15, 2., -46.));
#239 = CARTESIAN_POINT('', (2.17137050497554E-15, 2., -56.));
#240 = CARTESIAN_POINT('', (2., 2., -46.));
#241 = CARTESIAN_POINT('', (2., 2., -56.));
#242 = CARTESIAN_POINT('', (2., -1.80604453842405E-15, -46.));
#243 = CARTESIAN_POINT('', (2., -1.25093302611148E-15, -56.));
#244 = CARTESIAN_POINT('', (2., -2., -46.));
#245 = CARTESIAN_POINT('', (2., -2., -56.));
#246 = CARTESIAN_POINT('', (-2.32889699157269E-15, -2., -46.));
#247 = CARTESIAN_POINT('', (-2.32889699157269E-15, -2., -56.));
#248 = CARTESIAN_POINT('', (-2., -2., -46.));
#249 = CARTESIAN_POINT('', (-2., -2., -56.));
#250 = CARTESIAN_POINT('', (-2., 2.93915231795365E-15, -46.));
#251 = CARTESIAN_POINT('', (-2., 3.49426383026623E-15, -56.));
#252 = ADVANCED_FACE('', (#253), #273, .T.);
#253 = FACE_OUTER_BOUND('', #254, .T.);
#254 = EDGE_LOOP('', (#255, #264, #265, #266));
#255 = ORIENTED_EDGE('', *, *, #256, .F.);
#256 = EDGE_CURVE('', #219, #257, #259, .T.);
#257 = VERTEX_POINT('', #258);
#258 = CARTESIAN_POINT('', (-1., 3.55147571752732E-15, -57.));
#259 = CIRCLE('', #260, 0.999999999999985);
#260 = AXIS2_PLACEMENT_3D('', #261, #262, #263);
#261 = CARTESIAN_POINT('', (-1.00000000000002, 3.49024337756995E-15, -56.));
#262 = DIRECTION('', (-6.12323399573689E-17, -1., -6.12323399573698E-17));
#263 = DIRECTION('', (-1., 6.12323399573685E-17, 7.10542735760111E-15));
#264 = ORIENTED_EDGE('', *, *, #226, .T.);
#265 = ORIENTED_EDGE('', *, *, #256, .T.);
#266 = ORIENTED_EDGE('', *, *, #267, .F.);
#267 = EDGE_CURVE('', #257, #257, #268, .T.);
#268 = CIRCLE('', #269, 0.999999999999999);
#269 = AXIS2_PLACEMENT_3D('', #270, #271, #272);
#270 = CARTESIAN_POINT('', (-1.04083408558608E-16, 2.91433543964104E-15, -57.));
#271 = DIRECTION('', (1.54083390769735E-29, 2.41835897238999E-14, -1.));
#272 = DIRECTION('', (-1., 6.37140277886284E-16, 0.));
#273 = (
   BOUNDED_SURFACE ()
   B_SPLINE_SURFACE (2, 2, ((#274, #275, #276), (#277, #278, #279), (#280, #281, #282), (#283, #284, #285), (#286, #287, #288), (#289, #290, #291), (#292, #293, #294), (#295, #296, #297), (#298, #299, #300)), .UNSPECIFIED., .T., .F., .U.)
   B_SPLINE_SURFACE_WITH_KNOTS ((3, 2, 2, 2, 3), (3, 3), (0., 0.25, 0.5, 0.75, 1.), (0., 1.), .UNSPECIFIED.)
   GEOMETRIC_REPRESENTATION_ITEM ()
   RATIONAL_B_SPLINE_SURFACE (((1., 0.707106781186548, 1.), (0.707106781186548, 0.5, 0.707106781186548), (1., 0.707106781186548, 1.), (0.707106781186548, 0.5, 0.707106781186548), (1., 0.707106781186548, 1.), (0.707106781186548, 0.5, 0.707106781186548), (1., 0.707106781186548, 1.), (0.707106781186548, 0.5, 0.707106781186548), (1., 0.707106781186548, 1.)))
   REPRESENTATION_ITEM ('')
   SURFACE ()
);
#274 = CARTESIAN_POINT('', (-2., 3.55147571752732E-15, -56.));
#275 = CARTESIAN_POINT('', (-2., 3.61270805748469E-15, -57.));
#276 = CARTESIAN_POINT('', (-1., 3.55147571752732E-15, -57.));
#277 = CARTESIAN_POINT('', (-2., 2., -56.));
#278 = CARTESIAN_POINT('', (-1.99999999999999, 2.00000000000001, -57.));
#279 = CARTESIAN_POINT('', (-0.999999999999987, 1.00000000000001, -57.));
#280 = CARTESIAN_POINT('', (1.74979871286712E-15, 2., -56.));
#281 = CARTESIAN_POINT('', (1.69218470196279E-14, 1.99999999999999, -57.));
#282 = CARTESIAN_POINT('', (1.69218470196279E-14, 0.999999999999994, -57.));
#283 = CARTESIAN_POINT('', (2., 2., -56.));
#284 = CARTESIAN_POINT('', (2.00000000000002, 1.99999999999998, -57.));
#285 = CARTESIAN_POINT('', (1.00000000000002, 0.999999999999981, -57.));
#286 = CARTESIAN_POINT('', (2., 6.90256530952714E-16, -56.));
#287 = CARTESIAN_POINT('', (2.00000000000001, -2.24871803850106E-14, -57.));
#288 = CARTESIAN_POINT('', (1.00000000000001, -2.2548412724968E-14, -57.));
#289 = CARTESIAN_POINT('', (2., -2., -56.));
#290 = CARTESIAN_POINT('', (1.99999999999999, -2.00000000000003, -57.));
#291 = CARTESIAN_POINT('', (0.999999999999995, -1.00000000000003, -57.));
#292 = CARTESIAN_POINT('', (-8.66491113878182E-16, -2., -56.));
#293 = CARTESIAN_POINT('', (-8.93311206303801E-15, -2.00000000000001, -57.));
#294 = CARTESIAN_POINT('', (-9.05557674295269E-15, -1.00000000000001, -57.));
#295 = CARTESIAN_POINT('', (-2., -2., -56.));
#296 = CARTESIAN_POINT('', (-2.00000000000001, -2., -57.));
#297 = CARTESIAN_POINT('', (-1.00000000000001, -1., -57.));
#298 = CARTESIAN_POINT('', (-2., 3.55147571752732E-15, -56.));
#299 = CARTESIAN_POINT('', (-2., 3.61270805748469E-15, -57.));
#300 = CARTESIAN_POINT('', (-1., 3.55147571752732E-15, -57.));
#301 = ADVANCED_FACE('', (#302), #305, .T.);
#302 = FACE_OUTER_BOUND('', #303, .T.);
#303 = EDGE_LOOP('', (#304));
#304 = ORIENTED_EDGE('', *, *, #267, .T.);
#305 = B_SPLINE_SURFACE_WITH_KNOTS('', 1, 1, ((#306, #307), (#308, #309)), .UNSPECIFIED., .F., .F., .U., (2, 2), (2, 2), (0.5556349186104, 2.5556349186104), (0.555634918610403, 2.5556349186104), .UNSPECIFIED.);
#306 = CARTESIAN_POINT('', (1., -0.999999999999997, -57.));
#307 = CARTESIAN_POINT('', (1., 1., -57.));
#308 = CARTESIAN_POINT('', (-1., -0.999999999999997, -57.));
#309 = CARTESIAN_POINT('', (-1., 1., -57.));
#310 = PRESENTATION_STYLE_ASSIGNMENT((#311));
#311 = SURFACE_STYLE_USAGE(.POSITIVE., #312);
#312 = SURFACE_SIDE_STYLE('', (#313));
#313 = SURFACE_STYLE_FILL_AREA(#314);
#314 = FILL_AREA_STYLE('', (#315));
#315 = FILL_AREA_STYLE_COLOUR('', #316);
#316 = COLOUR_RGB('', 0.8, 0.8, 0.8);
#317 = STYLED_ITEM('', (#310), #194);
#318 = TRIMMED_CURVE('cutting part line', #319, (#323), (#324), .T., .CARTESIAN.);
#319 = LINE('', #320, #321);
#320 = CARTESIAN_POINT('', (-5.17417125018341E-31, -2.81668763803891E-15, -46.));
#321 = VECTOR('', #322, 2.);
#322 = DIRECTION('', (2., -3.67394039744211E-16, 0.));
#323 = CARTESIAN_POINT('', (-5.17417125018341E-31, -2.81668763803891E-15, -46.));
#324 = CARTESIAN_POINT('', (2., -3.18408167778312E-15, -46.));
#325 = TRIMMED_CURVE('cutting part line', #326, (#330), (#331), .T., .CARTESIAN.);
#326 = LINE('', #327, #328);
#327 = CARTESIAN_POINT('', (2., -3.18408167778312E-15, -46.));
#328 = VECTOR('', #329, 10.);
#329 = DIRECTION('', (0., -6.1232339957367E-16, -10.));
#330 = CARTESIAN_POINT('', (2., -3.18408167778312E-15, -46.));
#331 = CARTESIAN_POINT('', (2., -3.79640507735679E-15, -56.));
#332 = TRIMMED_CURVE('cutting part line', #333, (#338), (#339), .T., .CARTESIAN.);
#333 = CIRCLE('', #334, 1.00000000000001);
#334 = AXIS2_PLACEMENT_3D('', #335, #336, #337);
#335 = CARTESIAN_POINT('', (0.999999999999987, -3.61270805748468E-15, -56.));
#336 = DIRECTION('', (1.83697019872109E-16, 1., -6.12323399573721E-17));
#337 = DIRECTION('', (1., -1.83697019872109E-16, -7.10542735760091E-15));
#338 = CARTESIAN_POINT('', (2., -3.79640507735679E-15, -56.));
#339 = CARTESIAN_POINT('', (1., -3.67394039744205E-15, -57.));
#340 = TRIMMED_CURVE('cutting part line', #341, (#345), (#346), .T., .CARTESIAN.);
#341 = LINE('', #342, #343);
#342 = CARTESIAN_POINT('', (1., -3.67394039744206E-15, -57.));
#343 = VECTOR('', #344, 1.);
#344 = DIRECTION('', (-1., 1.83697019872095E-16, 0.));
#345 = CARTESIAN_POINT('', (1., -3.67394039744206E-15, -57.));
#346 = CARTESIAN_POINT('', (-4.2743153805863E-31, -3.49024337756996E-15, -57.));
#347 = TRIMMED_CURVE('cutting part line', #348, (#352), (#353), .T., .CARTESIAN.);
#348 = LINE('', #349, #350);
#349 = CARTESIAN_POINT('', (-6.41147307087945E-31, -3.49024337756996E-15, -57.));
#350 = VECTOR('', #351, 11.);
#351 = DIRECTION('', (1.23730182069604E-31, 6.7355573953105E-16, 11.));
#352 = CARTESIAN_POINT('', (-6.41147307087945E-31, -3.49024337756996E-15, -57.));
#353 = CARTESIAN_POINT('', (-5.17417125018341E-31, -2.81668763803891E-15, -46.));
#354 = COMPOSITE_CURVE('cutting part line', (#355, #356, #357, #358, #359), .U.);
#355 = COMPOSITE_CURVE_SEGMENT(.CONTINUOUS., .T., #318);
#356 = COMPOSITE_CURVE_SEGMENT(.CONTINUOUS., .T., #325);
#357 = COMPOSITE_CURVE_SEGMENT(.CONTINUOUS., .T., #332);
#358 = COMPOSITE_CURVE_SEGMENT(.CONTINUOUS., .T., #340);
#359 = COMPOSITE_CURVE_SEGMENT(.CONTINUOUS., .T., #347);
#360 = GEOMETRIC_SET('', (#354, #403));
#361 = PRESENTATION_STYLE_ASSIGNMENT((#362));
#362 = CURVE_STYLE('', #364, POSITIVE_LENGTH_MEASURE(1.E-6), #363);
#363 = COLOUR_RGB('', 0., 0., 1.);
#364 = DRAUGHTING_PRE_DEFINED_CURVE_FONT('continuous');
#365 = STYLED_ITEM('', (#361), #354);
#366 = PRESENTATION_STYLE_ASSIGNMENT((#367));
#367 = CURVE_STYLE('', #369, POSITIVE_LENGTH_MEASURE(1.E-6), #368);
#368 = COLOUR_RGB('', 0., 0., 1.);
#369 = DRAUGHTING_PRE_DEFINED_CURVE_FONT('continuous');
#370 = OVER_RIDING_STYLED_ITEM('', (#366), #318, #365);
#371 = PRESENTATION_STYLE_ASSIGNMENT((#372));
#372 = CURVE_STYLE('', #374, POSITIVE_LENGTH_MEASURE(1.E-6), #373);
#373 = COLOUR_RGB('', 0., 0., 1.);
#374 = DRAUGHTING_PRE_DEFINED_CURVE_FONT('continuous');
#375 = OVER_RIDING_STYLED_ITEM('', (#371), #325, #365);
#376 = PRESENTATION_STYLE_ASSIGNMENT((#377));
#377 = CURVE_STYLE('', #379, POSITIVE_LENGTH_MEASURE(1.E-6), #378);
#378 = COLOUR_RGB('', 0., 0., 1.);
#379 = DRAUGHTING_PRE_DEFINED_CURVE_FONT('continuous');
#380 = OVER_RIDING_STYLED_ITEM('', (#376), #332, #365);
#381 = PRESENTATION_STYLE_ASSIGNMENT((#382));
#382 = CURVE_STYLE('', #384, POSITIVE_LENGTH_MEASURE(1.E-6), #383);
#383 = COLOUR_RGB('', 0., 0., 1.);
#384 = DRAUGHTING_PRE_DEFINED_CURVE_FONT('continuous');
#385 = OVER_RIDING_STYLED_ITEM('', (#381), #340, #365);
#386 = PRESENTATION_STYLE_ASSIGNMENT((#387));
#387 = CURVE_STYLE('', #389, POSITIVE_LENGTH_MEASURE(1.E-6), #388);
#388 = COLOUR_RGB('', 0., 0., 1.);
#389 = DRAUGHTING_PRE_DEFINED_CURVE_FONT('continuous');
#390 = OVER_RIDING_STYLED_ITEM('', (#386), #347, #365);
#391 = AXIS2_PLACEMENT_3D('CIP', #392, #393, #394);
#392 = CARTESIAN_POINT('', (2.13715769029315E-31, 3.49024337756996E-15, -57.));
#393 = DIRECTION('', (-3.74939945665465E-33, -6.12323399573677E-17, 1.));
#394 = DIRECTION('', (1., -6.12323399573677E-17, 0.));
#395 = AXIS2_PLACEMENT_3D('MCS', #396, #397, #398);
#396 = CARTESIAN_POINT('', (1.34978380439567E-31, 2.20436423846524E-15, -36.));
#397 = DIRECTION('', (-3.74939945665465E-33, -6.12323399573677E-17, 1.));
#398 = DIRECTION('', (1., -6.12323399573677E-17, 0.));
#399 = AXIS2_PLACEMENT_3D('PCS', #400, #401, #402);
#400 = CARTESIAN_POINT('', (0., 0., 0.));
#401 = DIRECTION('', (0., 0., 1.));
#402 = DIRECTION('', (1., 0., 0.));
#403 = CARTESIAN_POINT('CRP', (2., 0., -57.));
#404 = (
   GEOMETRIC_REPRESENTATION_CONTEXT (3)
   GLOBAL_UNCERTAINTY_ASSIGNED_CONTEXT ((#406))
   GLOBAL_UNIT_ASSIGNED_CONTEXT ((#405, #407, #408))
   REPRESENTATION_CONTEXT ('', '3D')
);
#405 = (
   LENGTH_UNIT ()
   NAMED_UNIT (*)
   SI_UNIT (.MILLI., .METRE.)
);
#406 = UNCERTAINTY_MEASURE_WITH_UNIT(LENGTH_MEASURE(1.E-6), #405, 'DISTANCE_ACCURACY_VALUE', '');
#407 = (
   NAMED_UNIT (*)
   SI_UNIT ($, .STERADIAN.)
   SOLID_ANGLE_UNIT ()
);
#408 = (
   NAMED_UNIT (*)
   PLANE_ANGLE_UNIT ()
   SI_UNIT ($, .RADIAN.)
);
#409 = SHAPE_REPRESENTATION('', (), #404);
#410 = PRODUCT_DEFINITION_SHAPE('', '', #411);
#411 = PRODUCT_DEFINITION('', '', #414, #418);
#412 = APPLICATION_CONTEXT('configuration controlled 3D designs of mechanical parts and assemblies');
#413 = APPLICATION_PROTOCOL_DEFINITION('International Standard', 'automotive_design', 2002, #412);
#414 = PRODUCT_DEFINITION_FORMATION_WITH_SPECIFIED_SOURCE('', '', #415, .NOT_KNOWN.);
#415 = PRODUCT('EmptyName', 'EmptyName', '', (#416));
#416 = PRODUCT_CONTEXT('', #412, 'mechanical');
#417 = PRODUCT_RELATED_PRODUCT_CATEGORY('detail', '', (#415));
#418 = PRODUCT_DEFINITION_CONTEXT('part definition', #412, 'design');
#419 = SHAPE_DEFINITION_REPRESENTATION(#410, #409);
#420 = CONSTRUCTIVE_GEOMETRY_REPRESENTATION('supplemental geometry', (#391, #395, #399), #404);
#421 = CONSTRUCTIVE_GEOMETRY_REPRESENTATION_RELATIONSHIP('', '', #409, #420);
#422 = SHAPE_REPRESENTATION_RELATIONSHIP('', '', #409, #423);
#423 = SHAPE_REPRESENTATION('', (#360), #404);
#424 = SHAPE_REPRESENTATION_RELATIONSHIP('', '', #409, #425);
#425 = ADVANCED_BREP_SHAPE_REPRESENTATION('', (#1, #194), #404);
ENDSEC;
END-ISO-10303-21;
