ISO-10303-21;
HEADER;
FILE_DESCRIPTION(('STEP'), '1');
FILE_NAME('C:\\Users\\ds2002\\OneDrive - Sandvik\\HomeShare\\Documents\\Batchrepair\\CorSRT2\\NEW_MILSQ_SLD\\Output\\MOD000000000000000020084582400000.stp', '2019-01-02T12:06:58', (''), (''), 'Express v3.0.0.0', 'Express Tool', 'Unknown');
FILE_SCHEMA(('AUTOMOTIVE_DESIGN'));
ENDSEC;

DATA;
#1 = MANIFOLD_SOLID_BREP('NOCUT', #2);
#2 = CLOSED_SHELL('', (#3, #50, #97, #106, #137, #176));
#3 = ADVANCED_FACE('', (#4), #31, .T.);
#4 = FACE_OUTER_BOUND('', #5, .T.);
#5 = EDGE_LOOP('', (#6, #16, #23, #24));
#6 = ORIENTED_EDGE('', *, *, #7, .F.);
#7 = EDGE_CURVE('', #8, #10, #12, .T.);
#8 = VERTEX_POINT('', #9);
#9 = CARTESIAN_POINT('', (-3., 2.44929359829471E-15, -37.));
#10 = VERTEX_POINT('', #11);
#11 = CARTESIAN_POINT('', (-2., 3.24531401774049E-15, -51.));
#12 = LINE('', #13, #14);
#13 = CARTESIAN_POINT('', (-3., 2.44929359829471E-15, -37.));
#14 = VECTOR('', #15, 14.0356688476182);
#15 = DIRECTION('', (1., 7.9602041944578E-16, -14.));
#16 = ORIENTED_EDGE('', *, *, #17, .T.);
#17 = EDGE_CURVE('', #8, #8, #18, .T.);
#18 = CIRCLE('', #19, 3.);
#19 = AXIS2_PLACEMENT_3D('', #20, #21, #22);
#20 = CARTESIAN_POINT('', (-7.07767178198537E-16, 8.88178419700125E-16, -37.));
#21 = DIRECTION('', (0., 0., -1.));
#22 = DIRECTION('', (-1., 5.20371726198195E-16, 0.));
#23 = ORIENTED_EDGE('', *, *, #7, .T.);
#24 = ORIENTED_EDGE('', *, *, #25, .F.);
#25 = EDGE_CURVE('', #10, #10, #26, .T.);
#26 = CIRCLE('', #27, 2.);
#27 = AXIS2_PLACEMENT_3D('', #28, #29, #30);
#28 = CARTESIAN_POINT('', (1.45716771982052E-16, 7.21644966006352E-16, -51.));
#29 = DIRECTION('', (0., 0., -1.));
#30 = DIRECTION('', (-1., 1.26183452586707E-15, 0.));
#31 = (
   BOUNDED_SURFACE ()
   B_SPLINE_SURFACE (2, 1, ((#32, #33), (#34, #35), (#36, #37), (#38, #39), (#40, #41), (#42, #43), (#44, #45), (#46, #47), (#48, #49)), .UNSPECIFIED., .T., .F., .U.)
   B_SPLINE_SURFACE_WITH_KNOTS ((3, 2, 2, 2, 3), (2, 2), (0., 0.25, 0.5, 0.75, 1.), (0., 1.), .UNSPECIFIED.)
   GEOMETRIC_REPRESENTATION_ITEM ()
   RATIONAL_B_SPLINE_SURFACE (((1., 1.), (0.707106781186548, 0.707106781186548), (1., 1.), (0.707106781186548, 0.707106781186548), (1., 1.), (0.707106781186548, 0.707106781186548), (1., 1.), (0.707106781186548, 0.707106781186548), (1., 1.)))
   REPRESENTATION_ITEM ('')
   SURFACE ()
);
#32 = CARTESIAN_POINT('', (-3., 2.44929359829471E-15, -37.));
#33 = CARTESIAN_POINT('', (-1.99999999999997, 1.92892187209651E-15, -51.));
#34 = CARTESIAN_POINT('', (-3., 3., -37.));
#35 = CARTESIAN_POINT('', (-1.99999999999997, 2., -51.));
#36 = CARTESIAN_POINT('', (8.77817797641162E-16, 3., -37.));
#37 = CARTESIAN_POINT('', (3.39659174721572E-14, 2., -51.));
#38 = CARTESIAN_POINT('', (3., 3., -37.));
#39 = CARTESIAN_POINT('', (2.00000000000003, 2., -51.));
#40 = CARTESIAN_POINT('', (3., 2.02592563256257E-15, -37.));
#41 = CARTESIAN_POINT('', (2.00000000000003, 1.64667656160842E-15, -51.));
#42 = CARTESIAN_POINT('', (3., -3., -37.));
#43 = CARTESIAN_POINT('', (2.00000000000003, -2., -51.));
#44 = CARTESIAN_POINT('', (8.21843871653232E-16, -3., -37.));
#45 = CARTESIAN_POINT('', (3.39286015214985E-14, -2., -51.));
#46 = CARTESIAN_POINT('', (-3., -3., -37.));
#47 = CARTESIAN_POINT('', (-1.99999999999997, -2., -51.));
#48 = CARTESIAN_POINT('', (-3., 2.44929359829471E-15, -37.));
#49 = CARTESIAN_POINT('', (-1.99999999999997, 1.92892187209651E-15, -51.));
#50 = ADVANCED_FACE('', (#51), #78, .T.);
#51 = FACE_OUTER_BOUND('', #52, .T.);
#52 = EDGE_LOOP('', (#53, #63, #70, #71));
#53 = ORIENTED_EDGE('', *, *, #54, .T.);
#54 = EDGE_CURVE('', #55, #57, #59, .T.);
#55 = VERTEX_POINT('', #56);
#56 = CARTESIAN_POINT('', (-3., 2.02066721859313E-16, -0.299999999999997));
#57 = VERTEX_POINT('', #58);
#58 = CARTESIAN_POINT('', (-2.7, 1.65327317884893E-16, 0.));
#59 = LINE('', #60, #61);
#60 = CARTESIAN_POINT('', (-3., 2.02066721859313E-16, -0.299999999999997));
#61 = VECTOR('', #62, 0.424264068711926);
#62 = DIRECTION('', (0.3, -3.673940397442E-17, 0.299999999999997));
#63 = ORIENTED_EDGE('', *, *, #64, .T.);
#64 = EDGE_CURVE('', #57, #57, #65, .T.);
#65 = CIRCLE('', #66, 2.7);
#66 = AXIS2_PLACEMENT_3D('', #67, #68, #69);
#67 = CARTESIAN_POINT('', (6.24500451351651E-17, -1.88737914186277E-15, -1.07852076885685E-31));
#68 = DIRECTION('', (6.60738625565492E-33, 6.12323399573678E-17, -1.));
#69 = DIRECTION('', (-1., 7.60261651758392E-16, 3.99452136613649E-32));
#70 = ORIENTED_EDGE('', *, *, #54, .F.);
#71 = ORIENTED_EDGE('', *, *, #72, .F.);
#72 = EDGE_CURVE('', #55, #55, #73, .T.);
#73 = CIRCLE('', #74, 3.);
#74 = AXIS2_PLACEMENT_3D('', #75, #76, #77);
#75 = CARTESIAN_POINT('', (-8.32667268468867E-16, 1.66533453693773E-16, -0.299999999999997));
#76 = DIRECTION('', (7.45939217764516E-34, 6.29780982393227E-17, -1.));
#77 = DIRECTION('', (-1., 1.18444227218465E-17, 0.));
#78 = (
   BOUNDED_SURFACE ()
   B_SPLINE_SURFACE (1, 2, ((#79, #80, #81, #82, #83, #84, #85, #86, #87), (#88, #89, #90, #91, #92, #93, #94, #95, #96)), .UNSPECIFIED., .F., .T., .U.)
   B_SPLINE_SURFACE_WITH_KNOTS ((2, 2), (3, 2, 2, 2, 3), (0., 1.), (0., 0.25, 0.5, 0.75, 1.), .UNSPECIFIED.)
   GEOMETRIC_REPRESENTATION_ITEM ()
   RATIONAL_B_SPLINE_SURFACE (((1., 0.707106781186548, 1., 0.707106781186548, 1., 0.707106781186548, 1., 0.707106781186548, 1.), (1., 0.707106781186548, 1., 0.707106781186548, 1., 0.707106781186548, 1., 0.707106781186548, 1.)))
   REPRESENTATION_ITEM ('')
   SURFACE ()
);
#79 = CARTESIAN_POINT('', (-3., 1.49129302665284E-15, -0.299999999999997));
#80 = CARTESIAN_POINT('', (-3., 3., -0.299999999999985));
#81 = CARTESIAN_POINT('', (2.34149119846292E-15, 3., -0.299999999999985));
#82 = CARTESIAN_POINT('', (3., 3., -0.299999999999985));
#83 = CARTESIAN_POINT('', (3., -1.34594359183367E-15, -0.299999999999997));
#84 = CARTESIAN_POINT('', (3., -3., -0.300000000000009));
#85 = CARTESIAN_POINT('', (-1.28351380279387E-16, -3., -0.300000000000009));
#86 = CARTESIAN_POINT('', (-3., -3., -0.300000000000009));
#87 = CARTESIAN_POINT('', (-3., 1.49129302665284E-15, -0.299999999999997));
#88 = CARTESIAN_POINT('', (-2.7, 1.65327317884893E-16, -2.18952885050753E-47));
#89 = CARTESIAN_POINT('', (-2.7, 2.7, 1.04916075827078E-14));
#90 = CARTESIAN_POINT('', (2.19962936753859E-15, 2.7, 1.04916075827078E-14));
#91 = CARTESIAN_POINT('', (2.7, 2.7, 1.04916075827078E-14));
#92 = CARTESIAN_POINT('', (2.7, -2.38818563875297E-15, 1.12461399303431E-30));
#93 = CARTESIAN_POINT('', (2.7, -2.7, -1.04916075827078E-14));
#94 = CARTESIAN_POINT('', (-2.32289533294833E-17, -2.7, -1.04916075827078E-14));
#95 = CARTESIAN_POINT('', (-2.7, -2.7, -1.04916075827078E-14));
#96 = CARTESIAN_POINT('', (-2.7, 1.65327317884893E-16, -2.18952885050753E-47));
#97 = ADVANCED_FACE('', (#98), #101, .T.);
#98 = FACE_OUTER_BOUND('', #99, .T.);
#99 = EDGE_LOOP('', (#100));
#100 = ORIENTED_EDGE('', *, *, #64, .F.);
#101 = B_SPLINE_SURFACE_WITH_KNOTS('', 1, 1, ((#102, #103), (#104, #105)), .UNSPECIFIED., .F., .F., .U., (2, 2), (2, 2), (1.50021428024809, 6.90021428024809), (1.50021428024809, 6.90021428024809), .UNSPECIFIED.);
#102 = CARTESIAN_POINT('', (2.7, -2.7, 6.94010003971609E-15));
#103 = CARTESIAN_POINT('', (-2.7, -2.7, -7.27075467548589E-15));
#104 = CARTESIAN_POINT('', (2.7, 2.7, 7.27075467548587E-15));
#105 = CARTESIAN_POINT('', (-2.7, 2.7, -6.9401000397161E-15));
#106 = ADVANCED_FACE('', (#107), #118, .T.);
#107 = FACE_OUTER_BOUND('', #108, .T.);
#108 = EDGE_LOOP('', (#109, #115, #116, #117));
#109 = ORIENTED_EDGE('', *, *, #110, .T.);
#110 = EDGE_CURVE('', #8, #55, #111, .T.);
#111 = LINE('', #112, #113);
#112 = CARTESIAN_POINT('', (-3., 2.44929359829471E-15, -37.));
#113 = VECTOR('', #114, 36.7);
#114 = DIRECTION('', (0., -2.2472268764354E-15, 36.7));
#115 = ORIENTED_EDGE('', *, *, #72, .T.);
#116 = ORIENTED_EDGE('', *, *, #110, .F.);
#117 = ORIENTED_EDGE('', *, *, #17, .F.);
#118 = (
   BOUNDED_SURFACE ()
   B_SPLINE_SURFACE (1, 2, ((#119, #120, #121, #122, #123, #124, #125, #126, #127), (#128, #129, #130, #131, #132, #133, #134, #135, #136)), .UNSPECIFIED., .F., .T., .U.)
   B_SPLINE_SURFACE_WITH_KNOTS ((2, 2), (3, 2, 2, 2, 3), (0., 1.), (0., 4.7123889803847, 9.4247779607694, 14.1371669411541, 18.8495559215388), .UNSPECIFIED.)
   GEOMETRIC_REPRESENTATION_ITEM ()
   RATIONAL_B_SPLINE_SURFACE (((1., 0.707106781186548, 1., 0.707106781186548, 1., 0.707106781186548, 1., 0.707106781186548, 1.), (1., 0.707106781186548, 1., 0.707106781186548, 1., 0.707106781186548, 1., 0.707106781186548, 1.)))
   REPRESENTATION_ITEM ('')
   SURFACE ()
);
#119 = CARTESIAN_POINT('', (-3., 2.20046816618459E-15, -37.));
#120 = CARTESIAN_POINT('', (-3., 3., -37.));
#121 = CARTESIAN_POINT('', (2.57280784447893E-15, 3., -37.));
#122 = CARTESIAN_POINT('', (3., 3., -37.));
#123 = CARTESIAN_POINT('', (3., -1.61102952151536E-15, -37.));
#124 = CARTESIAN_POINT('', (3., -3., -37.));
#125 = CARTESIAN_POINT('', (-8.7129580347682E-16, -3., -37.));
#126 = CARTESIAN_POINT('', (-3., -3., -37.));
#127 = CARTESIAN_POINT('', (-3., 2.20046816618459E-15, -37.));
#128 = CARTESIAN_POINT('', (-3., 2.02066721859312E-16, -0.299999999999997));
#129 = CARTESIAN_POINT('', (-3., 3., -0.299999999999997));
#130 = CARTESIAN_POINT('', (3.25189426120798E-15, 3., -0.299999999999997));
#131 = CARTESIAN_POINT('', (3., 3., -0.299999999999997));
#132 = CARTESIAN_POINT('', (3., -3.60943096584064E-15, -0.299999999999997));
#133 = CARTESIAN_POINT('', (3., -3., -0.299999999999997));
#134 = CARTESIAN_POINT('', (-1.92209386747767E-16, -3., -0.299999999999997));
#135 = CARTESIAN_POINT('', (-3., -3., -0.299999999999997));
#136 = CARTESIAN_POINT('', (-3., 2.02066721859312E-16, -0.299999999999997));
#137 = ADVANCED_FACE('', (#138), #157, .T.);
#138 = FACE_OUTER_BOUND('', #139, .T.);
#139 = EDGE_LOOP('', (#140, #149, #155, #156));
#140 = ORIENTED_EDGE('', *, *, #141, .F.);
#141 = EDGE_CURVE('', #142, #142, #144, .T.);
#142 = VERTEX_POINT('', #143);
#143 = CARTESIAN_POINT('', (-2., 3.36777869765522E-15, -53.));
#144 = CIRCLE('', #145, 2.);
#145 = AXIS2_PLACEMENT_3D('', #146, #147, #148);
#146 = CARTESIAN_POINT('', (1.38777878078145E-16, 8.32667268468867E-16, -53.));
#147 = DIRECTION('', (1.5327023676953E-29, 1.20917948619499E-14, -1.));
#148 = DIRECTION('', (-1., 1.26755571459318E-15, 0.));
#149 = ORIENTED_EDGE('', *, *, #150, .F.);
#150 = EDGE_CURVE('', #10, #142, #151, .T.);
#151 = LINE('', #152, #153);
#152 = CARTESIAN_POINT('', (-2., 3.24531401774049E-15, -51.));
#153 = VECTOR('', #154, 2.);
#154 = DIRECTION('', (0., 1.2246467991473E-16, -2.));
#155 = ORIENTED_EDGE('', *, *, #25, .T.);
#156 = ORIENTED_EDGE('', *, *, #150, .T.);
#157 = (
   BOUNDED_SURFACE ()
   B_SPLINE_SURFACE (2, 1, ((#158, #159), (#160, #161), (#162, #163), (#164, #165), (#166, #167), (#168, #169), (#170, #171), (#172, #173), (#174, #175)), .UNSPECIFIED., .T., .F., .U.)
   B_SPLINE_SURFACE_WITH_KNOTS ((3, 2, 2, 2, 3), (2, 2), (0., 3.1415926535898, 6.2831853071796, 9.4247779607694, 12.5663706143592), (0., 0.363636363636364), .UNSPECIFIED.)
   GEOMETRIC_REPRESENTATION_ITEM ()
   RATIONAL_B_SPLINE_SURFACE (((1., 1.), (0.707106781186548, 0.707106781186548), (1., 1.), (0.707106781186548, 0.707106781186548), (1., 1.), (0.707106781186548, 0.707106781186548), (1., 1.), (0.707106781186548, 0.707106781186548), (1., 1.)))
   REPRESENTATION_ITEM ('')
   SURFACE ()
);
#158 = CARTESIAN_POINT('', (-2., 3.24531401774049E-15, -51.));
#159 = CARTESIAN_POINT('', (-2., 3.35633632020301E-15, -53.));
#160 = CARTESIAN_POINT('', (-2., 2., -51.));
#161 = CARTESIAN_POINT('', (-2., 2., -53.));
#162 = CARTESIAN_POINT('', (2.11670972175921E-15, 2., -51.));
#163 = CARTESIAN_POINT('', (2.11670972175921E-15, 2., -53.));
#164 = CARTESIAN_POINT('', (2., 2., -51.));
#165 = CARTESIAN_POINT('', (2., 2., -53.));
#166 = CARTESIAN_POINT('', (2., -1.4460724234358E-15, -51.));
#167 = CARTESIAN_POINT('', (2., -1.33505012097328E-15, -53.));
#168 = CARTESIAN_POINT('', (2., -2., -51.));
#169 = CARTESIAN_POINT('', (2., -2., -53.));
#170 = CARTESIAN_POINT('', (-2.32974735958761E-15, -2., -51.));
#171 = CARTESIAN_POINT('', (-2.32974735958761E-15, -2., -53.));
#172 = CARTESIAN_POINT('', (-2., -2., -51.));
#173 = CARTESIAN_POINT('', (-2., -2., -53.));
#174 = CARTESIAN_POINT('', (-2., 3.24531401774049E-15, -51.));
#175 = CARTESIAN_POINT('', (-2., 3.35633632020301E-15, -53.));
#176 = ADVANCED_FACE('', (#177), #180, .T.);
#177 = FACE_OUTER_BOUND('', #178, .T.);
#178 = EDGE_LOOP('', (#179));
#179 = ORIENTED_EDGE('', *, *, #141, .T.);
#180 = B_SPLINE_SURFACE_WITH_KNOTS('', 1, 1, ((#181, #182), (#183, #184)), .UNSPECIFIED., .F., .F., .U., (2, 2), (2, 2), (58.207071832965, 62.207071832965), (53.0491740194841, 57.0491740194841), .UNSPECIFIED.);
#181 = CARTESIAN_POINT('', (-2., 2., -53.));
#182 = CARTESIAN_POINT('', (-2., -2., -53.));
#183 = CARTESIAN_POINT('', (2., 2., -53.));
#184 = CARTESIAN_POINT('', (2., -2., -53.));
#185 = DRAUGHTING_MODEL('', (#193, #317, #365, #370, #375, #380, #385, #390), #404);
#186 = PRESENTATION_STYLE_ASSIGNMENT((#187));
#187 = SURFACE_STYLE_USAGE(.POSITIVE., #188);
#188 = SURFACE_SIDE_STYLE('', (#189));
#189 = SURFACE_STYLE_FILL_AREA(#190);
#190 = FILL_AREA_STYLE('', (#191));
#191 = FILL_AREA_STYLE_COLOUR('', #192);
#192 = COLOUR_RGB('', 0.50196078431373, 0.50196078431373, 0.50196078431373);
#193 = STYLED_ITEM('', (#186), #1);
#194 = MANIFOLD_SOLID_BREP('CUT', #195);
#195 = CLOSED_SHELL('', (#196, #213, #252, #301));
#196 = ADVANCED_FACE('', (#197), #208, .T.);
#197 = FACE_OUTER_BOUND('', #198, .T.);
#198 = EDGE_LOOP('', (#199));
#199 = ORIENTED_EDGE('', *, *, #200, .F.);
#200 = EDGE_CURVE('', #201, #201, #203, .T.);
#201 = VERTEX_POINT('', #202);
#202 = CARTESIAN_POINT('', (-2., 3.36777869765522E-15, -53.));
#203 = CIRCLE('', #204, 2.);
#204 = AXIS2_PLACEMENT_3D('', #205, #206, #207);
#205 = CARTESIAN_POINT('', (1.38777878078145E-16, 8.32667268468867E-16, -53.));
#206 = DIRECTION('', (1.5327023676953E-29, 1.20917948619499E-14, -1.));
#207 = DIRECTION('', (-1., 1.26755571459318E-15, 0.));
#208 = B_SPLINE_SURFACE_WITH_KNOTS('', 1, 1, ((#209, #210), (#211, #212)), .UNSPECIFIED., .F., .F., .U., (2, 2), (2, 2), (53.0491740194841, 57.0491740194841), (58.207071832965, 62.207071832965), .UNSPECIFIED.);
#209 = CARTESIAN_POINT('', (-2., 2., -53.));
#210 = CARTESIAN_POINT('', (2., 2., -53.));
#211 = CARTESIAN_POINT('', (-2., -2., -53.));
#212 = CARTESIAN_POINT('', (2., -2., -53.));
#213 = ADVANCED_FACE('', (#214), #233, .T.);
#214 = FACE_OUTER_BOUND('', #215, .T.);
#215 = EDGE_LOOP('', (#216, #217, #225, #232));
#216 = ORIENTED_EDGE('', *, *, #200, .T.);
#217 = ORIENTED_EDGE('', *, *, #218, .T.);
#218 = EDGE_CURVE('', #201, #219, #221, .T.);
#219 = VERTEX_POINT('', #220);
#220 = CARTESIAN_POINT('', (-2., 3.58209188750601E-15, -56.5));
#221 = LINE('', #222, #223);
#222 = CARTESIAN_POINT('', (-2., 3.36777869765522E-15, -53.));
#223 = VECTOR('', #224, 3.5);
#224 = DIRECTION('', (0., 2.1431318985079E-16, -3.5));
#225 = ORIENTED_EDGE('', *, *, #226, .F.);
#226 = EDGE_CURVE('', #219, #219, #227, .T.);
#227 = CIRCLE('', #228, 2.);
#228 = AXIS2_PLACEMENT_3D('', #229, #230, #231);
#229 = CARTESIAN_POINT('', (1.45716771982052E-16, 1.11022302462516E-15, -56.5));
#230 = DIRECTION('', (0., 0., -1.));
#231 = DIRECTION('', (-1., 1.23593443144043E-15, 0.));
#232 = ORIENTED_EDGE('', *, *, #218, .F.);
#233 = (
   BOUNDED_SURFACE ()
   B_SPLINE_SURFACE (2, 1, ((#234, #235), (#236, #237), (#238, #239), (#240, #241), (#242, #243), (#244, #245), (#246, #247), (#248, #249), (#250, #251)), .UNSPECIFIED., .T., .F., .U.)
   B_SPLINE_SURFACE_WITH_KNOTS ((3, 2, 2, 2, 3), (2, 2), (0., 3.1415926535898, 6.2831853071796, 9.4247779607694, 12.5663706143592), (0.363636363636364, 1.), .UNSPECIFIED.)
   GEOMETRIC_REPRESENTATION_ITEM ()
   RATIONAL_B_SPLINE_SURFACE (((1., 1.), (0.707106781186548, 0.707106781186548), (1., 1.), (0.707106781186548, 0.707106781186548), (1., 1.), (0.707106781186548, 0.707106781186548), (1., 1.), (0.707106781186548, 0.707106781186548), (1., 1.)))
   REPRESENTATION_ITEM ('')
   SURFACE ()
);
#234 = CARTESIAN_POINT('', (-2., 3.36777869765522E-15, -53.));
#235 = CARTESIAN_POINT('', (-2., 3.64533445381151E-15, -56.5));
#236 = CARTESIAN_POINT('', (-2., 2., -53.));
#237 = CARTESIAN_POINT('', (-2., 2., -56.5));
#238 = CARTESIAN_POINT('', (2.12121320530751E-15, 2., -53.));
#239 = CARTESIAN_POINT('', (2.12121320530751E-15, 2., -56.5));
#240 = CARTESIAN_POINT('', (2., 2., -53.));
#241 = CARTESIAN_POINT('', (2., 2., -56.5));
#242 = CARTESIAN_POINT('', (2., -1.3464924984255E-15, -53.));
#243 = CARTESIAN_POINT('', (2., -1.06893674226921E-15, -56.5));
#244 = CARTESIAN_POINT('', (2., -2., -53.));
#245 = CARTESIAN_POINT('', (2., -2., -56.5));
#246 = CARTESIAN_POINT('', (-2.34812863094374E-15, -2., -53.));
#247 = CARTESIAN_POINT('', (-2.34812863094373E-15, -2., -56.5));
#248 = CARTESIAN_POINT('', (-2., -2., -53.));
#249 = CARTESIAN_POINT('', (-2., -2., -56.5));
#250 = CARTESIAN_POINT('', (-2., 3.36777869765522E-15, -53.));
#251 = CARTESIAN_POINT('', (-2., 3.64533445381151E-15, -56.5));
#252 = ADVANCED_FACE('', (#253), #273, .T.);
#253 = FACE_OUTER_BOUND('', #254, .T.);
#254 = EDGE_LOOP('', (#255, #264, #265, #266));
#255 = ORIENTED_EDGE('', *, *, #256, .F.);
#256 = EDGE_CURVE('', #219, #257, #259, .T.);
#257 = VERTEX_POINT('', #258);
#258 = CARTESIAN_POINT('', (-1.5, 3.58209188750601E-15, -57.));
#259 = CIRCLE('', #260, 0.499999999999997);
#260 = AXIS2_PLACEMENT_3D('', #261, #262, #263);
#261 = CARTESIAN_POINT('', (-1.50000000000001, 3.55147571752733E-15, -56.5));
#262 = DIRECTION('', (-6.12323399573558E-17, -1., -6.12323399573562E-17));
#263 = DIRECTION('', (-1., 6.12323399573558E-17, 0.));
#264 = ORIENTED_EDGE('', *, *, #226, .T.);
#265 = ORIENTED_EDGE('', *, *, #256, .T.);
#266 = ORIENTED_EDGE('', *, *, #267, .F.);
#267 = EDGE_CURVE('', #257, #257, #268, .T.);
#268 = CIRCLE('', #269, 1.5);
#269 = AXIS2_PLACEMENT_3D('', #270, #271, #272);
#270 = CARTESIAN_POINT('', (2.77555756156289E-16, 8.88178419700125E-16, -57.));
#271 = DIRECTION('', (4.73695157173397E-15, -1.54108030506707E-14, -1.));
#272 = DIRECTION('', (-1., 1.79594231187059E-15, -4.736951571734E-15));
#273 = (
   BOUNDED_SURFACE ()
   B_SPLINE_SURFACE (2, 2, ((#274, #275, #276), (#277, #278, #279), (#280, #281, #282), (#283, #284, #285), (#286, #287, #288), (#289, #290, #291), (#292, #293, #294), (#295, #296, #297), (#298, #299, #300)), .UNSPECIFIED., .T., .F., .U.)
   B_SPLINE_SURFACE_WITH_KNOTS ((3, 2, 2, 2, 3), (3, 3), (0., 0.25, 0.5, 0.75, 1.), (0., 1.), .UNSPECIFIED.)
   GEOMETRIC_REPRESENTATION_ITEM ()
   RATIONAL_B_SPLINE_SURFACE (((1., 0.707106781186548, 1.), (0.707106781186548, 0.5, 0.707106781186548), (1., 0.707106781186548, 1.), (0.707106781186548, 0.5, 0.707106781186548), (1., 0.707106781186548, 1.), (0.707106781186548, 0.5, 0.707106781186548), (1., 0.707106781186548, 1.), (0.707106781186548, 0.5, 0.707106781186548), (1., 0.707106781186548, 1.)))
   REPRESENTATION_ITEM ('')
   SURFACE ()
);
#274 = CARTESIAN_POINT('', (-2., 3.58209188750601E-15, -56.5));
#275 = CARTESIAN_POINT('', (-2., 3.61270805748469E-15, -57.));
#276 = CARTESIAN_POINT('', (-1.5, 3.58209188750601E-15, -57.));
#277 = CARTESIAN_POINT('', (-2., 2., -56.5));
#278 = CARTESIAN_POINT('', (-2., 2., -57.));
#279 = CARTESIAN_POINT('', (-1.5, 1.5, -57.));
#280 = CARTESIAN_POINT('', (1.53061470230507E-15, 2., -56.5));
#281 = CARTESIAN_POINT('', (-4.48466655869114E-15, 2.00000000000001, -57.));
#282 = CARTESIAN_POINT('', (-4.48466655869114E-15, 1.50000000000001, -57.));
#283 = CARTESIAN_POINT('', (2., 2., -56.5));
#284 = CARTESIAN_POINT('', (1.99999999999999, 2.00000000000001, -57.));
#285 = CARTESIAN_POINT('', (1.5, 1.50000000000001, -57.));
#286 = CARTESIAN_POINT('', (2., 7.7066266343654E-16, -56.5));
#287 = CARTESIAN_POINT('', (2., 1.28318413554076E-14, -57.));
#288 = CARTESIAN_POINT('', (1.5, 1.2801225185429E-14, -57.));
#289 = CARTESIAN_POINT('', (2., -2., -56.5));
#290 = CARTESIAN_POINT('', (2., -1.99999999999999, -57.));
#291 = CARTESIAN_POINT('', (1.50000000000001, -1.49999999999999, -57.));
#292 = CARTESIAN_POINT('', (-1.03588516193493E-15, -2., -56.5));
#293 = CARTESIAN_POINT('', (4.97939609906128E-15, -1.99999999999999, -57.));
#294 = CARTESIAN_POINT('', (4.91816375910391E-15, -1.49999999999999, -57.));
#295 = CARTESIAN_POINT('', (-2., -2., -56.5));
#296 = CARTESIAN_POINT('', (-1.99999999999999, -2., -57.));
#297 = CARTESIAN_POINT('', (-1.5, -1.5, -57.));
#298 = CARTESIAN_POINT('', (-2., 3.58209188750601E-15, -56.5));
#299 = CARTESIAN_POINT('', (-2., 3.61270805748469E-15, -57.));
#300 = CARTESIAN_POINT('', (-1.5, 3.58209188750601E-15, -57.));
#301 = ADVANCED_FACE('', (#302), #305, .T.);
#302 = FACE_OUTER_BOUND('', #303, .T.);
#303 = EDGE_LOOP('', (#304));
#304 = ORIENTED_EDGE('', *, *, #267, .T.);
#305 = B_SPLINE_SURFACE_WITH_KNOTS('', 1, 1, ((#306, #307), (#308, #309)), .UNSPECIFIED., .F., .F., .U., (2, 2), (2, 2), (0.83345237791561, 3.83345237791561), (0.8334523779156, 3.8334523779156), .UNSPECIFIED.);
#306 = CARTESIAN_POINT('', (1.5, -1.5, -57.));
#307 = CARTESIAN_POINT('', (1.5, 1.5, -57.));
#308 = CARTESIAN_POINT('', (-1.5, -1.5, -57.));
#309 = CARTESIAN_POINT('', (-1.5, 1.5, -57.));
#310 = PRESENTATION_STYLE_ASSIGNMENT((#311));
#311 = SURFACE_STYLE_USAGE(.POSITIVE., #312);
#312 = SURFACE_SIDE_STYLE('', (#313));
#313 = SURFACE_STYLE_FILL_AREA(#314);
#314 = FILL_AREA_STYLE('', (#315));
#315 = FILL_AREA_STYLE_COLOUR('', #316);
#316 = COLOUR_RGB('', 0.8, 0.8, 0.8);
#317 = STYLED_ITEM('', (#310), #194);
#318 = TRIMMED_CURVE('cutting part line', #319, (#323), (#324), .T., .CARTESIAN.);
#319 = LINE('', #320, #321);
#320 = CARTESIAN_POINT('', (-5.96154513608089E-31, -3.24531401774049E-15, -53.));
#321 = VECTOR('', #322, 2.);
#322 = DIRECTION('', (2., -3.67394039744201E-16, 0.));
#323 = CARTESIAN_POINT('', (-5.96154513608089E-31, -3.24531401774049E-15, -53.));
#324 = CARTESIAN_POINT('', (2., -3.61270805748469E-15, -53.));
#325 = TRIMMED_CURVE('cutting part line', #326, (#330), (#331), .T., .CARTESIAN.);
#326 = LINE('', #327, #328);
#327 = CARTESIAN_POINT('', (2., -3.61270805748469E-15, -53.));
#328 = VECTOR('', #329, 3.5);
#329 = DIRECTION('', (0., -2.1431318985079E-16, -3.5));
#330 = CARTESIAN_POINT('', (2., -3.61270805748469E-15, -53.));
#331 = CARTESIAN_POINT('', (2., -3.82702124733548E-15, -56.5));
#332 = TRIMMED_CURVE('cutting part line', #333, (#338), (#339), .T., .CARTESIAN.);
#333 = CIRCLE('', #334, 0.499999999999977);
#334 = AXIS2_PLACEMENT_3D('', #335, #336, #337);
#335 = CARTESIAN_POINT('', (1.50000000000002, -3.73517273739944E-15, -56.5));
#336 = DIRECTION('', (1.83697019872094E-16, 1., -6.12323399573591E-17));
#337 = DIRECTION('', (1., -1.83697019872092E-16, 2.84217094304053E-14));
#338 = CARTESIAN_POINT('', (2., -3.82702124733548E-15, -56.5));
#339 = CARTESIAN_POINT('', (1.5, -3.76578890737811E-15, -57.));
#340 = TRIMMED_CURVE('cutting part line', #341, (#345), (#346), .T., .CARTESIAN.);
#341 = LINE('', #342, #343);
#342 = CARTESIAN_POINT('', (1.5, -3.76578890737811E-15, -57.));
#343 = VECTOR('', #344, 1.5);
#344 = DIRECTION('', (-1.5, 2.75545529808153E-16, 0.));
#345 = CARTESIAN_POINT('', (1.5, -3.76578890737811E-15, -57.));
#346 = CARTESIAN_POINT('', (-4.2743153805863E-31, -3.49024337756996E-15, -57.));
#347 = TRIMMED_CURVE('cutting part line', #348, (#352), (#353), .T., .CARTESIAN.);
#348 = LINE('', #349, #350);
#349 = CARTESIAN_POINT('', (-6.41147307087945E-31, -3.49024337756996E-15, -57.));
#350 = VECTOR('', #351, 4.);
#351 = DIRECTION('', (4.4992793479856E-32, 2.4492935982947E-16, 4.));
#352 = CARTESIAN_POINT('', (-6.41147307087945E-31, -3.49024337756996E-15, -57.));
#353 = CARTESIAN_POINT('', (-5.96154513608089E-31, -3.24531401774049E-15, -53.));
#354 = COMPOSITE_CURVE('cutting part line', (#355, #356, #357, #358, #359), .U.);
#355 = COMPOSITE_CURVE_SEGMENT(.CONTINUOUS., .T., #318);
#356 = COMPOSITE_CURVE_SEGMENT(.CONTINUOUS., .T., #325);
#357 = COMPOSITE_CURVE_SEGMENT(.CONTINUOUS., .T., #332);
#358 = COMPOSITE_CURVE_SEGMENT(.CONTINUOUS., .T., #340);
#359 = COMPOSITE_CURVE_SEGMENT(.CONTINUOUS., .T., #347);
#360 = GEOMETRIC_SET('', (#354, #403));
#361 = PRESENTATION_STYLE_ASSIGNMENT((#362));
#362 = CURVE_STYLE('', #364, POSITIVE_LENGTH_MEASURE(1.E-6), #363);
#363 = COLOUR_RGB('', 0., 0., 1.);
#364 = DRAUGHTING_PRE_DEFINED_CURVE_FONT('continuous');
#365 = STYLED_ITEM('', (#361), #354);
#366 = PRESENTATION_STYLE_ASSIGNMENT((#367));
#367 = CURVE_STYLE('', #369, POSITIVE_LENGTH_MEASURE(1.E-6), #368);
#368 = COLOUR_RGB('', 0., 0., 1.);
#369 = DRAUGHTING_PRE_DEFINED_CURVE_FONT('continuous');
#370 = OVER_RIDING_STYLED_ITEM('', (#366), #318, #365);
#371 = PRESENTATION_STYLE_ASSIGNMENT((#372));
#372 = CURVE_STYLE('', #374, POSITIVE_LENGTH_MEASURE(1.E-6), #373);
#373 = COLOUR_RGB('', 0., 0., 1.);
#374 = DRAUGHTING_PRE_DEFINED_CURVE_FONT('continuous');
#375 = OVER_RIDING_STYLED_ITEM('', (#371), #325, #365);
#376 = PRESENTATION_STYLE_ASSIGNMENT((#377));
#377 = CURVE_STYLE('', #379, POSITIVE_LENGTH_MEASURE(1.E-6), #378);
#378 = COLOUR_RGB('', 0., 0., 1.);
#379 = DRAUGHTING_PRE_DEFINED_CURVE_FONT('continuous');
#380 = OVER_RIDING_STYLED_ITEM('', (#376), #332, #365);
#381 = PRESENTATION_STYLE_ASSIGNMENT((#382));
#382 = CURVE_STYLE('', #384, POSITIVE_LENGTH_MEASURE(1.E-6), #383);
#383 = COLOUR_RGB('', 0., 0., 1.);
#384 = DRAUGHTING_PRE_DEFINED_CURVE_FONT('continuous');
#385 = OVER_RIDING_STYLED_ITEM('', (#381), #340, #365);
#386 = PRESENTATION_STYLE_ASSIGNMENT((#387));
#387 = CURVE_STYLE('', #389, POSITIVE_LENGTH_MEASURE(1.E-6), #388);
#388 = COLOUR_RGB('', 0., 0., 1.);
#389 = DRAUGHTING_PRE_DEFINED_CURVE_FONT('continuous');
#390 = OVER_RIDING_STYLED_ITEM('', (#386), #347, #365);
#391 = AXIS2_PLACEMENT_3D('CIP', #392, #393, #394);
#392 = CARTESIAN_POINT('', (2.13715769029315E-31, 3.49024337756996E-15, -57.));
#393 = DIRECTION('', (-3.74939945665465E-33, -6.12323399573677E-17, 1.));
#394 = DIRECTION('', (1., -6.12323399573677E-17, 0.));
#395 = AXIS2_PLACEMENT_3D('MCS', #396, #397, #398);
#396 = CARTESIAN_POINT('', (1.34978380439567E-31, 2.20436423846524E-15, -36.));
#397 = DIRECTION('', (-3.74939945665465E-33, -6.12323399573677E-17, 1.));
#398 = DIRECTION('', (1., -6.12323399573677E-17, 0.));
#399 = AXIS2_PLACEMENT_3D('PCS', #400, #401, #402);
#400 = CARTESIAN_POINT('', (0., 0., 0.));
#401 = DIRECTION('', (0., 0., 1.));
#402 = DIRECTION('', (1., 0., 0.));
#403 = CARTESIAN_POINT('CRP', (2., 0., -57.));
#404 = (
   GEOMETRIC_REPRESENTATION_CONTEXT (3)
   GLOBAL_UNCERTAINTY_ASSIGNED_CONTEXT ((#406))
   GLOBAL_UNIT_ASSIGNED_CONTEXT ((#405, #407, #408))
   REPRESENTATION_CONTEXT ('', '3D')
);
#405 = (
   LENGTH_UNIT ()
   NAMED_UNIT (*)
   SI_UNIT (.MILLI., .METRE.)
);
#406 = UNCERTAINTY_MEASURE_WITH_UNIT(LENGTH_MEASURE(1.E-6), #405, 'DISTANCE_ACCURACY_VALUE', '');
#407 = (
   NAMED_UNIT (*)
   SI_UNIT ($, .STERADIAN.)
   SOLID_ANGLE_UNIT ()
);
#408 = (
   NAMED_UNIT (*)
   PLANE_ANGLE_UNIT ()
   SI_UNIT ($, .RADIAN.)
);
#409 = SHAPE_REPRESENTATION('', (), #404);
#410 = PRODUCT_DEFINITION_SHAPE('', '', #411);
#411 = PRODUCT_DEFINITION('', '', #414, #418);
#412 = APPLICATION_CONTEXT('configuration controlled 3D designs of mechanical parts and assemblies');
#413 = APPLICATION_PROTOCOL_DEFINITION('International Standard', 'automotive_design', 2002, #412);
#414 = PRODUCT_DEFINITION_FORMATION_WITH_SPECIFIED_SOURCE('', '', #415, .NOT_KNOWN.);
#415 = PRODUCT('EmptyName', 'EmptyName', '', (#416));
#416 = PRODUCT_CONTEXT('', #412, 'mechanical');
#417 = PRODUCT_RELATED_PRODUCT_CATEGORY('detail', '', (#415));
#418 = PRODUCT_DEFINITION_CONTEXT('part definition', #412, 'design');
#419 = SHAPE_DEFINITION_REPRESENTATION(#410, #409);
#420 = CONSTRUCTIVE_GEOMETRY_REPRESENTATION('supplemental geometry', (#391, #395, #399), #404);
#421 = CONSTRUCTIVE_GEOMETRY_REPRESENTATION_RELATIONSHIP('', '', #409, #420);
#422 = SHAPE_REPRESENTATION_RELATIONSHIP('', '', #409, #423);
#423 = SHAPE_REPRESENTATION('', (#360), #404);
#424 = SHAPE_REPRESENTATION_RELATIONSHIP('', '', #409, #425);
#425 = ADVANCED_BREP_SHAPE_REPRESENTATION('', (#1, #194), #404);
ENDSEC;
END-ISO-10303-21;
