ISO-10303-21;
HEADER;
/* Generated by software containing ST-Developer
 * from STEP Tools, Inc. (www.steptools.com) 
 */
/* OPTION: using custom schema-name function */

FILE_DESCRIPTION(
/* description */ ('3-D model version:1'),
/* implementation_level */ '2;1');

FILE_NAME(
/* name */ 'R216.2-525',
/* time_stamp */ '2015-10-30T09:44:17+01:00',
/* author */ ('InteractiveCad'),
/* organization */ ('AB Sandvik Coromant'),
/* preprocessor_version */ 'ST-DEVELOPER v11',
/* originating_system */ 'SIEMENS UGS NX 6.0',
/* authorisation */ '');

FILE_SCHEMA (('AP203_CONFIGURATION_CONTROLLED_3D_DESIGN_OF_MECHANICAL_PARTS_AND_ASSEMBLIES_MIM_LF'));
ENDSEC;

DATA;
#10=SHAPE_REPRESENTATION_RELATIONSHIP('None',
'relationship between R216_2_525_SIM-None and R216_2_525_SIM-None',#94,#11);
#11=ADVANCED_BREP_SHAPE_REPRESENTATION('R216_2_525_SIM-None',(#112,#113),
#333);
#12=CC_DESIGN_APPROVAL(#24,(#82));
#13=CC_DESIGN_APPROVAL(#25,(#84));
#14=CC_DESIGN_APPROVAL(#26,(#31));
#15=APPROVAL_PERSON_ORGANIZATION(#69,#24,#18);
#16=APPROVAL_PERSON_ORGANIZATION(#70,#25,#19);
#17=APPROVAL_PERSON_ORGANIZATION(#71,#26,#20);
#18=APPROVAL_ROLE('approver');
#19=APPROVAL_ROLE('approver');
#20=APPROVAL_ROLE('approver');
#21=APPROVAL_DATE_TIME(#39,#24);
#22=APPROVAL_DATE_TIME(#40,#25);
#23=APPROVAL_DATE_TIME(#41,#26);
#24=APPROVAL(#27,' ');
#25=APPROVAL(#28,' ');
#26=APPROVAL(#29,' ');
#27=APPROVAL_STATUS('not_yet_approved');
#28=APPROVAL_STATUS('not_yet_approved');
#29=APPROVAL_STATUS('not_yet_approved');
#30=CC_DESIGN_SECURITY_CLASSIFICATION(#31,(#84));
#31=SECURITY_CLASSIFICATION(' ',' ',#32);
#32=SECURITY_CLASSIFICATION_LEVEL('confidential');
#33=CC_DESIGN_DATE_AND_TIME_ASSIGNMENT(#37,#35,(#82));
#34=CC_DESIGN_DATE_AND_TIME_ASSIGNMENT(#38,#36,(#31));
#35=DATE_TIME_ROLE('creation_date');
#36=DATE_TIME_ROLE('classification_date');
#37=DATE_AND_TIME(#52,#42);
#38=DATE_AND_TIME(#53,#43);
#39=DATE_AND_TIME(#54,#44);
#40=DATE_AND_TIME(#55,#45);
#41=DATE_AND_TIME(#56,#46);
#42=LOCAL_TIME(0,0,0.,#47);
#43=LOCAL_TIME(0,0,0.,#48);
#44=LOCAL_TIME(0,0,0.,#49);
#45=LOCAL_TIME(0,0,0.,#50);
#46=LOCAL_TIME(0,0,0.,#51);
#47=COORDINATED_UNIVERSAL_TIME_OFFSET(0,0,.BEHIND.);
#48=COORDINATED_UNIVERSAL_TIME_OFFSET(0,0,.BEHIND.);
#49=COORDINATED_UNIVERSAL_TIME_OFFSET(0,0,.BEHIND.);
#50=COORDINATED_UNIVERSAL_TIME_OFFSET(0,0,.BEHIND.);
#51=COORDINATED_UNIVERSAL_TIME_OFFSET(0,0,.BEHIND.);
#52=CALENDAR_DATE(0,1,1);
#53=CALENDAR_DATE(0,1,1);
#54=CALENDAR_DATE(0,1,1);
#55=CALENDAR_DATE(0,1,1);
#56=CALENDAR_DATE(0,1,1);
#57=CC_DESIGN_PERSON_AND_ORGANIZATION_ASSIGNMENT(#65,#61,(#82,#84));
#58=CC_DESIGN_PERSON_AND_ORGANIZATION_ASSIGNMENT(#66,#62,(#86));
#59=CC_DESIGN_PERSON_AND_ORGANIZATION_ASSIGNMENT(#67,#63,(#84));
#60=CC_DESIGN_PERSON_AND_ORGANIZATION_ASSIGNMENT(#68,#64,(#31));
#61=PERSON_AND_ORGANIZATION_ROLE('creator');
#62=PERSON_AND_ORGANIZATION_ROLE('design_owner');
#63=PERSON_AND_ORGANIZATION_ROLE('design_supplier');
#64=PERSON_AND_ORGANIZATION_ROLE('classification_officer');
#65=PERSON_AND_ORGANIZATION(#79,#72);
#66=PERSON_AND_ORGANIZATION(#79,#73);
#67=PERSON_AND_ORGANIZATION(#79,#74);
#68=PERSON_AND_ORGANIZATION(#79,#75);
#69=PERSON_AND_ORGANIZATION(#79,#76);
#70=PERSON_AND_ORGANIZATION(#79,#77);
#71=PERSON_AND_ORGANIZATION(#79,#78);
#72=ORGANIZATION(' ',' ',' ');
#73=ORGANIZATION(' ',' ',' ');
#74=ORGANIZATION(' ',' ',' ');
#75=ORGANIZATION(' ',' ',' ');
#76=ORGANIZATION(' ',' ',' ');
#77=ORGANIZATION(' ',' ',' ');
#78=ORGANIZATION(' ',' ',' ');
#79=PERSON(' ',' ',' ',(' '),$,$);
#80=SHAPE_DEFINITION_REPRESENTATION(#81,#94);
#81=PRODUCT_DEFINITION_SHAPE('','',#82);
#82=PRODUCT_DEFINITION(' ','',#84,#83);
#83=DESIGN_CONTEXT('',#93,'design');
#84=PRODUCT_DEFINITION_FORMATION_WITH_SPECIFIED_SOURCE(' ',' ',#86,.NOT_KNOWN.);
#85=PRODUCT_RELATED_PRODUCT_CATEGORY('detail','',(#86));
#86=PRODUCT('R216_2_525_SIM','R216_2_525_SIM',' ',(#91));
#87=PRODUCT_CATEGORY_RELATIONSHIP(' ',' ',#89,#90);
#88=PRODUCT_CATEGORY_RELATIONSHIP('','',#90,#85);
#89=PRODUCT_CATEGORY('part',' ');
#90=PRODUCT_CATEGORY(' ','');
#91=MECHANICAL_CONTEXT(' ',#93,'mechanical');
#92=APPLICATION_PROTOCOL_DEFINITION('international standard',
'config_control_design',1994,#93);
#93=APPLICATION_CONTEXT(
'configuration controlled 3D designs of mechanical parts and assemblies');
#94=SHAPE_REPRESENTATION('R216_2_525_SIM-None',(#230),#333);
#95=PRESENTATION_LAYER_ASSIGNMENT('1','Layer 1',(#112,#113));
#96=STYLED_ITEM('',(#98),#112);
#97=STYLED_ITEM('',(#99),#113);
#98=PRESENTATION_STYLE_ASSIGNMENT((#100));
#99=PRESENTATION_STYLE_ASSIGNMENT((#101));
#100=SURFACE_STYLE_USAGE(.BOTH.,#102);
#101=SURFACE_STYLE_USAGE(.BOTH.,#103);
#102=SURFACE_SIDE_STYLE('',(#104));
#103=SURFACE_SIDE_STYLE('',(#105));
#104=SURFACE_STYLE_FILL_AREA(#106);
#105=SURFACE_STYLE_FILL_AREA(#107);
#106=FILL_AREA_STYLE('',(#108));
#107=FILL_AREA_STYLE('',(#109));
#108=FILL_AREA_STYLE_COLOUR('',#110);
#109=FILL_AREA_STYLE_COLOUR('',#111);
#110=COLOUR_RGB('TLS_NOCUT',0.499992370489052,0.499992370489052,0.499992370489052);
#111=COLOUR_RGB('TLS_CUT',0.8,0.8,0.8);
#112=MANIFOLD_SOLID_BREP('',#114);
#113=MANIFOLD_SOLID_BREP('',#115);
#114=CLOSED_SHELL('',(#140,#141,#142,#143,#144,#145,#146));
#115=CLOSED_SHELL('',(#147,#148,#149,#150,#151));
#116=TOROIDAL_SURFACE('',#240,12.5,1.);
#117=TOROIDAL_SURFACE('',#249,11.4900981511652,0.80000000000009);
#118=TOROIDAL_SURFACE('',#252,11.4900981511652,0.800000000000035);
#119=CYLINDRICAL_SURFACE('',#238,12.5);
#120=CYLINDRICAL_SURFACE('',#242,11.5);
#121=CYLINDRICAL_SURFACE('',#251,12.2900981511653);
#122=CONICAL_SURFACE('',#236,12.5,45.0000000000001);
#123=CONICAL_SURFACE('',#243,6.88581384530589,59.6287872304436);
#124=FACE_BOUND('',#162,.T.);
#125=FACE_BOUND('',#163,.T.);
#126=FACE_BOUND('',#164,.T.);
#127=FACE_BOUND('',#165,.T.);
#128=FACE_BOUND('',#166,.T.);
#129=FACE_BOUND('',#167,.T.);
#130=FACE_BOUND('',#168,.T.);
#131=FACE_BOUND('',#169,.T.);
#132=FACE_BOUND('',#170,.T.);
#133=FACE_BOUND('',#171,.T.);
#134=FACE_BOUND('',#174,.T.);
#135=FACE_BOUND('',#175,.T.);
#136=FACE_BOUND('',#176,.T.);
#137=FACE_BOUND('',#177,.T.);
#138=FACE_BOUND('',#178,.T.);
#139=FACE_BOUND('',#179,.T.);
#140=ADVANCED_FACE('',(#156),#152,.F.);
#141=ADVANCED_FACE('',(#157),#153,.F.);
#142=ADVANCED_FACE('',(#124,#125),#122,.T.);
#143=ADVANCED_FACE('',(#126,#127),#119,.T.);
#144=ADVANCED_FACE('',(#128,#129),#116,.F.);
#145=ADVANCED_FACE('',(#130,#131),#120,.T.);
#146=ADVANCED_FACE('',(#132,#133),#123,.T.);
#147=ADVANCED_FACE('',(#158),#154,.T.);
#148=ADVANCED_FACE('',(#159),#155,.F.);
#149=ADVANCED_FACE('',(#134,#135),#117,.T.);
#150=ADVANCED_FACE('',(#136,#137),#121,.T.);
#151=ADVANCED_FACE('',(#138,#139),#118,.T.);
#152=PLANE('',#232);
#153=PLANE('',#234);
#154=PLANE('',#245);
#155=PLANE('',#247);
#156=FACE_OUTER_BOUND('',#160,.T.);
#157=FACE_OUTER_BOUND('',#161,.T.);
#158=FACE_OUTER_BOUND('',#172,.T.);
#159=FACE_OUTER_BOUND('',#173,.T.);
#160=EDGE_LOOP('',(#180));
#161=EDGE_LOOP('',(#181));
#162=EDGE_LOOP('',(#182));
#163=EDGE_LOOP('',(#183));
#164=EDGE_LOOP('',(#184));
#165=EDGE_LOOP('',(#185));
#166=EDGE_LOOP('',(#186));
#167=EDGE_LOOP('',(#187));
#168=EDGE_LOOP('',(#188));
#169=EDGE_LOOP('',(#189));
#170=EDGE_LOOP('',(#190));
#171=EDGE_LOOP('',(#191));
#172=EDGE_LOOP('',(#192));
#173=EDGE_LOOP('',(#193));
#174=EDGE_LOOP('',(#194));
#175=EDGE_LOOP('',(#195));
#176=EDGE_LOOP('',(#196));
#177=EDGE_LOOP('',(#197));
#178=EDGE_LOOP('',(#198));
#179=EDGE_LOOP('',(#199));
#180=ORIENTED_EDGE('',*,*,#210,.F.);
#181=ORIENTED_EDGE('',*,*,#211,.T.);
#182=ORIENTED_EDGE('',*,*,#211,.F.);
#183=ORIENTED_EDGE('',*,*,#212,.T.);
#184=ORIENTED_EDGE('',*,*,#212,.F.);
#185=ORIENTED_EDGE('',*,*,#213,.T.);
#186=ORIENTED_EDGE('',*,*,#213,.F.);
#187=ORIENTED_EDGE('',*,*,#214,.T.);
#188=ORIENTED_EDGE('',*,*,#214,.F.);
#189=ORIENTED_EDGE('',*,*,#215,.T.);
#190=ORIENTED_EDGE('',*,*,#215,.F.);
#191=ORIENTED_EDGE('',*,*,#210,.T.);
#192=ORIENTED_EDGE('',*,*,#216,.T.);
#193=ORIENTED_EDGE('',*,*,#217,.F.);
#194=ORIENTED_EDGE('',*,*,#217,.T.);
#195=ORIENTED_EDGE('',*,*,#218,.F.);
#196=ORIENTED_EDGE('',*,*,#218,.T.);
#197=ORIENTED_EDGE('',*,*,#219,.F.);
#198=ORIENTED_EDGE('',*,*,#219,.T.);
#199=ORIENTED_EDGE('',*,*,#216,.F.);
#200=VERTEX_POINT('',#301);
#201=VERTEX_POINT('',#304);
#202=VERTEX_POINT('',#307);
#203=VERTEX_POINT('',#310);
#204=VERTEX_POINT('',#313);
#205=VERTEX_POINT('',#316);
#206=VERTEX_POINT('',#320);
#207=VERTEX_POINT('',#323);
#208=VERTEX_POINT('',#326);
#209=VERTEX_POINT('',#329);
#210=EDGE_CURVE('',#200,#200,#220,.T.);
#211=EDGE_CURVE('',#201,#201,#221,.T.);
#212=EDGE_CURVE('',#202,#202,#222,.T.);
#213=EDGE_CURVE('',#203,#203,#223,.T.);
#214=EDGE_CURVE('',#204,#204,#224,.T.);
#215=EDGE_CURVE('',#205,#205,#225,.T.);
#216=EDGE_CURVE('',#206,#206,#226,.T.);
#217=EDGE_CURVE('',#207,#207,#227,.T.);
#218=EDGE_CURVE('',#208,#208,#228,.T.);
#219=EDGE_CURVE('',#209,#209,#229,.T.);
#220=CIRCLE('',#231,6.88581384530589);
#221=CIRCLE('',#233,11.5);
#222=CIRCLE('',#235,12.5);
#223=CIRCLE('',#237,12.5);
#224=CIRCLE('',#239,11.5);
#225=CIRCLE('',#241,11.5);
#226=CIRCLE('',#244,11.4900981511652);
#227=CIRCLE('',#246,11.4900981511652);
#228=CIRCLE('',#248,12.2900981511653);
#229=CIRCLE('',#250,12.2900981511653);
#230=AXIS2_PLACEMENT_3D('',#299,#253,#254);
#231=AXIS2_PLACEMENT_3D('',#300,#255,#256);
#232=AXIS2_PLACEMENT_3D('',#302,#257,#258);
#233=AXIS2_PLACEMENT_3D('',#303,#259,#260);
#234=AXIS2_PLACEMENT_3D('',#305,#261,#262);
#235=AXIS2_PLACEMENT_3D('',#306,#263,#264);
#236=AXIS2_PLACEMENT_3D('',#308,#265,#266);
#237=AXIS2_PLACEMENT_3D('',#309,#267,#268);
#238=AXIS2_PLACEMENT_3D('',#311,#269,#270);
#239=AXIS2_PLACEMENT_3D('',#312,#271,#272);
#240=AXIS2_PLACEMENT_3D('',#314,#273,#274);
#241=AXIS2_PLACEMENT_3D('',#315,#275,#276);
#242=AXIS2_PLACEMENT_3D('',#317,#277,#278);
#243=AXIS2_PLACEMENT_3D('',#318,#279,#280);
#244=AXIS2_PLACEMENT_3D('',#319,#281,#282);
#245=AXIS2_PLACEMENT_3D('',#321,#283,#284);
#246=AXIS2_PLACEMENT_3D('',#322,#285,#286);
#247=AXIS2_PLACEMENT_3D('',#324,#287,#288);
#248=AXIS2_PLACEMENT_3D('',#325,#289,#290);
#249=AXIS2_PLACEMENT_3D('',#327,#291,#292);
#250=AXIS2_PLACEMENT_3D('',#328,#293,#294);
#251=AXIS2_PLACEMENT_3D('',#330,#295,#296);
#252=AXIS2_PLACEMENT_3D('',#331,#297,#298);
#253=DIRECTION('',(0.,0.,1.));
#254=DIRECTION('',(1.,0.,0.));
#255=DIRECTION('',(0.,0.,1.));
#256=DIRECTION('',(0.,-1.,0.));
#257=DIRECTION('',(0.,0.,1.));
#258=DIRECTION('',(0.,-1.,0.));
#259=DIRECTION('',(0.,0.,1.));
#260=DIRECTION('',(0.,-1.,0.));
#261=DIRECTION('',(0.,0.,-1.));
#262=DIRECTION('',(0.,1.,0.));
#263=DIRECTION('',(0.,0.,1.));
#264=DIRECTION('',(0.,-1.,0.));
#265=DIRECTION('',(0.,0.,-1.));
#266=DIRECTION('',(0.,1.,1.09651656753102E-016));
#267=DIRECTION('',(0.,0.,1.));
#268=DIRECTION('',(0.,-1.,0.));
#269=DIRECTION('',(0.,0.,1.));
#270=DIRECTION('',(0.,-1.,0.));
#271=DIRECTION('',(0.,0.,1.));
#272=DIRECTION('',(0.,-1.,0.));
#273=DIRECTION('',(0.,0.,1.));
#274=DIRECTION('',(0.,-1.,0.));
#275=DIRECTION('',(0.,0.,1.));
#276=DIRECTION('',(0.,-1.,0.));
#277=DIRECTION('',(0.,0.,1.));
#278=DIRECTION('',(0.,-1.,0.));
#279=DIRECTION('',(0.,0.,1.));
#280=DIRECTION('',(0.,-1.,1.61999888382128E-017));
#281=DIRECTION('',(0.,0.,1.));
#282=DIRECTION('',(0.,-1.,0.));
#283=DIRECTION('',(0.,0.,1.));
#284=DIRECTION('',(0.,-1.,0.));
#285=DIRECTION('',(0.,0.,1.));
#286=DIRECTION('',(0.,-1.,0.));
#287=DIRECTION('',(0.,0.,1.));
#288=DIRECTION('',(0.,-1.,0.));
#289=DIRECTION('',(0.,0.,1.));
#290=DIRECTION('',(0.,-1.,0.));
#291=DIRECTION('',(0.,0.,1.));
#292=DIRECTION('',(0.,-1.,0.));
#293=DIRECTION('',(0.,0.,1.));
#294=DIRECTION('',(0.,-1.,0.));
#295=DIRECTION('',(0.,0.,1.));
#296=DIRECTION('',(0.,-1.,0.));
#297=DIRECTION('',(0.,0.,1.));
#298=DIRECTION('',(0.,-1.,0.));
#299=CARTESIAN_POINT('',(0.,0.,0.));
#300=CARTESIAN_POINT('',(0.,0.,-96.));
#301=CARTESIAN_POINT('',(0.,-6.88581384530589,-96.));
#302=CARTESIAN_POINT('',(0.,0.,-96.));
#303=CARTESIAN_POINT('',(0.,0.,0.));
#304=CARTESIAN_POINT('',(0.,-11.5,0.));
#305=CARTESIAN_POINT('',(-11.5,0.,0.));
#306=CARTESIAN_POINT('',(0.,0.,-1.));
#307=CARTESIAN_POINT('',(0.,-12.5,-1.));
#308=CARTESIAN_POINT('',(0.,0.,-1.));
#309=CARTESIAN_POINT('',(0.,0.,-57.));
#310=CARTESIAN_POINT('',(0.,-12.5,-57.));
#311=CARTESIAN_POINT('',(0.,0.,-32.));
#312=CARTESIAN_POINT('',(0.,0.,-58.));
#313=CARTESIAN_POINT('',(0.,-11.5,-58.));
#314=CARTESIAN_POINT('',(0.,0.,-58.));
#315=CARTESIAN_POINT('',(0.,0.,-93.2959884521404));
#316=CARTESIAN_POINT('',(0.,-11.5,-93.2959884521404));
#317=CARTESIAN_POINT('',(0.,0.,-32.));
#318=CARTESIAN_POINT('',(0.,0.,-96.));
#319=CARTESIAN_POINT('',(0.,0.,-83.0895327627275));
#320=CARTESIAN_POINT('',(0.,-11.4900981511652,-83.0895327627275));
#321=CARTESIAN_POINT('',(0.,0.,-83.0895327627275));
#322=CARTESIAN_POINT('',(0.,0.,-96.6895327627275));
#323=CARTESIAN_POINT('',(0.,-11.4900981511652,-96.6895327627275));
#324=CARTESIAN_POINT('',(0.,0.,-96.6895327627275));
#325=CARTESIAN_POINT('',(0.,0.,-95.8895327627275));
#326=CARTESIAN_POINT('',(0.,-12.2900981511653,-95.8895327627275));
#327=CARTESIAN_POINT('',(0.,0.,-95.8895327627275));
#328=CARTESIAN_POINT('',(0.,0.,-83.8895327627275));
#329=CARTESIAN_POINT('',(0.,-12.2900981511653,-83.8895327627275));
#330=CARTESIAN_POINT('',(0.,0.,-32.));
#331=CARTESIAN_POINT('',(0.,0.,-83.8895327627275));
#332=MECHANICAL_DESIGN_GEOMETRIC_PRESENTATION_REPRESENTATION('',(#96,#97),
#333);
#333=(
GEOMETRIC_REPRESENTATION_CONTEXT(3)
GLOBAL_UNCERTAINTY_ASSIGNED_CONTEXT((#334))
GLOBAL_UNIT_ASSIGNED_CONTEXT((#340,#336,#335))
REPRESENTATION_CONTEXT('R216_2_525_SIM','TOP_LEVEL_ASSEMBLY_PART')
);
#334=UNCERTAINTY_MEASURE_WITH_UNIT(LENGTH_MEASURE(2.E-005),#340,
'DISTANCE_ACCURACY_VALUE','Maximum Tolerance applied to model');
#335=(
NAMED_UNIT(*)
SI_UNIT($,.STERADIAN.)
SOLID_ANGLE_UNIT()
);
#336=(
CONVERSION_BASED_UNIT('DEGREE',#338)
NAMED_UNIT(#337)
PLANE_ANGLE_UNIT()
);
#337=DIMENSIONAL_EXPONENTS(0.,0.,0.,0.,0.,0.,0.);
#338=PLANE_ANGLE_MEASURE_WITH_UNIT(PLANE_ANGLE_MEASURE(0.0174532925),#339);
#339=(
NAMED_UNIT(*)
PLANE_ANGLE_UNIT()
SI_UNIT($,.RADIAN.)
);
#340=(
LENGTH_UNIT()
NAMED_UNIT(*)
SI_UNIT(.MILLI.,.METRE.)
);
ENDSEC;
END-ISO-10303-21;
