ISO-10303-21;
HEADER;
FILE_DESCRIPTION(('STEP'), '1');
FILE_NAME('C:\\Users\\ds2002\\OneDrive - Sandvik\\HomeShare\\Documents\\Batchrepair\\CorSRT2\\NEW_MILSQ_SLD\\Output\\MOD000000000000000020084564900000.stp', '2019-01-02T12:09:27', (''), (''), 'Express v3.0.0.0', 'Express Tool', 'Unknown');
FILE_SCHEMA(('AUTOMOTIVE_DESIGN'));
ENDSEC;

DATA;
#1 = MANIFOLD_SOLID_BREP('NOCUT', #2);
#2 = CLOSED_SHELL('', (#3, #20, #37, #85));
#3 = ADVANCED_FACE('', (#4), #15, .T.);
#4 = FACE_OUTER_BOUND('', #5, .T.);
#5 = EDGE_LOOP('', (#6));
#6 = ORIENTED_EDGE('', *, *, #7, .F.);
#7 = EDGE_CURVE('', #8, #8, #10, .T.);
#8 = VERTEX_POINT('', #9);
#9 = CARTESIAN_POINT('', (-8.00000000000022, 0., -60.));
#10 = CIRCLE('', #11, 8.00000000000022);
#11 = AXIS2_PLACEMENT_3D('', #12, #13, #14);
#12 = CARTESIAN_POINT('', (5.55111512312578E-16, -4.44089209850063E-16, -60.));
#13 = DIRECTION('', (0., 0., 1.));
#14 = DIRECTION('', (-1., 5.55111512312563E-17, 0.));
#15 = B_SPLINE_SURFACE_WITH_KNOTS('', 1, 1, ((#16, #17), (#18, #19)), .UNSPECIFIED., .F., .F., .U., (2, 2), (2, 2), (-8.00100000000022, 8.00100000000022), (-8.00100000000022, 8.00100000000022), .UNSPECIFIED.);
#16 = CARTESIAN_POINT('', (8.00100000000022, -8.00100000000022, -60.));
#17 = CARTESIAN_POINT('', (8.00100000000022, 8.00100000000022, -60.));
#18 = CARTESIAN_POINT('', (-8.00100000000022, -8.00100000000022, -60.));
#19 = CARTESIAN_POINT('', (-8.00100000000022, 8.00100000000022, -60.));
#20 = ADVANCED_FACE('', (#21), #32, .T.);
#21 = FACE_OUTER_BOUND('', #22, .T.);
#22 = EDGE_LOOP('', (#23));
#23 = ORIENTED_EDGE('', *, *, #24, .T.);
#24 = EDGE_CURVE('', #25, #25, #27, .T.);
#25 = VERTEX_POINT('', #26);
#26 = CARTESIAN_POINT('', (7.20000000000022, 0., 0.));
#27 = CIRCLE('', #28, 7.20000000000022);
#28 = AXIS2_PLACEMENT_3D('', #29, #30, #31);
#29 = CARTESIAN_POINT('', (-4.71844785465692E-16, -1.55431223447522E-15, 0.));
#30 = DIRECTION('', (0., 0., 1.));
#31 = DIRECTION('', (1., 2.15876699232663E-16, 0.));
#32 = B_SPLINE_SURFACE_WITH_KNOTS('', 1, 1, ((#33, #34), (#35, #36)), .UNSPECIFIED., .F., .F., .U., (2, 2), (2, 2), (-7.20100000000017, 7.20100000000027), (-7.20100000000022, 7.20100000000022), .UNSPECIFIED.);
#33 = CARTESIAN_POINT('', (7.20100000000022, 7.20100000000022, 0.));
#34 = CARTESIAN_POINT('', (7.20100000000022, -7.20100000000022, 0.));
#35 = CARTESIAN_POINT('', (-7.20100000000022, 7.20100000000022, 0.));
#36 = CARTESIAN_POINT('', (-7.20100000000022, -7.20100000000022, 0.));
#37 = ADVANCED_FACE('', (#38), #66, .T.);
#38 = FACE_OUTER_BOUND('', #39, .T.);
#39 = EDGE_LOOP('', (#40, #48, #49, #50, #59));
#40 = ORIENTED_EDGE('', *, *, #41, .T.);
#41 = EDGE_CURVE('', #42, #25, #44, .T.);
#42 = VERTEX_POINT('', #43);
#43 = CARTESIAN_POINT('', (8.00000000000022, 0., -0.800000000000002));
#44 = LINE('', #45, #46);
#45 = CARTESIAN_POINT('', (8.00000000000022, -1.25648876695111E-15, -0.8));
#46 = VECTOR('', #47, 1.13137084989848);
#47 = DIRECTION('', (-0.800000000000003, 1.2549201168051E-15, 0.799999999999999));
#48 = ORIENTED_EDGE('', *, *, #24, .F.);
#49 = ORIENTED_EDGE('', *, *, #41, .F.);
#50 = ORIENTED_EDGE('', *, *, #51, .F.);
#51 = EDGE_CURVE('', #52, #42, #54, .T.);
#52 = VERTEX_POINT('', #53);
#53 = CARTESIAN_POINT('', (-8.00000000000022, -9.7971743931791E-16, -0.800000000000002));
#54 = CIRCLE('', #55, 8.00000000000022);
#55 = AXIS2_PLACEMENT_3D('', #56, #57, #58);
#56 = CARTESIAN_POINT('', (-5.55111512312578E-16, -4.44089209850063E-16, -0.800000000000002));
#57 = DIRECTION('', (0., 0., -1.));
#58 = DIRECTION('', (1., 5.55111512312563E-17, 0.));
#59 = ORIENTED_EDGE('', *, *, #60, .F.);
#60 = EDGE_CURVE('', #42, #52, #61, .T.);
#61 = CIRCLE('', #62, 8.00000000000022);
#62 = AXIS2_PLACEMENT_3D('', #63, #64, #65);
#63 = CARTESIAN_POINT('', (-5.55111512312578E-16, -4.44089209850063E-16, -0.800000000000002));
#64 = DIRECTION('', (0., 0., -1.));
#65 = DIRECTION('', (1., 5.55111512312563E-17, 0.));
#66 = (
   BOUNDED_SURFACE ()
   B_SPLINE_SURFACE (2, 1, ((#67, #68), (#69, #70), (#71, #72), (#73, #74), (#75, #76), (#77, #78), (#79, #80), (#81, #82), (#83, #84)), .UNSPECIFIED., .T., .F., .U.)
   B_SPLINE_SURFACE_WITH_KNOTS ((3, 2, 2, 2, 3), (2, 2), (0., 0.25, 0.5, 0.75, 1.), (0., 1.), .UNSPECIFIED.)
   GEOMETRIC_REPRESENTATION_ITEM ()
   RATIONAL_B_SPLINE_SURFACE (((1., 1.), (0.707106781186548, 0.707106781186548), (1., 1.), (0.707106781186548, 0.707106781186548), (1., 1.), (0.707106781186548, 0.707106781186548), (1., 1.), (0.707106781186548, 0.707106781186548), (1., 1.)))
   REPRESENTATION_ITEM ('')
   SURFACE ()
);
#67 = CARTESIAN_POINT('', (7.19900000000022, -9.86076131526265E-32, 0.001));
#68 = CARTESIAN_POINT('', (8.00100000000023, -1.25805741709712E-15, -0.801000000000002));
#69 = CARTESIAN_POINT('', (7.19900000000022, -7.19900000000022, 0.00100000000001196));
#70 = CARTESIAN_POINT('', (8.00100000000023, -8.00100000000023, -0.800999999999989));
#71 = CARTESIAN_POINT('', (3.29789312890587E-16, -7.19900000000022, 0.00100000000001196));
#72 = CARTESIAN_POINT('', (4.53107861989461E-16, -8.00100000000023, -0.800999999999989));
#73 = CARTESIAN_POINT('', (-7.19900000000022, -7.19900000000022, 0.00100000000001196));
#74 = CARTESIAN_POINT('', (-8.00100000000022, -8.00100000000023, -0.800999999999989));
#75 = CARTESIAN_POINT('', (-7.19900000000022, -2.21389086025639E-15, 0.001));
#76 = CARTESIAN_POINT('', (-8.00100000000023, -3.71858537555127E-15, -0.801000000000002));
#77 = CARTESIAN_POINT('', (-7.19900000000022, 7.19900000000022, 0.000999999999988041));
#78 = CARTESIAN_POINT('', (-8.00100000000023, 8.00100000000022, -0.801000000000015));
#79 = CARTESIAN_POINT('', (-2.76572477807201E-15, 7.19900000000022, 0.000999999999988041));
#80 = CARTESIAN_POINT('', (-2.98726000046251E-15, 8.00100000000022, -0.801000000000016));
#81 = CARTESIAN_POINT('', (7.19900000000021, 7.19900000000022, 0.000999999999988041));
#82 = CARTESIAN_POINT('', (8.00100000000022, 8.00100000000023, -0.801000000000015));
#83 = CARTESIAN_POINT('', (7.19900000000022, -9.86076131526265E-32, 0.001));
#84 = CARTESIAN_POINT('', (8.00100000000023, -1.25805741709712E-15, -0.801000000000002));
#85 = ADVANCED_FACE('', (#86), #98, .T.);
#86 = FACE_OUTER_BOUND('', #87, .T.);
#87 = EDGE_LOOP('', (#88, #94, #95, #96, #97));
#88 = ORIENTED_EDGE('', *, *, #89, .T.);
#89 = EDGE_CURVE('', #52, #8, #90, .T.);
#90 = LINE('', #91, #92);
#91 = CARTESIAN_POINT('', (-8.00000000000022, 0., -0.800000000000002));
#92 = VECTOR('', #93, 59.2);
#93 = DIRECTION('', (0., 0., -59.2));
#94 = ORIENTED_EDGE('', *, *, #7, .T.);
#95 = ORIENTED_EDGE('', *, *, #89, .F.);
#96 = ORIENTED_EDGE('', *, *, #51, .T.);
#97 = ORIENTED_EDGE('', *, *, #60, .T.);
#98 = (
   BOUNDED_SURFACE ()
   B_SPLINE_SURFACE (2, 1, ((#99, #100), (#101, #102), (#103, #104), (#105, #106), (#107, #108), (#109, #110), (#111, #112), (#113, #114), (#115, #116)), .UNSPECIFIED., .T., .F., .U.)
   B_SPLINE_SURFACE_WITH_KNOTS ((3, 2, 2, 2, 3), (2, 2), (0., 0.25, 0.5, 0.75, 1.), (0., 1.), .UNSPECIFIED.)
   GEOMETRIC_REPRESENTATION_ITEM ()
   RATIONAL_B_SPLINE_SURFACE (((1., 1.), (0.707106781186548, 0.707106781186548), (1., 1.), (0.707106781186548, 0.707106781186548), (1., 1.), (0.707106781186548, 0.707106781186548), (1., 1.), (0.707106781186548, 0.707106781186548), (1., 1.)))
   REPRESENTATION_ITEM ('')
   SURFACE ()
);
#99 = CARTESIAN_POINT('', (-8.00000000000022, 0., -65.9212));
#100 = CARTESIAN_POINT('', (-8.00000000000022, 0., 5.1212));
#101 = CARTESIAN_POINT('', (-8.00000000000022, -8.00000000000022, -65.9212));
#102 = CARTESIAN_POINT('', (-8.00000000000022, -8.00000000000022, 5.1212));
#103 = CARTESIAN_POINT('', (1.20763943884881E-16, -8.00000000000022, -65.9212));
#104 = CARTESIAN_POINT('', (1.20763943884881E-16, -8.00000000000022, 5.1212));
#105 = CARTESIAN_POINT('', (8.00000000000022, -8.00000000000022, -65.9212));
#106 = CARTESIAN_POINT('', (8.00000000000022, -8.00000000000022, 5.1212));
#107 = CARTESIAN_POINT('', (8.00000000000022, 7.96639400082341E-16, -65.9212));
#108 = CARTESIAN_POINT('', (8.00000000000022, 7.96639400082341E-16, 5.1212));
#109 = CARTESIAN_POINT('', (8.00000000000022, 8.00000000000022, -65.9212));
#110 = CARTESIAN_POINT('', (8.00000000000022, 8.00000000000022, 5.1212));
#111 = CARTESIAN_POINT('', (3.0384198312045E-16, 8.00000000000022, -65.9212));
#112 = CARTESIAN_POINT('', (3.0384198312045E-16, 8.00000000000022, 5.1212));
#113 = CARTESIAN_POINT('', (-8.00000000000022, 8.00000000000022, -65.9212));
#114 = CARTESIAN_POINT('', (-8.00000000000022, 8.00000000000022, 5.1212));
#115 = CARTESIAN_POINT('', (-8.00000000000022, 0., -65.9212));
#116 = CARTESIAN_POINT('', (-8.00000000000022, 0., 5.1212));
#117 = DRAUGHTING_MODEL('', (#125, #239, #286, #291, #296, #301, #306, #311), #325);
#118 = PRESENTATION_STYLE_ASSIGNMENT((#119));
#119 = SURFACE_STYLE_USAGE(.POSITIVE., #120);
#120 = SURFACE_SIDE_STYLE('', (#121));
#121 = SURFACE_STYLE_FILL_AREA(#122);
#122 = FILL_AREA_STYLE('', (#123));
#123 = FILL_AREA_STYLE_COLOUR('', #124);
#124 = COLOUR_RGB('', 0.50196078431373, 0.50196078431373, 0.50196078431373);
#125 = STYLED_ITEM('', (#118), #1);
#126 = MANIFOLD_SOLID_BREP('CUT', #127);
#127 = CLOSED_SHELL('', (#128, #145, #192, #223));
#128 = ADVANCED_FACE('', (#129), #140, .T.);
#129 = FACE_OUTER_BOUND('', #130, .T.);
#130 = EDGE_LOOP('', (#131));
#131 = ORIENTED_EDGE('', *, *, #132, .T.);
#132 = EDGE_CURVE('', #133, #133, #135, .T.);
#133 = VERTEX_POINT('', #134);
#134 = CARTESIAN_POINT('', (-7.85000000000022, 0., -92.));
#135 = CIRCLE('', #136, 7.85000000000022);
#136 = AXIS2_PLACEMENT_3D('', #137, #138, #139);
#137 = CARTESIAN_POINT('', (-8.88178419700125E-16, 3.10862446895044E-15, -92.));
#138 = DIRECTION('', (-2.43994316240882E-30, 6.16142413347746E-15, -1.));
#139 = DIRECTION('', (-1., -3.96003117063739E-16, 0.));
#140 = B_SPLINE_SURFACE_WITH_KNOTS('', 1, 1, ((#141, #142), (#143, #144)), .UNSPECIFIED., .F., .F., .U., (2, 2), (2, 2), (-15.8510000000005, -0.149000000000028), (-7.85100000000022, 7.85100000000022), .UNSPECIFIED.);
#141 = CARTESIAN_POINT('', (-7.85100000000022, 7.85100000000022, -92.));
#142 = CARTESIAN_POINT('', (-7.85100000000022, -7.85100000000022, -92.));
#143 = CARTESIAN_POINT('', (7.85100000000022, 7.85100000000022, -92.));
#144 = CARTESIAN_POINT('', (7.85100000000022, -7.85100000000022, -92.));
#145 = ADVANCED_FACE('', (#146), #173, .T.);
#146 = FACE_OUTER_BOUND('', #147, .T.);
#147 = EDGE_LOOP('', (#148, #158, #165, #166));
#148 = ORIENTED_EDGE('', *, *, #149, .T.);
#149 = EDGE_CURVE('', #150, #152, #154, .T.);
#150 = VERTEX_POINT('', #151);
#151 = CARTESIAN_POINT('', (-8.00000000000022, 0., -60.));
#152 = VERTEX_POINT('', #153);
#153 = CARTESIAN_POINT('', (-8.00000000000022, 0., -91.85));
#154 = LINE('', #155, #156);
#155 = CARTESIAN_POINT('', (-8.00000000000022, 0., -60.));
#156 = VECTOR('', #157, 31.85);
#157 = DIRECTION('', (0., 0., -31.85));
#158 = ORIENTED_EDGE('', *, *, #159, .T.);
#159 = EDGE_CURVE('', #152, #152, #160, .T.);
#160 = CIRCLE('', #161, 8.00000000000022);
#161 = AXIS2_PLACEMENT_3D('', #162, #163, #164);
#162 = CARTESIAN_POINT('', (5.55111512312578E-16, -4.44089209850063E-16, -91.85));
#163 = DIRECTION('', (3.35614726619503E-31, 6.04589743097475E-15, 1.));
#164 = DIRECTION('', (-1., 5.55111512312563E-17, 0.));
#165 = ORIENTED_EDGE('', *, *, #149, .F.);
#166 = ORIENTED_EDGE('', *, *, #167, .F.);
#167 = EDGE_CURVE('', #150, #150, #168, .T.);
#168 = CIRCLE('', #169, 8.00000000000022);
#169 = AXIS2_PLACEMENT_3D('', #170, #171, #172);
#170 = CARTESIAN_POINT('', (5.55111512312578E-16, -4.44089209850063E-16, -60.));
#171 = DIRECTION('', (0., 0., 1.));
#172 = DIRECTION('', (-1., 5.55111512312563E-17, 0.));
#173 = (
   BOUNDED_SURFACE ()
   B_SPLINE_SURFACE (2, 1, ((#174, #175), (#176, #177), (#178, #179), (#180, #181), (#182, #183), (#184, #185), (#186, #187), (#188, #189), (#190, #191)), .UNSPECIFIED., .T., .F., .U.)
   B_SPLINE_SURFACE_WITH_KNOTS ((3, 2, 2, 2, 3), (2, 2), (0., 0.25, 0.5, 0.75, 1.), (0., 1.), .UNSPECIFIED.)
   GEOMETRIC_REPRESENTATION_ITEM ()
   RATIONAL_B_SPLINE_SURFACE (((1., 1.), (0.707106781186548, 0.707106781186548), (1., 1.), (0.707106781186548, 0.707106781186548), (1., 1.), (0.707106781186548, 0.707106781186548), (1., 1.), (0.707106781186548, 0.707106781186548), (1., 1.)))
   REPRESENTATION_ITEM ('')
   SURFACE ()
);
#174 = CARTESIAN_POINT('', (-8.00000000000022, 0., -95.0362));
#175 = CARTESIAN_POINT('', (-8.00000000000022, 0., -56.8138));
#176 = CARTESIAN_POINT('', (-8.00000000000022, -8.00000000000022, -95.0362));
#177 = CARTESIAN_POINT('', (-8.00000000000022, -8.00000000000022, -56.8138));
#178 = CARTESIAN_POINT('', (1.20763943884881E-16, -8.00000000000022, -95.0362));
#179 = CARTESIAN_POINT('', (1.20763943884881E-16, -8.00000000000022, -56.8138));
#180 = CARTESIAN_POINT('', (8.00000000000022, -8.00000000000022, -95.0362));
#181 = CARTESIAN_POINT('', (8.00000000000022, -8.00000000000022, -56.8138));
#182 = CARTESIAN_POINT('', (8.00000000000022, 7.96639400082341E-16, -95.0362));
#183 = CARTESIAN_POINT('', (8.00000000000022, 7.96639400082341E-16, -56.8138));
#184 = CARTESIAN_POINT('', (8.00000000000022, 8.00000000000022, -95.0362));
#185 = CARTESIAN_POINT('', (8.00000000000022, 8.00000000000022, -56.8138));
#186 = CARTESIAN_POINT('', (3.0384198312045E-16, 8.00000000000022, -95.0362));
#187 = CARTESIAN_POINT('', (3.0384198312045E-16, 8.00000000000022, -56.8138));
#188 = CARTESIAN_POINT('', (-8.00000000000022, 8.00000000000022, -95.0362));
#189 = CARTESIAN_POINT('', (-8.00000000000022, 8.00000000000022, -56.8138));
#190 = CARTESIAN_POINT('', (-8.00000000000022, 0., -95.0362));
#191 = CARTESIAN_POINT('', (-8.00000000000022, 0., -56.8138));
#192 = ADVANCED_FACE('', (#193), #204, .T.);
#193 = FACE_OUTER_BOUND('', #194, .T.);
#194 = EDGE_LOOP('', (#195, #201, #202, #203));
#195 = ORIENTED_EDGE('', *, *, #196, .T.);
#196 = EDGE_CURVE('', #152, #133, #197, .T.);
#197 = LINE('', #198, #199);
#198 = CARTESIAN_POINT('', (-8.00000000000022, -1.98525406640203E-15, -91.85));
#199 = VECTOR('', #200, 0.212132034355972);
#200 = DIRECTION('', (0.150000000000005, 1.97210668847872E-15, -0.150000000000006));
#201 = ORIENTED_EDGE('', *, *, #132, .F.);
#202 = ORIENTED_EDGE('', *, *, #196, .F.);
#203 = ORIENTED_EDGE('', *, *, #159, .F.);
#204 = (
   BOUNDED_SURFACE ()
   B_SPLINE_SURFACE (2, 1, ((#205, #206), (#207, #208), (#209, #210), (#211, #212), (#213, #214), (#215, #216), (#217, #218), (#219, #220), (#221, #222)), .UNSPECIFIED., .T., .F., .U.)
   B_SPLINE_SURFACE_WITH_KNOTS ((3, 2, 2, 2, 3), (2, 2), (0., 0.25, 0.5, 0.75, 1.), (0., 1.), .UNSPECIFIED.)
   GEOMETRIC_REPRESENTATION_ITEM ()
   RATIONAL_B_SPLINE_SURFACE (((1., 1.), (0.707106781186548, 0.707106781186548), (1., 1.), (0.707106781186548, 0.707106781186548), (1., 1.), (0.707106781186548, 0.707106781186548), (1., 1.), (0.707106781186548, 0.707106781186548), (1., 1.)))
   REPRESENTATION_ITEM ('')
   SURFACE ()
);
#205 = CARTESIAN_POINT('', (-7.84900000000021, 0., -92.001));
#206 = CARTESIAN_POINT('', (-8.00100000000023, -1.99840144432528E-15, -91.849));
#207 = CARTESIAN_POINT('', (-7.84900000000021, -7.84900000000021, -92.0010000000001));
#208 = CARTESIAN_POINT('', (-8.00100000000023, -8.00100000000023, -91.8490000000001));
#209 = CARTESIAN_POINT('', (3.24299056527847E-16, -7.84900000000021, -92.0010000000001));
#210 = CARTESIAN_POINT('', (3.14991740854327E-16, -8.00100000000023, -91.8490000000001));
#211 = CARTESIAN_POINT('', (7.84900000000021, -7.84900000000021, -92.0010000000001));
#212 = CARTESIAN_POINT('', (8.00100000000023, -8.00100000000023, -91.8490000000001));
#213 = CARTESIAN_POINT('', (7.84900000000021, -9.61225272650783E-16, -92.001));
#214 = CARTESIAN_POINT('', (8.00100000000023, -2.97824134832311E-15, -91.849));
#215 = CARTESIAN_POINT('', (7.84900000000021, 7.84900000000021, -92.0009999999999));
#216 = CARTESIAN_POINT('', (8.00100000000023, 8.00100000000022, -91.8489999999999));
#217 = CARTESIAN_POINT('', (2.24674960182941E-15, 7.84900000000021, -92.0009999999999));
#218 = CARTESIAN_POINT('', (2.27467154884997E-15, 8.00100000000022, -91.8489999999999));
#219 = CARTESIAN_POINT('', (-7.8490000000002, 7.84900000000021, -92.0009999999999));
#220 = CARTESIAN_POINT('', (-8.00100000000022, 8.00100000000023, -91.8489999999999));
#221 = CARTESIAN_POINT('', (-7.84900000000021, 0., -92.001));
#222 = CARTESIAN_POINT('', (-8.00100000000023, -1.99840144432528E-15, -91.849));
#223 = ADVANCED_FACE('', (#224), #227, .T.);
#224 = FACE_OUTER_BOUND('', #225, .T.);
#225 = EDGE_LOOP('', (#226));
#226 = ORIENTED_EDGE('', *, *, #167, .T.);
#227 = B_SPLINE_SURFACE_WITH_KNOTS('', 1, 1, ((#228, #229), (#230, #231)), .UNSPECIFIED., .F., .F., .U., (2, 2), (2, 2), (-8.00100000000022, 8.00100000000022), (-8.00100000000022, 8.00100000000022), .UNSPECIFIED.);
#228 = CARTESIAN_POINT('', (-8.00100000000022, -8.00100000000022, -60.));
#229 = CARTESIAN_POINT('', (-8.00100000000022, 8.00100000000022, -60.));
#230 = CARTESIAN_POINT('', (8.00100000000022, -8.00100000000022, -60.));
#231 = CARTESIAN_POINT('', (8.00100000000022, 8.00100000000022, -60.));
#232 = PRESENTATION_STYLE_ASSIGNMENT((#233));
#233 = SURFACE_STYLE_USAGE(.POSITIVE., #234);
#234 = SURFACE_SIDE_STYLE('', (#235));
#235 = SURFACE_STYLE_FILL_AREA(#236);
#236 = FILL_AREA_STYLE('', (#237));
#237 = FILL_AREA_STYLE_COLOUR('', #238);
#238 = COLOUR_RGB('', 0.8, 0.8, 0.8);
#239 = STYLED_ITEM('', (#232), #126);
#240 = TRIMMED_CURVE('cutting part line', #241, (#245), (#246), .T., .CARTESIAN.);
#241 = LINE('', #242, #243);
#242 = CARTESIAN_POINT('', (-2.77555756156289E-16, 0., -92.));
#243 = VECTOR('', #244, 7.85000000000022);
#244 = DIRECTION('', (7.85000000000022, 0., 0.));
#245 = CARTESIAN_POINT('', (-2.77555756156289E-16, 0., -92.));
#246 = CARTESIAN_POINT('', (7.85000000000022, 0., -92.));
#247 = TRIMMED_CURVE('cutting part line', #248, (#252), (#253), .T., .CARTESIAN.);
#248 = LINE('', #249, #250);
#249 = CARTESIAN_POINT('', (7.85000000000016, 9.02270496627046E-19, -92.0000000000001));
#250 = VECTOR('', #251, 0.212132034356255);
#251 = DIRECTION('', (0.150000000000206, -1.97180632708062E-15, 0.150000000000205));
#252 = CARTESIAN_POINT('', (7.85000000000016, 9.02270496627046E-19, -92.0000000000001));
#253 = CARTESIAN_POINT('', (8.00000000000036, -1.97090405658399E-15, -91.8499999999999));
#254 = TRIMMED_CURVE('cutting part line', #255, (#259), (#260), .T., .CARTESIAN.);
#255 = LINE('', #256, #257);
#256 = CARTESIAN_POINT('', (8.00000000000022, 0., -91.85));
#257 = VECTOR('', #258, 31.85);
#258 = DIRECTION('', (0., 0., 31.85));
#259 = CARTESIAN_POINT('', (8.00000000000022, 0., -91.85));
#260 = CARTESIAN_POINT('', (8.00000000000022, 0., -60.));
#261 = TRIMMED_CURVE('cutting part line', #262, (#266), (#267), .T., .CARTESIAN.);
#262 = LINE('', #263, #264);
#263 = CARTESIAN_POINT('', (8.00000000000022, 0., -60.));
#264 = VECTOR('', #265, 8.00000000000022);
#265 = DIRECTION('', (-8.00000000000022, 0., 0.));
#266 = CARTESIAN_POINT('', (8.00000000000022, 0., -60.));
#267 = CARTESIAN_POINT('', (-2.77555756156289E-17, 0., -60.));
#268 = TRIMMED_CURVE('cutting part line', #269, (#273), (#274), .T., .CARTESIAN.);
#269 = LINE('', #270, #271);
#270 = CARTESIAN_POINT('', (0., 0., -60.));
#271 = VECTOR('', #272, 32.);
#272 = DIRECTION('', (0., 0., -32.));
#273 = CARTESIAN_POINT('', (0., 0., -60.));
#274 = CARTESIAN_POINT('', (0., 0., -92.));
#275 = COMPOSITE_CURVE('cutting part line', (#276, #277, #278, #279, #280), .U.);
#276 = COMPOSITE_CURVE_SEGMENT(.CONTINUOUS., .T., #240);
#277 = COMPOSITE_CURVE_SEGMENT(.CONTINUOUS., .T., #247);
#278 = COMPOSITE_CURVE_SEGMENT(.CONTINUOUS., .T., #254);
#279 = COMPOSITE_CURVE_SEGMENT(.CONTINUOUS., .T., #261);
#280 = COMPOSITE_CURVE_SEGMENT(.CONTINUOUS., .T., #268);
#281 = GEOMETRIC_SET('', (#275, #324));
#282 = PRESENTATION_STYLE_ASSIGNMENT((#283));
#283 = CURVE_STYLE('', #285, POSITIVE_LENGTH_MEASURE(1.E-6), #284);
#284 = COLOUR_RGB('', 0., 0., 1.);
#285 = DRAUGHTING_PRE_DEFINED_CURVE_FONT('continuous');
#286 = STYLED_ITEM('', (#282), #275);
#287 = PRESENTATION_STYLE_ASSIGNMENT((#288));
#288 = CURVE_STYLE('', #290, POSITIVE_LENGTH_MEASURE(1.E-6), #289);
#289 = COLOUR_RGB('', 0., 0., 1.);
#290 = DRAUGHTING_PRE_DEFINED_CURVE_FONT('continuous');
#291 = OVER_RIDING_STYLED_ITEM('', (#287), #240, #286);
#292 = PRESENTATION_STYLE_ASSIGNMENT((#293));
#293 = CURVE_STYLE('', #295, POSITIVE_LENGTH_MEASURE(1.E-6), #294);
#294 = COLOUR_RGB('', 0., 0., 1.);
#295 = DRAUGHTING_PRE_DEFINED_CURVE_FONT('continuous');
#296 = OVER_RIDING_STYLED_ITEM('', (#292), #247, #286);
#297 = PRESENTATION_STYLE_ASSIGNMENT((#298));
#298 = CURVE_STYLE('', #300, POSITIVE_LENGTH_MEASURE(1.E-6), #299);
#299 = COLOUR_RGB('', 0., 0., 1.);
#300 = DRAUGHTING_PRE_DEFINED_CURVE_FONT('continuous');
#301 = OVER_RIDING_STYLED_ITEM('', (#297), #254, #286);
#302 = PRESENTATION_STYLE_ASSIGNMENT((#303));
#303 = CURVE_STYLE('', #305, POSITIVE_LENGTH_MEASURE(1.E-6), #304);
#304 = COLOUR_RGB('', 0., 0., 1.);
#305 = DRAUGHTING_PRE_DEFINED_CURVE_FONT('continuous');
#306 = OVER_RIDING_STYLED_ITEM('', (#302), #261, #286);
#307 = PRESENTATION_STYLE_ASSIGNMENT((#308));
#308 = CURVE_STYLE('', #310, POSITIVE_LENGTH_MEASURE(1.E-6), #309);
#309 = COLOUR_RGB('', 0., 0., 1.);
#310 = DRAUGHTING_PRE_DEFINED_CURVE_FONT('continuous');
#311 = OVER_RIDING_STYLED_ITEM('', (#307), #268, #286);
#312 = AXIS2_PLACEMENT_3D('MCS', #313, #314, #315);
#313 = CARTESIAN_POINT('', (0., 0., -48.));
#314 = DIRECTION('', (0., 0., 1.));
#315 = DIRECTION('', (1., 0., 0.));
#316 = AXIS2_PLACEMENT_3D('PCS', #317, #318, #319);
#317 = CARTESIAN_POINT('', (0., 0., 0.));
#318 = DIRECTION('', (0., 0., 1.));
#319 = DIRECTION('', (1., 0., 0.));
#320 = AXIS2_PLACEMENT_3D('CIP', #321, #322, #323);
#321 = CARTESIAN_POINT('', (0., 0., -92.));
#322 = DIRECTION('', (0., 0., 1.));
#323 = DIRECTION('', (1., 0., 0.));
#324 = CARTESIAN_POINT('CRP', (8.00000000000036, 0., -92.0000000000001));
#325 = (
   GEOMETRIC_REPRESENTATION_CONTEXT (3)
   GLOBAL_UNCERTAINTY_ASSIGNED_CONTEXT ((#327))
   GLOBAL_UNIT_ASSIGNED_CONTEXT ((#326, #328, #329))
   REPRESENTATION_CONTEXT ('', '3D')
);
#326 = (
   LENGTH_UNIT ()
   NAMED_UNIT (*)
   SI_UNIT (.MILLI., .METRE.)
);
#327 = UNCERTAINTY_MEASURE_WITH_UNIT(LENGTH_MEASURE(1.E-6), #326, 'DISTANCE_ACCURACY_VALUE', '');
#328 = (
   NAMED_UNIT (*)
   SI_UNIT ($, .STERADIAN.)
   SOLID_ANGLE_UNIT ()
);
#329 = (
   NAMED_UNIT (*)
   PLANE_ANGLE_UNIT ()
   SI_UNIT ($, .RADIAN.)
);
#330 = SHAPE_REPRESENTATION('', (), #325);
#331 = PRODUCT_DEFINITION_SHAPE('', '', #332);
#332 = PRODUCT_DEFINITION('', '', #335, #339);
#333 = APPLICATION_CONTEXT('configuration controlled 3D designs of mechanical parts and assemblies');
#334 = APPLICATION_PROTOCOL_DEFINITION('International Standard', 'automotive_design', 2002, #333);
#335 = PRODUCT_DEFINITION_FORMATION_WITH_SPECIFIED_SOURCE('', '', #336, .NOT_KNOWN.);
#336 = PRODUCT('R215.34C16050-BC32P-634145279635762950-1', 'R215.34C16050-BC32P 1640', '', (#337));
#337 = PRODUCT_CONTEXT('', #333, 'mechanical');
#338 = PRODUCT_RELATED_PRODUCT_CATEGORY('detail', '', (#336));
#339 = PRODUCT_DEFINITION_CONTEXT('part definition', #333, 'design');
#340 = SHAPE_DEFINITION_REPRESENTATION(#331, #330);
#341 = CONSTRUCTIVE_GEOMETRY_REPRESENTATION('supplemental geometry', (#312, #316, #320), #325);
#342 = CONSTRUCTIVE_GEOMETRY_REPRESENTATION_RELATIONSHIP('', '', #330, #341);
#343 = SHAPE_REPRESENTATION_RELATIONSHIP('', '', #330, #344);
#344 = SHAPE_REPRESENTATION('', (#281), #325);
#345 = SHAPE_REPRESENTATION_RELATIONSHIP('', '', #330, #346);
#346 = ADVANCED_BREP_SHAPE_REPRESENTATION('', (#1, #126), #325);
ENDSEC;
END-ISO-10303-21;
