ISO-10303-21;
HEADER;
/* Generated by software containing ST-Developer
 * from STEP Tools, Inc. (www.steptools.com) 
 */
/* OPTION: using custom schema-name function */

FILE_DESCRIPTION(
/* description */ ('3-D model version:1'),
/* implementation_level */ '2;1');

FILE_NAME(
/* name */ 'N331.32-250S50QM20.50',
/* time_stamp */ '2013-08-27T11:24:34+02:00',
/* author */ ('CappDp'),
/* organization */ ('AB Sandvik Coromant'),
/* preprocessor_version */ 'ST-DEVELOPER v11',
/* originating_system */ 'SIEMENS UGS NX 6.0',
/* authorisation */ '');

FILE_SCHEMA (('AP203_CONFIGURATION_CONTROLLED_3D_DESIGN_OF_MECHANICAL_PARTS_AND_ASSEMBLIES_MIM_LF'));
ENDSEC;

DATA;
#10=SHAPE_REPRESENTATION_RELATIONSHIP('None',
'relationship between 8856_2_3D-None and 8856_2_3D-None',#94,#11);
#11=ADVANCED_BREP_SHAPE_REPRESENTATION('8856_2_3D-None',(#112,#113),#641);
#12=CC_DESIGN_APPROVAL(#24,(#82));
#13=CC_DESIGN_APPROVAL(#25,(#84));
#14=CC_DESIGN_APPROVAL(#26,(#31));
#15=APPROVAL_PERSON_ORGANIZATION(#69,#24,#18);
#16=APPROVAL_PERSON_ORGANIZATION(#70,#25,#19);
#17=APPROVAL_PERSON_ORGANIZATION(#71,#26,#20);
#18=APPROVAL_ROLE('approver');
#19=APPROVAL_ROLE('approver');
#20=APPROVAL_ROLE('approver');
#21=APPROVAL_DATE_TIME(#39,#24);
#22=APPROVAL_DATE_TIME(#40,#25);
#23=APPROVAL_DATE_TIME(#41,#26);
#24=APPROVAL(#27,' ');
#25=APPROVAL(#28,' ');
#26=APPROVAL(#29,' ');
#27=APPROVAL_STATUS('not_yet_approved');
#28=APPROVAL_STATUS('not_yet_approved');
#29=APPROVAL_STATUS('not_yet_approved');
#30=CC_DESIGN_SECURITY_CLASSIFICATION(#31,(#84));
#31=SECURITY_CLASSIFICATION(' ',' ',#32);
#32=SECURITY_CLASSIFICATION_LEVEL('confidential');
#33=CC_DESIGN_DATE_AND_TIME_ASSIGNMENT(#37,#35,(#82));
#34=CC_DESIGN_DATE_AND_TIME_ASSIGNMENT(#38,#36,(#31));
#35=DATE_TIME_ROLE('creation_date');
#36=DATE_TIME_ROLE('classification_date');
#37=DATE_AND_TIME(#52,#42);
#38=DATE_AND_TIME(#53,#43);
#39=DATE_AND_TIME(#54,#44);
#40=DATE_AND_TIME(#55,#45);
#41=DATE_AND_TIME(#56,#46);
#42=LOCAL_TIME(0,0,0.,#47);
#43=LOCAL_TIME(0,0,0.,#48);
#44=LOCAL_TIME(0,0,0.,#49);
#45=LOCAL_TIME(0,0,0.,#50);
#46=LOCAL_TIME(0,0,0.,#51);
#47=COORDINATED_UNIVERSAL_TIME_OFFSET(0,0,.BEHIND.);
#48=COORDINATED_UNIVERSAL_TIME_OFFSET(0,0,.BEHIND.);
#49=COORDINATED_UNIVERSAL_TIME_OFFSET(0,0,.BEHIND.);
#50=COORDINATED_UNIVERSAL_TIME_OFFSET(0,0,.BEHIND.);
#51=COORDINATED_UNIVERSAL_TIME_OFFSET(0,0,.BEHIND.);
#52=CALENDAR_DATE(0,1,1);
#53=CALENDAR_DATE(0,1,1);
#54=CALENDAR_DATE(0,1,1);
#55=CALENDAR_DATE(0,1,1);
#56=CALENDAR_DATE(0,1,1);
#57=CC_DESIGN_PERSON_AND_ORGANIZATION_ASSIGNMENT(#65,#61,(#82,#84));
#58=CC_DESIGN_PERSON_AND_ORGANIZATION_ASSIGNMENT(#66,#62,(#86));
#59=CC_DESIGN_PERSON_AND_ORGANIZATION_ASSIGNMENT(#67,#63,(#84));
#60=CC_DESIGN_PERSON_AND_ORGANIZATION_ASSIGNMENT(#68,#64,(#31));
#61=PERSON_AND_ORGANIZATION_ROLE('creator');
#62=PERSON_AND_ORGANIZATION_ROLE('design_owner');
#63=PERSON_AND_ORGANIZATION_ROLE('design_supplier');
#64=PERSON_AND_ORGANIZATION_ROLE('classification_officer');
#65=PERSON_AND_ORGANIZATION(#79,#72);
#66=PERSON_AND_ORGANIZATION(#79,#73);
#67=PERSON_AND_ORGANIZATION(#79,#74);
#68=PERSON_AND_ORGANIZATION(#79,#75);
#69=PERSON_AND_ORGANIZATION(#79,#76);
#70=PERSON_AND_ORGANIZATION(#79,#77);
#71=PERSON_AND_ORGANIZATION(#79,#78);
#72=ORGANIZATION(' ',' ',' ');
#73=ORGANIZATION(' ',' ',' ');
#74=ORGANIZATION(' ',' ',' ');
#75=ORGANIZATION(' ',' ',' ');
#76=ORGANIZATION(' ',' ',' ');
#77=ORGANIZATION(' ',' ',' ');
#78=ORGANIZATION(' ',' ',' ');
#79=PERSON(' ',' ',' ',(' '),$,$);
#80=SHAPE_DEFINITION_REPRESENTATION(#81,#94);
#81=PRODUCT_DEFINITION_SHAPE('','',#82);
#82=PRODUCT_DEFINITION(' ','',#84,#83);
#83=DESIGN_CONTEXT('',#93,'design');
#84=PRODUCT_DEFINITION_FORMATION_WITH_SPECIFIED_SOURCE(' ',' ',#86,.NOT_KNOWN.);
#85=PRODUCT_RELATED_PRODUCT_CATEGORY('detail','',(#86));
#86=PRODUCT('8856_2_3D','8856_2_3D',' ',(#91));
#87=PRODUCT_CATEGORY_RELATIONSHIP(' ',' ',#89,#90);
#88=PRODUCT_CATEGORY_RELATIONSHIP('','',#90,#85);
#89=PRODUCT_CATEGORY('part',' ');
#90=PRODUCT_CATEGORY(' ','');
#91=MECHANICAL_CONTEXT(' ',#93,'mechanical');
#92=APPLICATION_PROTOCOL_DEFINITION('international standard',
'config_control_design',1994,#93);
#93=APPLICATION_CONTEXT(
'configuration controlled 3D designs of mechanical parts and assemblies');
#94=SHAPE_REPRESENTATION('8856_2_3D-None',(#402),#641);
#95=PRESENTATION_LAYER_ASSIGNMENT('1','Layer 1',(#112,#113));
#96=STYLED_ITEM('',(#98),#112);
#97=STYLED_ITEM('',(#99),#113);
#98=PRESENTATION_STYLE_ASSIGNMENT((#100));
#99=PRESENTATION_STYLE_ASSIGNMENT((#101));
#100=SURFACE_STYLE_USAGE(.BOTH.,#102);
#101=SURFACE_STYLE_USAGE(.BOTH.,#103);
#102=SURFACE_SIDE_STYLE('',(#104));
#103=SURFACE_SIDE_STYLE('',(#105));
#104=SURFACE_STYLE_FILL_AREA(#106);
#105=SURFACE_STYLE_FILL_AREA(#107);
#106=FILL_AREA_STYLE('',(#108));
#107=FILL_AREA_STYLE('',(#109));
#108=FILL_AREA_STYLE_COLOUR('',#110);
#109=FILL_AREA_STYLE_COLOUR('',#111);
#110=COLOUR_RGB('TLS_NOCUT',0.499992370489052,0.499992370489052,0.499992370489052);
#111=COLOUR_RGB('TLS_CUT',0.8,0.8,0.8);
#112=MANIFOLD_SOLID_BREP('NOCUT',#114);
#113=MANIFOLD_SOLID_BREP('CUT',#115);
#114=CLOSED_SHELL('',(#134,#135,#136,#137,#138,#139,#140,#141,#142,#143,
#144,#145,#146,#147,#148,#149,#150,#151,#152,#153));
#115=CLOSED_SHELL('',(#154,#155,#156,#157,#158,#159));
#116=TOROIDAL_SURFACE('',#411,35.3,0.8);
#117=TOROIDAL_SURFACE('',#419,121.2979,1.);
#118=TOROIDAL_SURFACE('',#430,35.3,0.8);
#119=TOROIDAL_SURFACE('',#437,121.2979,1.);
#120=TOROIDAL_SURFACE('',#445,124.2,0.800000000000001);
#121=TOROIDAL_SURFACE('',#449,124.2,0.799999999999997);
#122=CYLINDRICAL_SURFACE('',#409,34.5);
#123=CYLINDRICAL_SURFACE('',#421,122.2979);
#124=CYLINDRICAL_SURFACE('',#428,34.5);
#125=CYLINDRICAL_SURFACE('',#441,25.00625);
#126=CYLINDRICAL_SURFACE('',#447,125.);
#127=CYLINDRICAL_SURFACE('',#453,35.5);
#128=CONICAL_SURFACE('',#407,34.5,45.0000000000002);
#129=CONICAL_SURFACE('',#415,84.5,83.1572265873691);
#130=CONICAL_SURFACE('',#426,33.9,45.0000000000002);
#131=CONICAL_SURFACE('',#434,79.5,83.1572265873691);
#132=CONICAL_SURFACE('',#439,25.00625,44.8803847676959);
#133=CONICAL_SURFACE('',#442,26.5,44.880384767696);
#134=ADVANCED_FACE('',(#168,#169),#160,.T.);
#135=ADVANCED_FACE('',(#170,#171),#128,.T.);
#136=ADVANCED_FACE('',(#172,#173),#122,.T.);
#137=ADVANCED_FACE('',(#174,#175),#116,.F.);
#138=ADVANCED_FACE('',(#176,#177),#161,.T.);
#139=ADVANCED_FACE('',(#178,#179),#129,.F.);
#140=ADVANCED_FACE('',(#180,#181),#162,.T.);
#141=ADVANCED_FACE('',(#182,#183),#117,.T.);
#142=ADVANCED_FACE('',(#184,#185),#123,.T.);
#143=ADVANCED_FACE('',(#186,#187),#163,.T.);
#144=ADVANCED_FACE('',(#188,#189),#130,.T.);
#145=ADVANCED_FACE('',(#190,#191),#124,.T.);
#146=ADVANCED_FACE('',(#192,#193),#118,.F.);
#147=ADVANCED_FACE('',(#194,#195),#164,.T.);
#148=ADVANCED_FACE('',(#196,#197),#131,.F.);
#149=ADVANCED_FACE('',(#198,#199),#165,.T.);
#150=ADVANCED_FACE('',(#200,#201),#119,.T.);
#151=ADVANCED_FACE('',(#202,#203),#132,.F.);
#152=ADVANCED_FACE('',(#204,#205),#125,.F.);
#153=ADVANCED_FACE('',(#206,#207),#133,.F.);
#154=ADVANCED_FACE('',(#208,#209),#120,.T.);
#155=ADVANCED_FACE('',(#210,#211),#126,.T.);
#156=ADVANCED_FACE('',(#212,#213),#121,.T.);
#157=ADVANCED_FACE('',(#214,#215),#166,.F.);
#158=ADVANCED_FACE('',(#216,#217),#127,.F.);
#159=ADVANCED_FACE('',(#218,#219),#167,.F.);
#160=PLANE('',#405);
#161=PLANE('',#413);
#162=PLANE('',#417);
#163=PLANE('',#424);
#164=PLANE('',#432);
#165=PLANE('',#436);
#166=PLANE('',#451);
#167=PLANE('',#454);
#168=FACE_BOUND('',#220,.T.);
#169=FACE_BOUND('',#221,.T.);
#170=FACE_BOUND('',#222,.T.);
#171=FACE_BOUND('',#223,.T.);
#172=FACE_BOUND('',#224,.T.);
#173=FACE_BOUND('',#225,.T.);
#174=FACE_BOUND('',#226,.T.);
#175=FACE_BOUND('',#227,.T.);
#176=FACE_BOUND('',#228,.T.);
#177=FACE_BOUND('',#229,.T.);
#178=FACE_BOUND('',#230,.T.);
#179=FACE_BOUND('',#231,.T.);
#180=FACE_BOUND('',#232,.T.);
#181=FACE_BOUND('',#233,.T.);
#182=FACE_BOUND('',#234,.T.);
#183=FACE_BOUND('',#235,.T.);
#184=FACE_BOUND('',#236,.T.);
#185=FACE_BOUND('',#237,.T.);
#186=FACE_BOUND('',#238,.T.);
#187=FACE_BOUND('',#239,.T.);
#188=FACE_BOUND('',#240,.T.);
#189=FACE_BOUND('',#241,.T.);
#190=FACE_BOUND('',#242,.T.);
#191=FACE_BOUND('',#243,.T.);
#192=FACE_BOUND('',#244,.T.);
#193=FACE_BOUND('',#245,.T.);
#194=FACE_BOUND('',#246,.T.);
#195=FACE_BOUND('',#247,.T.);
#196=FACE_BOUND('',#248,.T.);
#197=FACE_BOUND('',#249,.T.);
#198=FACE_BOUND('',#250,.T.);
#199=FACE_BOUND('',#251,.T.);
#200=FACE_BOUND('',#252,.T.);
#201=FACE_BOUND('',#253,.T.);
#202=FACE_BOUND('',#254,.T.);
#203=FACE_BOUND('',#255,.T.);
#204=FACE_BOUND('',#256,.T.);
#205=FACE_BOUND('',#257,.T.);
#206=FACE_BOUND('',#258,.T.);
#207=FACE_BOUND('',#259,.T.);
#208=FACE_BOUND('',#260,.T.);
#209=FACE_BOUND('',#261,.T.);
#210=FACE_BOUND('',#262,.T.);
#211=FACE_BOUND('',#263,.T.);
#212=FACE_BOUND('',#264,.T.);
#213=FACE_BOUND('',#265,.T.);
#214=FACE_BOUND('',#266,.T.);
#215=FACE_BOUND('',#267,.T.);
#216=FACE_BOUND('',#268,.T.);
#217=FACE_BOUND('',#269,.T.);
#218=FACE_BOUND('',#270,.T.);
#219=FACE_BOUND('',#271,.T.);
#220=EDGE_LOOP('',(#272));
#221=EDGE_LOOP('',(#273));
#222=EDGE_LOOP('',(#274));
#223=EDGE_LOOP('',(#275));
#224=EDGE_LOOP('',(#276));
#225=EDGE_LOOP('',(#277));
#226=EDGE_LOOP('',(#278));
#227=EDGE_LOOP('',(#279));
#228=EDGE_LOOP('',(#280));
#229=EDGE_LOOP('',(#281));
#230=EDGE_LOOP('',(#282));
#231=EDGE_LOOP('',(#283));
#232=EDGE_LOOP('',(#284));
#233=EDGE_LOOP('',(#285));
#234=EDGE_LOOP('',(#286));
#235=EDGE_LOOP('',(#287));
#236=EDGE_LOOP('',(#288));
#237=EDGE_LOOP('',(#289));
#238=EDGE_LOOP('',(#290));
#239=EDGE_LOOP('',(#291));
#240=EDGE_LOOP('',(#292));
#241=EDGE_LOOP('',(#293));
#242=EDGE_LOOP('',(#294));
#243=EDGE_LOOP('',(#295));
#244=EDGE_LOOP('',(#296));
#245=EDGE_LOOP('',(#297));
#246=EDGE_LOOP('',(#298));
#247=EDGE_LOOP('',(#299));
#248=EDGE_LOOP('',(#300));
#249=EDGE_LOOP('',(#301));
#250=EDGE_LOOP('',(#302));
#251=EDGE_LOOP('',(#303));
#252=EDGE_LOOP('',(#304));
#253=EDGE_LOOP('',(#305));
#254=EDGE_LOOP('',(#306));
#255=EDGE_LOOP('',(#307));
#256=EDGE_LOOP('',(#308));
#257=EDGE_LOOP('',(#309));
#258=EDGE_LOOP('',(#310));
#259=EDGE_LOOP('',(#311));
#260=EDGE_LOOP('',(#312));
#261=EDGE_LOOP('',(#313));
#262=EDGE_LOOP('',(#314));
#263=EDGE_LOOP('',(#315));
#264=EDGE_LOOP('',(#316));
#265=EDGE_LOOP('',(#317));
#266=EDGE_LOOP('',(#318));
#267=EDGE_LOOP('',(#319));
#268=EDGE_LOOP('',(#320));
#269=EDGE_LOOP('',(#321));
#270=EDGE_LOOP('',(#322));
#271=EDGE_LOOP('',(#323));
#272=ORIENTED_EDGE('',*,*,#350,.F.);
#273=ORIENTED_EDGE('',*,*,#351,.T.);
#274=ORIENTED_EDGE('',*,*,#350,.T.);
#275=ORIENTED_EDGE('',*,*,#352,.F.);
#276=ORIENTED_EDGE('',*,*,#352,.T.);
#277=ORIENTED_EDGE('',*,*,#353,.F.);
#278=ORIENTED_EDGE('',*,*,#353,.T.);
#279=ORIENTED_EDGE('',*,*,#354,.F.);
#280=ORIENTED_EDGE('',*,*,#354,.T.);
#281=ORIENTED_EDGE('',*,*,#355,.F.);
#282=ORIENTED_EDGE('',*,*,#355,.T.);
#283=ORIENTED_EDGE('',*,*,#356,.F.);
#284=ORIENTED_EDGE('',*,*,#356,.T.);
#285=ORIENTED_EDGE('',*,*,#357,.F.);
#286=ORIENTED_EDGE('',*,*,#358,.F.);
#287=ORIENTED_EDGE('',*,*,#357,.T.);
#288=ORIENTED_EDGE('',*,*,#358,.T.);
#289=ORIENTED_EDGE('',*,*,#359,.F.);
#290=ORIENTED_EDGE('',*,*,#360,.F.);
#291=ORIENTED_EDGE('',*,*,#361,.T.);
#292=ORIENTED_EDGE('',*,*,#362,.T.);
#293=ORIENTED_EDGE('',*,*,#361,.F.);
#294=ORIENTED_EDGE('',*,*,#363,.T.);
#295=ORIENTED_EDGE('',*,*,#362,.F.);
#296=ORIENTED_EDGE('',*,*,#364,.T.);
#297=ORIENTED_EDGE('',*,*,#363,.F.);
#298=ORIENTED_EDGE('',*,*,#365,.T.);
#299=ORIENTED_EDGE('',*,*,#364,.F.);
#300=ORIENTED_EDGE('',*,*,#366,.T.);
#301=ORIENTED_EDGE('',*,*,#365,.F.);
#302=ORIENTED_EDGE('',*,*,#367,.T.);
#303=ORIENTED_EDGE('',*,*,#366,.F.);
#304=ORIENTED_EDGE('',*,*,#367,.F.);
#305=ORIENTED_EDGE('',*,*,#359,.T.);
#306=ORIENTED_EDGE('',*,*,#360,.T.);
#307=ORIENTED_EDGE('',*,*,#368,.F.);
#308=ORIENTED_EDGE('',*,*,#368,.T.);
#309=ORIENTED_EDGE('',*,*,#369,.F.);
#310=ORIENTED_EDGE('',*,*,#369,.T.);
#311=ORIENTED_EDGE('',*,*,#351,.F.);
#312=ORIENTED_EDGE('',*,*,#370,.F.);
#313=ORIENTED_EDGE('',*,*,#371,.T.);
#314=ORIENTED_EDGE('',*,*,#372,.F.);
#315=ORIENTED_EDGE('',*,*,#370,.T.);
#316=ORIENTED_EDGE('',*,*,#373,.F.);
#317=ORIENTED_EDGE('',*,*,#372,.T.);
#318=ORIENTED_EDGE('',*,*,#374,.F.);
#319=ORIENTED_EDGE('',*,*,#373,.T.);
#320=ORIENTED_EDGE('',*,*,#375,.F.);
#321=ORIENTED_EDGE('',*,*,#374,.T.);
#322=ORIENTED_EDGE('',*,*,#371,.F.);
#323=ORIENTED_EDGE('',*,*,#375,.T.);
#324=VERTEX_POINT('',#563);
#325=VERTEX_POINT('',#565);
#326=VERTEX_POINT('',#568);
#327=VERTEX_POINT('',#571);
#328=VERTEX_POINT('',#574);
#329=VERTEX_POINT('',#577);
#330=VERTEX_POINT('',#580);
#331=VERTEX_POINT('',#583);
#332=VERTEX_POINT('',#586);
#333=VERTEX_POINT('',#589);
#334=VERTEX_POINT('',#592);
#335=VERTEX_POINT('',#594);
#336=VERTEX_POINT('',#597);
#337=VERTEX_POINT('',#600);
#338=VERTEX_POINT('',#603);
#339=VERTEX_POINT('',#606);
#340=VERTEX_POINT('',#609);
#341=VERTEX_POINT('',#612);
#342=VERTEX_POINT('',#616);
#343=VERTEX_POINT('',#619);
#344=VERTEX_POINT('',#623);
#345=VERTEX_POINT('',#625);
#346=VERTEX_POINT('',#628);
#347=VERTEX_POINT('',#631);
#348=VERTEX_POINT('',#634);
#349=VERTEX_POINT('',#637);
#350=EDGE_CURVE('',#324,#324,#376,.T.);
#351=EDGE_CURVE('',#325,#325,#377,.T.);
#352=EDGE_CURVE('',#326,#326,#378,.T.);
#353=EDGE_CURVE('',#327,#327,#379,.T.);
#354=EDGE_CURVE('',#328,#328,#380,.T.);
#355=EDGE_CURVE('',#329,#329,#381,.T.);
#356=EDGE_CURVE('',#330,#330,#382,.T.);
#357=EDGE_CURVE('',#331,#331,#383,.T.);
#358=EDGE_CURVE('',#332,#332,#384,.T.);
#359=EDGE_CURVE('',#333,#333,#385,.T.);
#360=EDGE_CURVE('',#334,#334,#386,.T.);
#361=EDGE_CURVE('',#335,#335,#387,.T.);
#362=EDGE_CURVE('',#336,#336,#388,.T.);
#363=EDGE_CURVE('',#337,#337,#389,.T.);
#364=EDGE_CURVE('',#338,#338,#390,.T.);
#365=EDGE_CURVE('',#339,#339,#391,.T.);
#366=EDGE_CURVE('',#340,#340,#392,.T.);
#367=EDGE_CURVE('',#341,#341,#393,.T.);
#368=EDGE_CURVE('',#342,#342,#394,.T.);
#369=EDGE_CURVE('',#343,#343,#395,.T.);
#370=EDGE_CURVE('',#344,#344,#396,.T.);
#371=EDGE_CURVE('',#345,#345,#397,.T.);
#372=EDGE_CURVE('',#346,#346,#398,.T.);
#373=EDGE_CURVE('',#347,#347,#399,.T.);
#374=EDGE_CURVE('',#348,#348,#400,.T.);
#375=EDGE_CURVE('',#349,#349,#401,.T.);
#376=CIRCLE('',#403,33.9);
#377=CIRCLE('',#404,26.5);
#378=CIRCLE('',#406,34.5);
#379=CIRCLE('',#408,34.5);
#380=CIRCLE('',#410,35.3);
#381=CIRCLE('',#412,79.5);
#382=CIRCLE('',#414,84.5);
#383=CIRCLE('',#416,121.2979);
#384=CIRCLE('',#418,122.2979);
#385=CIRCLE('',#420,122.2979);
#386=CIRCLE('',#422,26.5);
#387=CIRCLE('',#423,33.9);
#388=CIRCLE('',#425,34.5);
#389=CIRCLE('',#427,34.5);
#390=CIRCLE('',#429,35.3);
#391=CIRCLE('',#431,79.5);
#392=CIRCLE('',#433,84.5);
#393=CIRCLE('',#435,121.2979);
#394=CIRCLE('',#438,25.00625);
#395=CIRCLE('',#440,25.00625);
#396=CIRCLE('',#443,125.);
#397=CIRCLE('',#444,124.2);
#398=CIRCLE('',#446,125.);
#399=CIRCLE('',#448,124.2);
#400=CIRCLE('',#450,35.5);
#401=CIRCLE('',#452,35.5);
#402=AXIS2_PLACEMENT_3D('',#561,#455,#456);
#403=AXIS2_PLACEMENT_3D('',#562,#457,#458);
#404=AXIS2_PLACEMENT_3D('',#564,#459,#460);
#405=AXIS2_PLACEMENT_3D('',#566,#461,#462);
#406=AXIS2_PLACEMENT_3D('',#567,#463,#464);
#407=AXIS2_PLACEMENT_3D('',#569,#465,#466);
#408=AXIS2_PLACEMENT_3D('',#570,#467,#468);
#409=AXIS2_PLACEMENT_3D('',#572,#469,#470);
#410=AXIS2_PLACEMENT_3D('',#573,#471,#472);
#411=AXIS2_PLACEMENT_3D('',#575,#473,#474);
#412=AXIS2_PLACEMENT_3D('',#576,#475,#476);
#413=AXIS2_PLACEMENT_3D('',#578,#477,#478);
#414=AXIS2_PLACEMENT_3D('',#579,#479,#480);
#415=AXIS2_PLACEMENT_3D('',#581,#481,#482);
#416=AXIS2_PLACEMENT_3D('',#582,#483,#484);
#417=AXIS2_PLACEMENT_3D('',#584,#485,#486);
#418=AXIS2_PLACEMENT_3D('',#585,#487,#488);
#419=AXIS2_PLACEMENT_3D('',#587,#489,#490);
#420=AXIS2_PLACEMENT_3D('',#588,#491,#492);
#421=AXIS2_PLACEMENT_3D('',#590,#493,#494);
#422=AXIS2_PLACEMENT_3D('',#591,#495,#496);
#423=AXIS2_PLACEMENT_3D('',#593,#497,#498);
#424=AXIS2_PLACEMENT_3D('',#595,#499,#500);
#425=AXIS2_PLACEMENT_3D('',#596,#501,#502);
#426=AXIS2_PLACEMENT_3D('',#598,#503,#504);
#427=AXIS2_PLACEMENT_3D('',#599,#505,#506);
#428=AXIS2_PLACEMENT_3D('',#601,#507,#508);
#429=AXIS2_PLACEMENT_3D('',#602,#509,#510);
#430=AXIS2_PLACEMENT_3D('',#604,#511,#512);
#431=AXIS2_PLACEMENT_3D('',#605,#513,#514);
#432=AXIS2_PLACEMENT_3D('',#607,#515,#516);
#433=AXIS2_PLACEMENT_3D('',#608,#517,#518);
#434=AXIS2_PLACEMENT_3D('',#610,#519,#520);
#435=AXIS2_PLACEMENT_3D('',#611,#521,#522);
#436=AXIS2_PLACEMENT_3D('',#613,#523,#524);
#437=AXIS2_PLACEMENT_3D('',#614,#525,#526);
#438=AXIS2_PLACEMENT_3D('',#615,#527,#528);
#439=AXIS2_PLACEMENT_3D('',#617,#529,#530);
#440=AXIS2_PLACEMENT_3D('',#618,#531,#532);
#441=AXIS2_PLACEMENT_3D('',#620,#533,#534);
#442=AXIS2_PLACEMENT_3D('',#621,#535,#536);
#443=AXIS2_PLACEMENT_3D('',#622,#537,#538);
#444=AXIS2_PLACEMENT_3D('',#624,#539,#540);
#445=AXIS2_PLACEMENT_3D('',#626,#541,#542);
#446=AXIS2_PLACEMENT_3D('',#627,#543,#544);
#447=AXIS2_PLACEMENT_3D('',#629,#545,#546);
#448=AXIS2_PLACEMENT_3D('',#630,#547,#548);
#449=AXIS2_PLACEMENT_3D('',#632,#549,#550);
#450=AXIS2_PLACEMENT_3D('',#633,#551,#552);
#451=AXIS2_PLACEMENT_3D('',#635,#553,#554);
#452=AXIS2_PLACEMENT_3D('',#636,#555,#556);
#453=AXIS2_PLACEMENT_3D('',#638,#557,#558);
#454=AXIS2_PLACEMENT_3D('',#639,#559,#560);
#455=DIRECTION('',(0.,0.,1.));
#456=DIRECTION('',(1.,0.,0.));
#457=DIRECTION('',(0.,0.,-1.));
#458=DIRECTION('',(1.,0.,0.));
#459=DIRECTION('',(0.,0.,-1.));
#460=DIRECTION('',(1.,0.,0.));
#461=DIRECTION('',(0.,0.,1.));
#462=DIRECTION('',(-1.,0.,0.));
#463=DIRECTION('',(0.,0.,-1.));
#464=DIRECTION('',(1.,0.,0.));
#465=DIRECTION('',(0.,0.,-1.));
#466=DIRECTION('',(1.,0.,6.37211136656533E-017));
#467=DIRECTION('',(0.,0.,-1.));
#468=DIRECTION('',(1.,0.,0.));
#469=DIRECTION('',(0.,0.,-1.));
#470=DIRECTION('',(1.,0.,0.));
#471=DIRECTION('',(0.,0.,-1.));
#472=DIRECTION('',(1.,0.,0.));
#473=DIRECTION('',(0.,0.,-1.));
#474=DIRECTION('',(1.,0.,0.));
#475=DIRECTION('',(0.,0.,-1.));
#476=DIRECTION('',(1.,0.,0.));
#477=DIRECTION('',(0.,0.,1.));
#478=DIRECTION('',(-1.,0.,0.));
#479=DIRECTION('',(0.,0.,-1.));
#480=DIRECTION('',(1.,0.,0.));
#481=DIRECTION('',(0.,0.,1.));
#482=DIRECTION('',(-1.,0.,-5.35800705352489E-018));
#483=DIRECTION('',(0.,0.,-1.));
#484=DIRECTION('',(1.,0.,0.));
#485=DIRECTION('',(0.,0.,1.));
#486=DIRECTION('',(-1.,0.,0.));
#487=DIRECTION('',(0.,0.,-1.));
#488=DIRECTION('',(1.,0.,0.));
#489=DIRECTION('',(0.,0.,-1.));
#490=DIRECTION('',(1.,0.,0.));
#491=DIRECTION('',(0.,0.,-1.));
#492=DIRECTION('',(1.,0.,0.));
#493=DIRECTION('',(0.,0.,-1.));
#494=DIRECTION('',(1.,0.,0.));
#495=DIRECTION('',(0.,0.,-1.));
#496=DIRECTION('',(1.,0.,0.));
#497=DIRECTION('',(0.,0.,-1.));
#498=DIRECTION('',(1.,0.,0.));
#499=DIRECTION('',(0.,0.,-1.));
#500=DIRECTION('',(1.,0.,0.));
#501=DIRECTION('',(0.,0.,-1.));
#502=DIRECTION('',(1.,0.,0.));
#503=DIRECTION('',(0.,0.,1.));
#504=DIRECTION('',(-1.,0.,3.35568909174349E-017));
#505=DIRECTION('',(0.,0.,-1.));
#506=DIRECTION('',(1.,0.,0.));
#507=DIRECTION('',(0.,0.,-1.));
#508=DIRECTION('',(1.,0.,0.));
#509=DIRECTION('',(0.,0.,-1.));
#510=DIRECTION('',(1.,0.,0.));
#511=DIRECTION('',(0.,0.,-1.));
#512=DIRECTION('',(1.,0.,0.));
#513=DIRECTION('',(0.,0.,-1.));
#514=DIRECTION('',(1.,0.,0.));
#515=DIRECTION('',(0.,0.,-1.));
#516=DIRECTION('',(1.,0.,0.));
#517=DIRECTION('',(0.,0.,-1.));
#518=DIRECTION('',(1.,0.,0.));
#519=DIRECTION('',(0.,0.,-1.));
#520=DIRECTION('',(1.,0.,-1.15471816456645E-017));
#521=DIRECTION('',(0.,0.,-1.));
#522=DIRECTION('',(1.,0.,0.));
#523=DIRECTION('',(0.,0.,-1.));
#524=DIRECTION('',(1.,0.,0.));
#525=DIRECTION('',(0.,0.,-1.));
#526=DIRECTION('',(1.,0.,0.));
#527=DIRECTION('',(0.,0.,-1.));
#528=DIRECTION('',(1.,0.,0.));
#529=DIRECTION('',(0.,0.,-1.));
#530=DIRECTION('',(1.,0.,8.83641487100715E-017));
#531=DIRECTION('',(0.,0.,-1.));
#532=DIRECTION('',(1.,0.,0.));
#533=DIRECTION('',(0.,0.,-1.));
#534=DIRECTION('',(1.,0.,0.));
#535=DIRECTION('',(0.,0.,1.));
#536=DIRECTION('',(-1.,0.,0.));
#537=DIRECTION('',(0.,0.,1.));
#538=DIRECTION('',(1.,0.,0.));
#539=DIRECTION('',(0.,0.,1.));
#540=DIRECTION('',(1.,0.,0.));
#541=DIRECTION('',(0.,0.,1.));
#542=DIRECTION('',(1.,0.,0.));
#543=DIRECTION('',(0.,0.,1.));
#544=DIRECTION('',(1.,0.,0.));
#545=DIRECTION('',(0.,0.,1.));
#546=DIRECTION('',(1.,0.,0.));
#547=DIRECTION('',(0.,0.,1.));
#548=DIRECTION('',(1.,0.,0.));
#549=DIRECTION('',(0.,0.,1.));
#550=DIRECTION('',(1.,0.,0.));
#551=DIRECTION('',(0.,0.,1.));
#552=DIRECTION('',(1.,0.,0.));
#553=DIRECTION('',(0.,0.,-1.));
#554=DIRECTION('',(-1.,0.,0.));
#555=DIRECTION('',(0.,0.,1.));
#556=DIRECTION('',(1.,0.,0.));
#557=DIRECTION('',(0.,0.,1.));
#558=DIRECTION('',(1.,0.,0.));
#559=DIRECTION('',(0.,0.,1.));
#560=DIRECTION('',(1.,0.,0.));
#561=CARTESIAN_POINT('',(0.,0.,0.));
#562=CARTESIAN_POINT('',(0.,0.,0.));
#563=CARTESIAN_POINT('',(33.9,0.,0.));
#564=CARTESIAN_POINT('',(0.,0.,0.));
#565=CARTESIAN_POINT('',(26.5,0.,0.));
#566=CARTESIAN_POINT('',(0.,-33.9,0.));
#567=CARTESIAN_POINT('',(0.,0.,-0.6));
#568=CARTESIAN_POINT('',(34.5,0.,-0.6));
#569=CARTESIAN_POINT('',(0.,0.,-0.6));
#570=CARTESIAN_POINT('',(0.,0.,-2.4));
#571=CARTESIAN_POINT('',(34.5,0.,-2.4));
#572=CARTESIAN_POINT('',(0.,0.,-21.9));
#573=CARTESIAN_POINT('',(0.,0.,-3.2));
#574=CARTESIAN_POINT('',(35.3,0.,-3.2));
#575=CARTESIAN_POINT('',(0.,0.,-2.4));
#576=CARTESIAN_POINT('',(0.,0.,-3.2));
#577=CARTESIAN_POINT('',(79.5,0.,-3.2));
#578=CARTESIAN_POINT('',(0.,-79.5,-3.2));
#579=CARTESIAN_POINT('',(0.,0.,-2.6));
#580=CARTESIAN_POINT('',(84.5,0.,-2.6));
#581=CARTESIAN_POINT('',(0.,0.,-2.6));
#582=CARTESIAN_POINT('',(0.,0.,-2.6));
#583=CARTESIAN_POINT('',(121.2979,0.,-2.6));
#584=CARTESIAN_POINT('',(0.,-121.2979,-2.6));
#585=CARTESIAN_POINT('',(0.,0.,-3.6));
#586=CARTESIAN_POINT('',(122.2979,0.,-3.6));
#587=CARTESIAN_POINT('',(0.,0.,-3.6));
#588=CARTESIAN_POINT('',(0.,0.,-20.9));
#589=CARTESIAN_POINT('',(122.2979,0.,-20.9));
#590=CARTESIAN_POINT('',(0.,0.,-21.9));
#591=CARTESIAN_POINT('',(0.,0.,-24.5));
#592=CARTESIAN_POINT('',(26.5,0.,-24.5));
#593=CARTESIAN_POINT('',(0.,0.,-24.5));
#594=CARTESIAN_POINT('',(33.9,0.,-24.5));
#595=CARTESIAN_POINT('',(0.,-26.5,-24.5));
#596=CARTESIAN_POINT('',(0.,0.,-23.9));
#597=CARTESIAN_POINT('',(34.5,0.,-23.9));
#598=CARTESIAN_POINT('',(0.,0.,-24.5));
#599=CARTESIAN_POINT('',(0.,0.,-22.1));
#600=CARTESIAN_POINT('',(34.5,0.,-22.1));
#601=CARTESIAN_POINT('',(0.,0.,-21.9));
#602=CARTESIAN_POINT('',(0.,0.,-21.3));
#603=CARTESIAN_POINT('',(35.3,0.,-21.3));
#604=CARTESIAN_POINT('',(0.,0.,-22.1));
#605=CARTESIAN_POINT('',(0.,0.,-21.3));
#606=CARTESIAN_POINT('',(79.5,0.,-21.3));
#607=CARTESIAN_POINT('',(0.,-35.3,-21.3));
#608=CARTESIAN_POINT('',(0.,0.,-21.9));
#609=CARTESIAN_POINT('',(84.5,0.,-21.9));
#610=CARTESIAN_POINT('',(0.,0.,-21.3));
#611=CARTESIAN_POINT('',(0.,0.,-21.9));
#612=CARTESIAN_POINT('',(121.2979,0.,-21.9));
#613=CARTESIAN_POINT('',(0.,-84.5,-21.9));
#614=CARTESIAN_POINT('',(0.,0.,-20.9));
#615=CARTESIAN_POINT('',(0.,0.,-23.));
#616=CARTESIAN_POINT('',(25.00625,0.,-23.));
#617=CARTESIAN_POINT('',(0.,0.,-23.));
#618=CARTESIAN_POINT('',(0.,0.,-1.5));
#619=CARTESIAN_POINT('',(25.00625,0.,-1.5));
#620=CARTESIAN_POINT('',(0.,0.,-21.9));
#621=CARTESIAN_POINT('',(0.,0.,0.));
#622=CARTESIAN_POINT('',(0.,0.,-21.7));
#623=CARTESIAN_POINT('',(125.,0.,-21.7));
#624=CARTESIAN_POINT('',(0.,0.,-22.5));
#625=CARTESIAN_POINT('',(124.2,0.,-22.5));
#626=CARTESIAN_POINT('',(0.,0.,-21.7));
#627=CARTESIAN_POINT('',(0.,0.,-2.8));
#628=CARTESIAN_POINT('',(125.,0.,-2.8));
#629=CARTESIAN_POINT('',(0.,0.,66.2952357642815));
#630=CARTESIAN_POINT('',(0.,0.,-2.));
#631=CARTESIAN_POINT('',(124.2,0.,-2.));
#632=CARTESIAN_POINT('',(0.,0.,-2.8));
#633=CARTESIAN_POINT('',(0.,0.,-2.));
#634=CARTESIAN_POINT('',(35.5,0.,-2.));
#635=CARTESIAN_POINT('',(-124.2,0.,-2.));
#636=CARTESIAN_POINT('',(0.,0.,-22.5));
#637=CARTESIAN_POINT('',(35.5,0.,-22.5));
#638=CARTESIAN_POINT('',(0.,0.,66.2952357642815));
#639=CARTESIAN_POINT('',(-35.5,0.,-22.5));
#640=MECHANICAL_DESIGN_GEOMETRIC_PRESENTATION_REPRESENTATION('',(#96,#97),
#641);
#641=(
GEOMETRIC_REPRESENTATION_CONTEXT(3)
GLOBAL_UNCERTAINTY_ASSIGNED_CONTEXT((#642))
GLOBAL_UNIT_ASSIGNED_CONTEXT((#648,#644,#643))
REPRESENTATION_CONTEXT('8856_2_3D','TOP_LEVEL_ASSEMBLY_PART')
);
#642=UNCERTAINTY_MEASURE_WITH_UNIT(LENGTH_MEASURE(2.E-005),#648,
'DISTANCE_ACCURACY_VALUE','Maximum Tolerance applied to model');
#643=(
NAMED_UNIT(*)
SI_UNIT($,.STERADIAN.)
SOLID_ANGLE_UNIT()
);
#644=(
CONVERSION_BASED_UNIT('DEGREE',#646)
NAMED_UNIT(#645)
PLANE_ANGLE_UNIT()
);
#645=DIMENSIONAL_EXPONENTS(0.,0.,0.,0.,0.,0.,0.);
#646=PLANE_ANGLE_MEASURE_WITH_UNIT(PLANE_ANGLE_MEASURE(0.0174532925),#647);
#647=(
NAMED_UNIT(*)
PLANE_ANGLE_UNIT()
SI_UNIT($,.RADIAN.)
);
#648=(
LENGTH_UNIT()
NAMED_UNIT(*)
SI_UNIT(.MILLI.,.METRE.)
);
ENDSEC;
END-ISO-10303-21;
