ISO-10303-21;
HEADER;
/* Generated by software containing ST-Developer
 * from STEP Tools, Inc. (www.steptools.com) 
 */
/* OPTION: using custom schema-name function */

FILE_DESCRIPTION(
/* description */ ('3-D model version:1'),
/* implementation_level */ '2;1');

FILE_NAME(
/* name */ 'N331.32-250S50KM15.00',
/* time_stamp */ '2013-08-27T11:24:20+02:00',
/* author */ ('CappDp'),
/* organization */ ('AB Sandvik Coromant'),
/* preprocessor_version */ 'ST-DEVELOPER v11',
/* originating_system */ 'SIEMENS UGS NX 6.0',
/* authorisation */ '');

FILE_SCHEMA (('AP203_CONFIGURATION_CONTROLLED_3D_DESIGN_OF_MECHANICAL_PARTS_AND_ASSEMBLIES_MIM_LF'));
ENDSEC;

DATA;
#10=SHAPE_REPRESENTATION_RELATIONSHIP('None',
'relationship between 8854_2_3D-None and 8854_2_3D-None',#94,#11);
#11=ADVANCED_BREP_SHAPE_REPRESENTATION('8854_2_3D-None',(#118,#119),#641);
#12=CC_DESIGN_APPROVAL(#24,(#82));
#13=CC_DESIGN_APPROVAL(#25,(#84));
#14=CC_DESIGN_APPROVAL(#26,(#31));
#15=APPROVAL_PERSON_ORGANIZATION(#69,#24,#18);
#16=APPROVAL_PERSON_ORGANIZATION(#70,#25,#19);
#17=APPROVAL_PERSON_ORGANIZATION(#71,#26,#20);
#18=APPROVAL_ROLE('approver');
#19=APPROVAL_ROLE('approver');
#20=APPROVAL_ROLE('approver');
#21=APPROVAL_DATE_TIME(#39,#24);
#22=APPROVAL_DATE_TIME(#40,#25);
#23=APPROVAL_DATE_TIME(#41,#26);
#24=APPROVAL(#27,' ');
#25=APPROVAL(#28,' ');
#26=APPROVAL(#29,' ');
#27=APPROVAL_STATUS('not_yet_approved');
#28=APPROVAL_STATUS('not_yet_approved');
#29=APPROVAL_STATUS('not_yet_approved');
#30=CC_DESIGN_SECURITY_CLASSIFICATION(#31,(#84));
#31=SECURITY_CLASSIFICATION(' ',' ',#32);
#32=SECURITY_CLASSIFICATION_LEVEL('confidential');
#33=CC_DESIGN_DATE_AND_TIME_ASSIGNMENT(#37,#35,(#82));
#34=CC_DESIGN_DATE_AND_TIME_ASSIGNMENT(#38,#36,(#31));
#35=DATE_TIME_ROLE('creation_date');
#36=DATE_TIME_ROLE('classification_date');
#37=DATE_AND_TIME(#52,#42);
#38=DATE_AND_TIME(#53,#43);
#39=DATE_AND_TIME(#54,#44);
#40=DATE_AND_TIME(#55,#45);
#41=DATE_AND_TIME(#56,#46);
#42=LOCAL_TIME(0,0,0.,#47);
#43=LOCAL_TIME(0,0,0.,#48);
#44=LOCAL_TIME(0,0,0.,#49);
#45=LOCAL_TIME(0,0,0.,#50);
#46=LOCAL_TIME(0,0,0.,#51);
#47=COORDINATED_UNIVERSAL_TIME_OFFSET(0,0,.BEHIND.);
#48=COORDINATED_UNIVERSAL_TIME_OFFSET(0,0,.BEHIND.);
#49=COORDINATED_UNIVERSAL_TIME_OFFSET(0,0,.BEHIND.);
#50=COORDINATED_UNIVERSAL_TIME_OFFSET(0,0,.BEHIND.);
#51=COORDINATED_UNIVERSAL_TIME_OFFSET(0,0,.BEHIND.);
#52=CALENDAR_DATE(0,1,1);
#53=CALENDAR_DATE(0,1,1);
#54=CALENDAR_DATE(0,1,1);
#55=CALENDAR_DATE(0,1,1);
#56=CALENDAR_DATE(0,1,1);
#57=CC_DESIGN_PERSON_AND_ORGANIZATION_ASSIGNMENT(#65,#61,(#82,#84));
#58=CC_DESIGN_PERSON_AND_ORGANIZATION_ASSIGNMENT(#66,#62,(#86));
#59=CC_DESIGN_PERSON_AND_ORGANIZATION_ASSIGNMENT(#67,#63,(#84));
#60=CC_DESIGN_PERSON_AND_ORGANIZATION_ASSIGNMENT(#68,#64,(#31));
#61=PERSON_AND_ORGANIZATION_ROLE('creator');
#62=PERSON_AND_ORGANIZATION_ROLE('design_owner');
#63=PERSON_AND_ORGANIZATION_ROLE('design_supplier');
#64=PERSON_AND_ORGANIZATION_ROLE('classification_officer');
#65=PERSON_AND_ORGANIZATION(#79,#72);
#66=PERSON_AND_ORGANIZATION(#79,#73);
#67=PERSON_AND_ORGANIZATION(#79,#74);
#68=PERSON_AND_ORGANIZATION(#79,#75);
#69=PERSON_AND_ORGANIZATION(#79,#76);
#70=PERSON_AND_ORGANIZATION(#79,#77);
#71=PERSON_AND_ORGANIZATION(#79,#78);
#72=ORGANIZATION(' ',' ',' ');
#73=ORGANIZATION(' ',' ',' ');
#74=ORGANIZATION(' ',' ',' ');
#75=ORGANIZATION(' ',' ',' ');
#76=ORGANIZATION(' ',' ',' ');
#77=ORGANIZATION(' ',' ',' ');
#78=ORGANIZATION(' ',' ',' ');
#79=PERSON(' ',' ',' ',(' '),$,$);
#80=SHAPE_DEFINITION_REPRESENTATION(#81,#94);
#81=PRODUCT_DEFINITION_SHAPE('','',#82);
#82=PRODUCT_DEFINITION(' ','',#84,#83);
#83=DESIGN_CONTEXT('',#93,'design');
#84=PRODUCT_DEFINITION_FORMATION_WITH_SPECIFIED_SOURCE(' ',' ',#86,.NOT_KNOWN.);
#85=PRODUCT_RELATED_PRODUCT_CATEGORY('detail','',(#86));
#86=PRODUCT('8854_2_3D','8854_2_3D',' ',(#91));
#87=PRODUCT_CATEGORY_RELATIONSHIP(' ',' ',#89,#90);
#88=PRODUCT_CATEGORY_RELATIONSHIP('','',#90,#85);
#89=PRODUCT_CATEGORY('part',' ');
#90=PRODUCT_CATEGORY(' ','');
#91=MECHANICAL_CONTEXT(' ',#93,'mechanical');
#92=APPLICATION_PROTOCOL_DEFINITION('international standard',
'config_control_design',1994,#93);
#93=APPLICATION_CONTEXT(
'configuration controlled 3D designs of mechanical parts and assemblies');
#94=SHAPE_REPRESENTATION('8854_2_3D-None',(#402),#641);
#95=CONICAL_SURFACE('',#419,34.5,45.);
#96=CONICAL_SURFACE('',#427,84.5,85.4260787400991);
#97=CONICAL_SURFACE('',#438,33.9,45.0000000000002);
#98=CONICAL_SURFACE('',#446,79.5,85.4260787400992);
#99=CONICAL_SURFACE('',#451,25.00625,44.8803847676959);
#100=CONICAL_SURFACE('',#454,26.5,44.8803847676959);
#101=PRESENTATION_LAYER_ASSIGNMENT('1','Layer 1',(#118,#119));
#102=STYLED_ITEM('',(#104),#118);
#103=STYLED_ITEM('',(#105),#119);
#104=PRESENTATION_STYLE_ASSIGNMENT((#106));
#105=PRESENTATION_STYLE_ASSIGNMENT((#107));
#106=SURFACE_STYLE_USAGE(.BOTH.,#108);
#107=SURFACE_STYLE_USAGE(.BOTH.,#109);
#108=SURFACE_SIDE_STYLE('',(#110));
#109=SURFACE_SIDE_STYLE('',(#111));
#110=SURFACE_STYLE_FILL_AREA(#112);
#111=SURFACE_STYLE_FILL_AREA(#113);
#112=FILL_AREA_STYLE('',(#114));
#113=FILL_AREA_STYLE('',(#115));
#114=FILL_AREA_STYLE_COLOUR('',#116);
#115=FILL_AREA_STYLE_COLOUR('',#117);
#116=COLOUR_RGB('TLS_CUT',0.8,0.8,0.8);
#117=COLOUR_RGB('TLS_NOCUT',0.499992370489052,0.499992370489052,0.499992370489052);
#118=MANIFOLD_SOLID_BREP('CUT',#120);
#119=MANIFOLD_SOLID_BREP('NOCUT',#121);
#120=CLOSED_SHELL('',(#136,#137,#138,#139,#140,#141));
#121=CLOSED_SHELL('',(#142,#143,#144,#145,#146,#147,#148,#149,#150,#151,
#152,#153,#154,#155,#156,#157,#158,#159,#160,#161));
#122=PLANE('',#411);
#123=PLANE('',#414);
#124=PLANE('',#417);
#125=PLANE('',#425);
#126=PLANE('',#429);
#127=PLANE('',#436);
#128=PLANE('',#444);
#129=PLANE('',#448);
#130=CYLINDRICAL_SURFACE('',#407,125.);
#131=CYLINDRICAL_SURFACE('',#413,35.5);
#132=CYLINDRICAL_SURFACE('',#421,34.5);
#133=CYLINDRICAL_SURFACE('',#433,122.2979);
#134=CYLINDRICAL_SURFACE('',#440,34.5);
#135=CYLINDRICAL_SURFACE('',#453,25.00625);
#136=ADVANCED_FACE('',(#168,#169),#162,.T.);
#137=ADVANCED_FACE('',(#170,#171),#130,.T.);
#138=ADVANCED_FACE('',(#172,#173),#163,.T.);
#139=ADVANCED_FACE('',(#174,#175),#122,.F.);
#140=ADVANCED_FACE('',(#176,#177),#131,.F.);
#141=ADVANCED_FACE('',(#178,#179),#123,.F.);
#142=ADVANCED_FACE('',(#180,#181),#124,.T.);
#143=ADVANCED_FACE('',(#182,#183),#95,.T.);
#144=ADVANCED_FACE('',(#184,#185),#132,.T.);
#145=ADVANCED_FACE('',(#186,#187),#164,.F.);
#146=ADVANCED_FACE('',(#188,#189),#125,.T.);
#147=ADVANCED_FACE('',(#190,#191),#96,.F.);
#148=ADVANCED_FACE('',(#192,#193),#126,.T.);
#149=ADVANCED_FACE('',(#194,#195),#165,.T.);
#150=ADVANCED_FACE('',(#196,#197),#133,.T.);
#151=ADVANCED_FACE('',(#198,#199),#127,.T.);
#152=ADVANCED_FACE('',(#200,#201),#97,.T.);
#153=ADVANCED_FACE('',(#202,#203),#134,.T.);
#154=ADVANCED_FACE('',(#204,#205),#166,.F.);
#155=ADVANCED_FACE('',(#206,#207),#128,.T.);
#156=ADVANCED_FACE('',(#208,#209),#98,.F.);
#157=ADVANCED_FACE('',(#210,#211),#129,.T.);
#158=ADVANCED_FACE('',(#212,#213),#167,.T.);
#159=ADVANCED_FACE('',(#214,#215),#99,.F.);
#160=ADVANCED_FACE('',(#216,#217),#135,.F.);
#161=ADVANCED_FACE('',(#218,#219),#100,.F.);
#162=TOROIDAL_SURFACE('',#405,124.2,0.799999999999997);
#163=TOROIDAL_SURFACE('',#409,124.2,0.799999999999997);
#164=TOROIDAL_SURFACE('',#423,35.3,0.8);
#165=TOROIDAL_SURFACE('',#431,121.2979,1.);
#166=TOROIDAL_SURFACE('',#442,35.3,0.8);
#167=TOROIDAL_SURFACE('',#449,121.2979,1.);
#168=FACE_BOUND('',#220,.T.);
#169=FACE_BOUND('',#221,.T.);
#170=FACE_BOUND('',#222,.T.);
#171=FACE_BOUND('',#223,.T.);
#172=FACE_BOUND('',#224,.T.);
#173=FACE_BOUND('',#225,.T.);
#174=FACE_BOUND('',#226,.T.);
#175=FACE_BOUND('',#227,.T.);
#176=FACE_BOUND('',#228,.T.);
#177=FACE_BOUND('',#229,.T.);
#178=FACE_BOUND('',#230,.T.);
#179=FACE_BOUND('',#231,.T.);
#180=FACE_BOUND('',#232,.T.);
#181=FACE_BOUND('',#233,.T.);
#182=FACE_BOUND('',#234,.T.);
#183=FACE_BOUND('',#235,.T.);
#184=FACE_BOUND('',#236,.T.);
#185=FACE_BOUND('',#237,.T.);
#186=FACE_BOUND('',#238,.T.);
#187=FACE_BOUND('',#239,.T.);
#188=FACE_BOUND('',#240,.T.);
#189=FACE_BOUND('',#241,.T.);
#190=FACE_BOUND('',#242,.T.);
#191=FACE_BOUND('',#243,.T.);
#192=FACE_BOUND('',#244,.T.);
#193=FACE_BOUND('',#245,.T.);
#194=FACE_BOUND('',#246,.T.);
#195=FACE_BOUND('',#247,.T.);
#196=FACE_BOUND('',#248,.T.);
#197=FACE_BOUND('',#249,.T.);
#198=FACE_BOUND('',#250,.T.);
#199=FACE_BOUND('',#251,.T.);
#200=FACE_BOUND('',#252,.T.);
#201=FACE_BOUND('',#253,.T.);
#202=FACE_BOUND('',#254,.T.);
#203=FACE_BOUND('',#255,.T.);
#204=FACE_BOUND('',#256,.T.);
#205=FACE_BOUND('',#257,.T.);
#206=FACE_BOUND('',#258,.T.);
#207=FACE_BOUND('',#259,.T.);
#208=FACE_BOUND('',#260,.T.);
#209=FACE_BOUND('',#261,.T.);
#210=FACE_BOUND('',#262,.T.);
#211=FACE_BOUND('',#263,.T.);
#212=FACE_BOUND('',#264,.T.);
#213=FACE_BOUND('',#265,.T.);
#214=FACE_BOUND('',#266,.T.);
#215=FACE_BOUND('',#267,.T.);
#216=FACE_BOUND('',#268,.T.);
#217=FACE_BOUND('',#269,.T.);
#218=FACE_BOUND('',#270,.T.);
#219=FACE_BOUND('',#271,.T.);
#220=EDGE_LOOP('',(#272));
#221=EDGE_LOOP('',(#273));
#222=EDGE_LOOP('',(#274));
#223=EDGE_LOOP('',(#275));
#224=EDGE_LOOP('',(#276));
#225=EDGE_LOOP('',(#277));
#226=EDGE_LOOP('',(#278));
#227=EDGE_LOOP('',(#279));
#228=EDGE_LOOP('',(#280));
#229=EDGE_LOOP('',(#281));
#230=EDGE_LOOP('',(#282));
#231=EDGE_LOOP('',(#283));
#232=EDGE_LOOP('',(#284));
#233=EDGE_LOOP('',(#285));
#234=EDGE_LOOP('',(#286));
#235=EDGE_LOOP('',(#287));
#236=EDGE_LOOP('',(#288));
#237=EDGE_LOOP('',(#289));
#238=EDGE_LOOP('',(#290));
#239=EDGE_LOOP('',(#291));
#240=EDGE_LOOP('',(#292));
#241=EDGE_LOOP('',(#293));
#242=EDGE_LOOP('',(#294));
#243=EDGE_LOOP('',(#295));
#244=EDGE_LOOP('',(#296));
#245=EDGE_LOOP('',(#297));
#246=EDGE_LOOP('',(#298));
#247=EDGE_LOOP('',(#299));
#248=EDGE_LOOP('',(#300));
#249=EDGE_LOOP('',(#301));
#250=EDGE_LOOP('',(#302));
#251=EDGE_LOOP('',(#303));
#252=EDGE_LOOP('',(#304));
#253=EDGE_LOOP('',(#305));
#254=EDGE_LOOP('',(#306));
#255=EDGE_LOOP('',(#307));
#256=EDGE_LOOP('',(#308));
#257=EDGE_LOOP('',(#309));
#258=EDGE_LOOP('',(#310));
#259=EDGE_LOOP('',(#311));
#260=EDGE_LOOP('',(#312));
#261=EDGE_LOOP('',(#313));
#262=EDGE_LOOP('',(#314));
#263=EDGE_LOOP('',(#315));
#264=EDGE_LOOP('',(#316));
#265=EDGE_LOOP('',(#317));
#266=EDGE_LOOP('',(#318));
#267=EDGE_LOOP('',(#319));
#268=EDGE_LOOP('',(#320));
#269=EDGE_LOOP('',(#321));
#270=EDGE_LOOP('',(#322));
#271=EDGE_LOOP('',(#323));
#272=ORIENTED_EDGE('',*,*,#350,.F.);
#273=ORIENTED_EDGE('',*,*,#351,.T.);
#274=ORIENTED_EDGE('',*,*,#352,.F.);
#275=ORIENTED_EDGE('',*,*,#350,.T.);
#276=ORIENTED_EDGE('',*,*,#353,.F.);
#277=ORIENTED_EDGE('',*,*,#352,.T.);
#278=ORIENTED_EDGE('',*,*,#354,.F.);
#279=ORIENTED_EDGE('',*,*,#353,.T.);
#280=ORIENTED_EDGE('',*,*,#355,.F.);
#281=ORIENTED_EDGE('',*,*,#354,.T.);
#282=ORIENTED_EDGE('',*,*,#351,.F.);
#283=ORIENTED_EDGE('',*,*,#355,.T.);
#284=ORIENTED_EDGE('',*,*,#356,.F.);
#285=ORIENTED_EDGE('',*,*,#357,.T.);
#286=ORIENTED_EDGE('',*,*,#356,.T.);
#287=ORIENTED_EDGE('',*,*,#358,.F.);
#288=ORIENTED_EDGE('',*,*,#358,.T.);
#289=ORIENTED_EDGE('',*,*,#359,.F.);
#290=ORIENTED_EDGE('',*,*,#359,.T.);
#291=ORIENTED_EDGE('',*,*,#360,.F.);
#292=ORIENTED_EDGE('',*,*,#360,.T.);
#293=ORIENTED_EDGE('',*,*,#361,.F.);
#294=ORIENTED_EDGE('',*,*,#361,.T.);
#295=ORIENTED_EDGE('',*,*,#362,.F.);
#296=ORIENTED_EDGE('',*,*,#362,.T.);
#297=ORIENTED_EDGE('',*,*,#363,.F.);
#298=ORIENTED_EDGE('',*,*,#364,.F.);
#299=ORIENTED_EDGE('',*,*,#363,.T.);
#300=ORIENTED_EDGE('',*,*,#364,.T.);
#301=ORIENTED_EDGE('',*,*,#365,.F.);
#302=ORIENTED_EDGE('',*,*,#366,.F.);
#303=ORIENTED_EDGE('',*,*,#367,.T.);
#304=ORIENTED_EDGE('',*,*,#368,.T.);
#305=ORIENTED_EDGE('',*,*,#367,.F.);
#306=ORIENTED_EDGE('',*,*,#369,.T.);
#307=ORIENTED_EDGE('',*,*,#368,.F.);
#308=ORIENTED_EDGE('',*,*,#370,.T.);
#309=ORIENTED_EDGE('',*,*,#369,.F.);
#310=ORIENTED_EDGE('',*,*,#371,.T.);
#311=ORIENTED_EDGE('',*,*,#370,.F.);
#312=ORIENTED_EDGE('',*,*,#372,.T.);
#313=ORIENTED_EDGE('',*,*,#371,.F.);
#314=ORIENTED_EDGE('',*,*,#373,.T.);
#315=ORIENTED_EDGE('',*,*,#372,.F.);
#316=ORIENTED_EDGE('',*,*,#373,.F.);
#317=ORIENTED_EDGE('',*,*,#365,.T.);
#318=ORIENTED_EDGE('',*,*,#366,.T.);
#319=ORIENTED_EDGE('',*,*,#374,.F.);
#320=ORIENTED_EDGE('',*,*,#374,.T.);
#321=ORIENTED_EDGE('',*,*,#375,.F.);
#322=ORIENTED_EDGE('',*,*,#375,.T.);
#323=ORIENTED_EDGE('',*,*,#357,.F.);
#324=VERTEX_POINT('',#563);
#325=VERTEX_POINT('',#565);
#326=VERTEX_POINT('',#568);
#327=VERTEX_POINT('',#571);
#328=VERTEX_POINT('',#574);
#329=VERTEX_POINT('',#577);
#330=VERTEX_POINT('',#581);
#331=VERTEX_POINT('',#583);
#332=VERTEX_POINT('',#586);
#333=VERTEX_POINT('',#589);
#334=VERTEX_POINT('',#592);
#335=VERTEX_POINT('',#595);
#336=VERTEX_POINT('',#598);
#337=VERTEX_POINT('',#601);
#338=VERTEX_POINT('',#604);
#339=VERTEX_POINT('',#607);
#340=VERTEX_POINT('',#610);
#341=VERTEX_POINT('',#612);
#342=VERTEX_POINT('',#615);
#343=VERTEX_POINT('',#618);
#344=VERTEX_POINT('',#621);
#345=VERTEX_POINT('',#624);
#346=VERTEX_POINT('',#627);
#347=VERTEX_POINT('',#630);
#348=VERTEX_POINT('',#634);
#349=VERTEX_POINT('',#637);
#350=EDGE_CURVE('',#324,#324,#376,.T.);
#351=EDGE_CURVE('',#325,#325,#377,.T.);
#352=EDGE_CURVE('',#326,#326,#378,.T.);
#353=EDGE_CURVE('',#327,#327,#379,.T.);
#354=EDGE_CURVE('',#328,#328,#380,.T.);
#355=EDGE_CURVE('',#329,#329,#381,.T.);
#356=EDGE_CURVE('',#330,#330,#382,.T.);
#357=EDGE_CURVE('',#331,#331,#383,.T.);
#358=EDGE_CURVE('',#332,#332,#384,.T.);
#359=EDGE_CURVE('',#333,#333,#385,.T.);
#360=EDGE_CURVE('',#334,#334,#386,.T.);
#361=EDGE_CURVE('',#335,#335,#387,.T.);
#362=EDGE_CURVE('',#336,#336,#388,.T.);
#363=EDGE_CURVE('',#337,#337,#389,.T.);
#364=EDGE_CURVE('',#338,#338,#390,.T.);
#365=EDGE_CURVE('',#339,#339,#391,.T.);
#366=EDGE_CURVE('',#340,#340,#392,.T.);
#367=EDGE_CURVE('',#341,#341,#393,.T.);
#368=EDGE_CURVE('',#342,#342,#394,.T.);
#369=EDGE_CURVE('',#343,#343,#395,.T.);
#370=EDGE_CURVE('',#344,#344,#396,.T.);
#371=EDGE_CURVE('',#345,#345,#397,.T.);
#372=EDGE_CURVE('',#346,#346,#398,.T.);
#373=EDGE_CURVE('',#347,#347,#399,.T.);
#374=EDGE_CURVE('',#348,#348,#400,.T.);
#375=EDGE_CURVE('',#349,#349,#401,.T.);
#376=CIRCLE('',#403,125.);
#377=CIRCLE('',#404,124.2);
#378=CIRCLE('',#406,125.);
#379=CIRCLE('',#408,124.2);
#380=CIRCLE('',#410,35.5);
#381=CIRCLE('',#412,35.5);
#382=CIRCLE('',#415,33.9);
#383=CIRCLE('',#416,26.5);
#384=CIRCLE('',#418,34.5);
#385=CIRCLE('',#420,34.5);
#386=CIRCLE('',#422,35.3);
#387=CIRCLE('',#424,79.5);
#388=CIRCLE('',#426,84.5);
#389=CIRCLE('',#428,121.2979);
#390=CIRCLE('',#430,122.2979);
#391=CIRCLE('',#432,122.2979);
#392=CIRCLE('',#434,26.5);
#393=CIRCLE('',#435,33.9);
#394=CIRCLE('',#437,34.5);
#395=CIRCLE('',#439,34.5);
#396=CIRCLE('',#441,35.3);
#397=CIRCLE('',#443,79.5);
#398=CIRCLE('',#445,84.5);
#399=CIRCLE('',#447,121.2979);
#400=CIRCLE('',#450,25.00625);
#401=CIRCLE('',#452,25.00625);
#402=AXIS2_PLACEMENT_3D('',#561,#455,#456);
#403=AXIS2_PLACEMENT_3D('',#562,#457,#458);
#404=AXIS2_PLACEMENT_3D('',#564,#459,#460);
#405=AXIS2_PLACEMENT_3D('',#566,#461,#462);
#406=AXIS2_PLACEMENT_3D('',#567,#463,#464);
#407=AXIS2_PLACEMENT_3D('',#569,#465,#466);
#408=AXIS2_PLACEMENT_3D('',#570,#467,#468);
#409=AXIS2_PLACEMENT_3D('',#572,#469,#470);
#410=AXIS2_PLACEMENT_3D('',#573,#471,#472);
#411=AXIS2_PLACEMENT_3D('',#575,#473,#474);
#412=AXIS2_PLACEMENT_3D('',#576,#475,#476);
#413=AXIS2_PLACEMENT_3D('',#578,#477,#478);
#414=AXIS2_PLACEMENT_3D('',#579,#479,#480);
#415=AXIS2_PLACEMENT_3D('',#580,#481,#482);
#416=AXIS2_PLACEMENT_3D('',#582,#483,#484);
#417=AXIS2_PLACEMENT_3D('',#584,#485,#486);
#418=AXIS2_PLACEMENT_3D('',#585,#487,#488);
#419=AXIS2_PLACEMENT_3D('',#587,#489,#490);
#420=AXIS2_PLACEMENT_3D('',#588,#491,#492);
#421=AXIS2_PLACEMENT_3D('',#590,#493,#494);
#422=AXIS2_PLACEMENT_3D('',#591,#495,#496);
#423=AXIS2_PLACEMENT_3D('',#593,#497,#498);
#424=AXIS2_PLACEMENT_3D('',#594,#499,#500);
#425=AXIS2_PLACEMENT_3D('',#596,#501,#502);
#426=AXIS2_PLACEMENT_3D('',#597,#503,#504);
#427=AXIS2_PLACEMENT_3D('',#599,#505,#506);
#428=AXIS2_PLACEMENT_3D('',#600,#507,#508);
#429=AXIS2_PLACEMENT_3D('',#602,#509,#510);
#430=AXIS2_PLACEMENT_3D('',#603,#511,#512);
#431=AXIS2_PLACEMENT_3D('',#605,#513,#514);
#432=AXIS2_PLACEMENT_3D('',#606,#515,#516);
#433=AXIS2_PLACEMENT_3D('',#608,#517,#518);
#434=AXIS2_PLACEMENT_3D('',#609,#519,#520);
#435=AXIS2_PLACEMENT_3D('',#611,#521,#522);
#436=AXIS2_PLACEMENT_3D('',#613,#523,#524);
#437=AXIS2_PLACEMENT_3D('',#614,#525,#526);
#438=AXIS2_PLACEMENT_3D('',#616,#527,#528);
#439=AXIS2_PLACEMENT_3D('',#617,#529,#530);
#440=AXIS2_PLACEMENT_3D('',#619,#531,#532);
#441=AXIS2_PLACEMENT_3D('',#620,#533,#534);
#442=AXIS2_PLACEMENT_3D('',#622,#535,#536);
#443=AXIS2_PLACEMENT_3D('',#623,#537,#538);
#444=AXIS2_PLACEMENT_3D('',#625,#539,#540);
#445=AXIS2_PLACEMENT_3D('',#626,#541,#542);
#446=AXIS2_PLACEMENT_3D('',#628,#543,#544);
#447=AXIS2_PLACEMENT_3D('',#629,#545,#546);
#448=AXIS2_PLACEMENT_3D('',#631,#547,#548);
#449=AXIS2_PLACEMENT_3D('',#632,#549,#550);
#450=AXIS2_PLACEMENT_3D('',#633,#551,#552);
#451=AXIS2_PLACEMENT_3D('',#635,#553,#554);
#452=AXIS2_PLACEMENT_3D('',#636,#555,#556);
#453=AXIS2_PLACEMENT_3D('',#638,#557,#558);
#454=AXIS2_PLACEMENT_3D('',#639,#559,#560);
#455=DIRECTION('',(0.,0.,1.));
#456=DIRECTION('',(1.,0.,0.));
#457=DIRECTION('',(0.,0.,1.));
#458=DIRECTION('',(1.,0.,0.));
#459=DIRECTION('',(0.,0.,1.));
#460=DIRECTION('',(1.,0.,0.));
#461=DIRECTION('',(0.,0.,1.));
#462=DIRECTION('',(1.,0.,0.));
#463=DIRECTION('',(0.,0.,1.));
#464=DIRECTION('',(1.,0.,0.));
#465=DIRECTION('',(0.,0.,1.));
#466=DIRECTION('',(1.,0.,0.));
#467=DIRECTION('',(0.,0.,1.));
#468=DIRECTION('',(1.,0.,0.));
#469=DIRECTION('',(0.,0.,1.));
#470=DIRECTION('',(1.,0.,0.));
#471=DIRECTION('',(0.,0.,1.));
#472=DIRECTION('',(1.,0.,0.));
#473=DIRECTION('',(0.,0.,-1.));
#474=DIRECTION('',(-1.,0.,0.));
#475=DIRECTION('',(0.,0.,1.));
#476=DIRECTION('',(1.,0.,0.));
#477=DIRECTION('',(0.,0.,1.));
#478=DIRECTION('',(1.,0.,0.));
#479=DIRECTION('',(0.,0.,1.));
#480=DIRECTION('',(1.,0.,0.));
#481=DIRECTION('',(0.,0.,-1.));
#482=DIRECTION('',(1.,0.,0.));
#483=DIRECTION('',(0.,0.,-1.));
#484=DIRECTION('',(1.,0.,0.));
#485=DIRECTION('',(0.,0.,1.));
#486=DIRECTION('',(-1.,0.,0.));
#487=DIRECTION('',(0.,0.,-1.));
#488=DIRECTION('',(1.,0.,0.));
#489=DIRECTION('',(0.,0.,-1.));
#490=DIRECTION('',(1.,0.,6.70748564901617E-017));
#491=DIRECTION('',(0.,0.,-1.));
#492=DIRECTION('',(1.,0.,0.));
#493=DIRECTION('',(0.,0.,-1.));
#494=DIRECTION('',(1.,0.,0.));
#495=DIRECTION('',(0.,0.,-1.));
#496=DIRECTION('',(1.,0.,0.));
#497=DIRECTION('',(0.,0.,-1.));
#498=DIRECTION('',(1.,0.,0.));
#499=DIRECTION('',(0.,0.,-1.));
#500=DIRECTION('',(1.,0.,0.));
#501=DIRECTION('',(0.,0.,1.));
#502=DIRECTION('',(-1.,0.,0.));
#503=DIRECTION('',(0.,0.,-1.));
#504=DIRECTION('',(1.,0.,0.));
#505=DIRECTION('',(0.,0.,1.));
#506=DIRECTION('',(-1.,0.,2.89476681596511E-018));
#507=DIRECTION('',(0.,0.,-1.));
#508=DIRECTION('',(1.,0.,0.));
#509=DIRECTION('',(0.,0.,1.));
#510=DIRECTION('',(-1.,0.,0.));
#511=DIRECTION('',(0.,0.,-1.));
#512=DIRECTION('',(1.,0.,0.));
#513=DIRECTION('',(0.,0.,-1.));
#514=DIRECTION('',(1.,0.,0.));
#515=DIRECTION('',(0.,0.,-1.));
#516=DIRECTION('',(1.,0.,0.));
#517=DIRECTION('',(0.,0.,-1.));
#518=DIRECTION('',(1.,0.,0.));
#519=DIRECTION('',(0.,0.,-1.));
#520=DIRECTION('',(1.,0.,0.));
#521=DIRECTION('',(0.,0.,-1.));
#522=DIRECTION('',(1.,0.,0.));
#523=DIRECTION('',(0.,0.,-1.));
#524=DIRECTION('',(1.,0.,0.));
#525=DIRECTION('',(0.,0.,-1.));
#526=DIRECTION('',(1.,0.,0.));
#527=DIRECTION('',(0.,0.,1.));
#528=DIRECTION('',(-1.,0.,4.02682691009219E-017));
#529=DIRECTION('',(0.,0.,-1.));
#530=DIRECTION('',(1.,0.,0.));
#531=DIRECTION('',(0.,0.,-1.));
#532=DIRECTION('',(1.,0.,0.));
#533=DIRECTION('',(0.,0.,-1.));
#534=DIRECTION('',(1.,0.,0.));
#535=DIRECTION('',(0.,0.,-1.));
#536=DIRECTION('',(1.,0.,0.));
#537=DIRECTION('',(0.,0.,-1.));
#538=DIRECTION('',(1.,0.,0.));
#539=DIRECTION('',(0.,0.,-1.));
#540=DIRECTION('',(1.,0.,0.));
#541=DIRECTION('',(0.,0.,-1.));
#542=DIRECTION('',(1.,0.,0.));
#543=DIRECTION('',(0.,0.,-1.));
#544=DIRECTION('',(1.,0.,5.51603315227729E-018));
#545=DIRECTION('',(0.,0.,-1.));
#546=DIRECTION('',(1.,0.,0.));
#547=DIRECTION('',(0.,0.,-1.));
#548=DIRECTION('',(1.,0.,0.));
#549=DIRECTION('',(0.,0.,-1.));
#550=DIRECTION('',(1.,0.,0.));
#551=DIRECTION('',(0.,0.,-1.));
#552=DIRECTION('',(1.,0.,0.));
#553=DIRECTION('',(0.,0.,-1.));
#554=DIRECTION('',(1.,0.,9.51613909185385E-017));
#555=DIRECTION('',(0.,0.,-1.));
#556=DIRECTION('',(1.,0.,0.));
#557=DIRECTION('',(0.,0.,-1.));
#558=DIRECTION('',(1.,0.,0.));
#559=DIRECTION('',(0.,0.,1.));
#560=DIRECTION('',(-1.,0.,0.));
#561=CARTESIAN_POINT('',(0.,0.,0.));
#562=CARTESIAN_POINT('',(0.,0.,-15.95));
#563=CARTESIAN_POINT('',(125.,0.,-15.95));
#564=CARTESIAN_POINT('',(0.,0.,-16.75));
#565=CARTESIAN_POINT('',(124.2,0.,-16.75));
#566=CARTESIAN_POINT('',(0.,0.,-15.95));
#567=CARTESIAN_POINT('',(0.,0.,-2.55));
#568=CARTESIAN_POINT('',(125.,0.,-2.55));
#569=CARTESIAN_POINT('',(0.,0.,66.2952357642815));
#570=CARTESIAN_POINT('',(0.,0.,-1.75));
#571=CARTESIAN_POINT('',(124.2,0.,-1.75));
#572=CARTESIAN_POINT('',(0.,0.,-2.55));
#573=CARTESIAN_POINT('',(0.,0.,-1.75));
#574=CARTESIAN_POINT('',(35.5,0.,-1.75));
#575=CARTESIAN_POINT('',(-124.2,0.,-1.75));
#576=CARTESIAN_POINT('',(0.,0.,-16.75));
#577=CARTESIAN_POINT('',(35.5,0.,-16.75));
#578=CARTESIAN_POINT('',(0.,0.,66.2952357642815));
#579=CARTESIAN_POINT('',(-35.5,0.,-16.75));
#580=CARTESIAN_POINT('',(0.,0.,0.));
#581=CARTESIAN_POINT('',(33.9,0.,0.));
#582=CARTESIAN_POINT('',(0.,0.,0.));
#583=CARTESIAN_POINT('',(26.5,0.,0.));
#584=CARTESIAN_POINT('',(0.,-33.9,0.));
#585=CARTESIAN_POINT('',(0.,0.,-0.600000000000003));
#586=CARTESIAN_POINT('',(34.5,0.,-0.600000000000003));
#587=CARTESIAN_POINT('',(0.,0.,-0.600000000000003));
#588=CARTESIAN_POINT('',(0.,0.,-1.95));
#589=CARTESIAN_POINT('',(34.5,0.,-1.95));
#590=CARTESIAN_POINT('',(0.,0.,-16.15));
#591=CARTESIAN_POINT('',(0.,0.,-2.75));
#592=CARTESIAN_POINT('',(35.3,0.,-2.75));
#593=CARTESIAN_POINT('',(0.,0.,-1.95));
#594=CARTESIAN_POINT('',(0.,0.,-2.75));
#595=CARTESIAN_POINT('',(79.5,0.,-2.75));
#596=CARTESIAN_POINT('',(0.,-79.5,-2.75));
#597=CARTESIAN_POINT('',(0.,0.,-2.35));
#598=CARTESIAN_POINT('',(84.5,0.,-2.35));
#599=CARTESIAN_POINT('',(0.,0.,-2.35));
#600=CARTESIAN_POINT('',(0.,0.,-2.35));
#601=CARTESIAN_POINT('',(121.2979,0.,-2.35));
#602=CARTESIAN_POINT('',(0.,-121.2979,-2.35));
#603=CARTESIAN_POINT('',(0.,0.,-3.35));
#604=CARTESIAN_POINT('',(122.2979,0.,-3.35));
#605=CARTESIAN_POINT('',(0.,0.,-3.35));
#606=CARTESIAN_POINT('',(0.,0.,-15.15));
#607=CARTESIAN_POINT('',(122.2979,0.,-15.15));
#608=CARTESIAN_POINT('',(0.,0.,-16.15));
#609=CARTESIAN_POINT('',(0.,0.,-18.5));
#610=CARTESIAN_POINT('',(26.5,0.,-18.5));
#611=CARTESIAN_POINT('',(0.,0.,-18.5));
#612=CARTESIAN_POINT('',(33.9,0.,-18.5));
#613=CARTESIAN_POINT('',(0.,-26.5,-18.5));
#614=CARTESIAN_POINT('',(0.,0.,-17.9));
#615=CARTESIAN_POINT('',(34.5,0.,-17.9));
#616=CARTESIAN_POINT('',(0.,0.,-18.5));
#617=CARTESIAN_POINT('',(0.,0.,-16.55));
#618=CARTESIAN_POINT('',(34.5,0.,-16.55));
#619=CARTESIAN_POINT('',(0.,0.,-16.15));
#620=CARTESIAN_POINT('',(0.,0.,-15.75));
#621=CARTESIAN_POINT('',(35.3,0.,-15.75));
#622=CARTESIAN_POINT('',(0.,0.,-16.55));
#623=CARTESIAN_POINT('',(0.,0.,-15.75));
#624=CARTESIAN_POINT('',(79.5,0.,-15.75));
#625=CARTESIAN_POINT('',(0.,-35.3,-15.75));
#626=CARTESIAN_POINT('',(0.,0.,-16.15));
#627=CARTESIAN_POINT('',(84.5,0.,-16.15));
#628=CARTESIAN_POINT('',(0.,0.,-15.75));
#629=CARTESIAN_POINT('',(0.,0.,-16.15));
#630=CARTESIAN_POINT('',(121.2979,0.,-16.15));
#631=CARTESIAN_POINT('',(0.,-84.5,-16.15));
#632=CARTESIAN_POINT('',(0.,0.,-15.15));
#633=CARTESIAN_POINT('',(0.,0.,-17.));
#634=CARTESIAN_POINT('',(25.00625,0.,-17.));
#635=CARTESIAN_POINT('',(0.,0.,-17.));
#636=CARTESIAN_POINT('',(0.,0.,-1.5));
#637=CARTESIAN_POINT('',(25.00625,0.,-1.5));
#638=CARTESIAN_POINT('',(0.,0.,-16.15));
#639=CARTESIAN_POINT('',(0.,0.,0.));
#640=MECHANICAL_DESIGN_GEOMETRIC_PRESENTATION_REPRESENTATION('',(#102,#103),
#641);
#641=(
GEOMETRIC_REPRESENTATION_CONTEXT(3)
GLOBAL_UNCERTAINTY_ASSIGNED_CONTEXT((#642))
GLOBAL_UNIT_ASSIGNED_CONTEXT((#648,#644,#643))
REPRESENTATION_CONTEXT('8854_2_3D','TOP_LEVEL_ASSEMBLY_PART')
);
#642=UNCERTAINTY_MEASURE_WITH_UNIT(LENGTH_MEASURE(2.E-005),#648,
'DISTANCE_ACCURACY_VALUE','Maximum Tolerance applied to model');
#643=(
NAMED_UNIT(*)
SI_UNIT($,.STERADIAN.)
SOLID_ANGLE_UNIT()
);
#644=(
CONVERSION_BASED_UNIT('DEGREE',#646)
NAMED_UNIT(#645)
PLANE_ANGLE_UNIT()
);
#645=DIMENSIONAL_EXPONENTS(0.,0.,0.,0.,0.,0.,0.);
#646=PLANE_ANGLE_MEASURE_WITH_UNIT(PLANE_ANGLE_MEASURE(0.0174532925),#647);
#647=(
NAMED_UNIT(*)
PLANE_ANGLE_UNIT()
SI_UNIT($,.RADIAN.)
);
#648=(
LENGTH_UNIT()
NAMED_UNIT(*)
SI_UNIT(.MILLI.,.METRE.)
);
ENDSEC;
END-ISO-10303-21;
