ISO-10303-21;
HEADER;
/* Generated by software containing ST-Developer
 * from STEP Tools, Inc. (www.steptools.com) 
 */
/* OPTION: using custom schema-name function */

FILE_DESCRIPTION(
/* description */ ('3-D model version:1'),
/* implementation_level */ '2;1');

FILE_NAME(
/* name */ 'N331.32-127S40FMQ',
/* time_stamp */ '2013-08-27T14:11:09+02:00',
/* author */ ('CappDp'),
/* organization */ ('AB Sandvik Coromant'),
/* preprocessor_version */ 'ST-DEVELOPER v11',
/* originating_system */ 'SIEMENS UGS NX 6.0',
/* authorisation */ '');

FILE_SCHEMA (('AP203_CONFIGURATION_CONTROLLED_3D_DESIGN_OF_MECHANICAL_PARTS_AND_ASSEMBLIES_MIM_LF'));
ENDSEC;

DATA;
#10=SHAPE_REPRESENTATION_RELATIONSHIP('None',
'relationship between 9384_2_3D-None and 9384_2_3D-None',#94,#11);
#11=ADVANCED_BREP_SHAPE_REPRESENTATION('9384_2_3D-None',(#112,#113),#561);
#12=CC_DESIGN_APPROVAL(#24,(#82));
#13=CC_DESIGN_APPROVAL(#25,(#84));
#14=CC_DESIGN_APPROVAL(#26,(#31));
#15=APPROVAL_PERSON_ORGANIZATION(#69,#24,#18);
#16=APPROVAL_PERSON_ORGANIZATION(#70,#25,#19);
#17=APPROVAL_PERSON_ORGANIZATION(#71,#26,#20);
#18=APPROVAL_ROLE('approver');
#19=APPROVAL_ROLE('approver');
#20=APPROVAL_ROLE('approver');
#21=APPROVAL_DATE_TIME(#39,#24);
#22=APPROVAL_DATE_TIME(#40,#25);
#23=APPROVAL_DATE_TIME(#41,#26);
#24=APPROVAL(#27,' ');
#25=APPROVAL(#28,' ');
#26=APPROVAL(#29,' ');
#27=APPROVAL_STATUS('not_yet_approved');
#28=APPROVAL_STATUS('not_yet_approved');
#29=APPROVAL_STATUS('not_yet_approved');
#30=CC_DESIGN_SECURITY_CLASSIFICATION(#31,(#84));
#31=SECURITY_CLASSIFICATION(' ',' ',#32);
#32=SECURITY_CLASSIFICATION_LEVEL('confidential');
#33=CC_DESIGN_DATE_AND_TIME_ASSIGNMENT(#37,#35,(#82));
#34=CC_DESIGN_DATE_AND_TIME_ASSIGNMENT(#38,#36,(#31));
#35=DATE_TIME_ROLE('creation_date');
#36=DATE_TIME_ROLE('classification_date');
#37=DATE_AND_TIME(#52,#42);
#38=DATE_AND_TIME(#53,#43);
#39=DATE_AND_TIME(#54,#44);
#40=DATE_AND_TIME(#55,#45);
#41=DATE_AND_TIME(#56,#46);
#42=LOCAL_TIME(0,0,0.,#47);
#43=LOCAL_TIME(0,0,0.,#48);
#44=LOCAL_TIME(0,0,0.,#49);
#45=LOCAL_TIME(0,0,0.,#50);
#46=LOCAL_TIME(0,0,0.,#51);
#47=COORDINATED_UNIVERSAL_TIME_OFFSET(0,0,.BEHIND.);
#48=COORDINATED_UNIVERSAL_TIME_OFFSET(0,0,.BEHIND.);
#49=COORDINATED_UNIVERSAL_TIME_OFFSET(0,0,.BEHIND.);
#50=COORDINATED_UNIVERSAL_TIME_OFFSET(0,0,.BEHIND.);
#51=COORDINATED_UNIVERSAL_TIME_OFFSET(0,0,.BEHIND.);
#52=CALENDAR_DATE(0,1,1);
#53=CALENDAR_DATE(0,1,1);
#54=CALENDAR_DATE(0,1,1);
#55=CALENDAR_DATE(0,1,1);
#56=CALENDAR_DATE(0,1,1);
#57=CC_DESIGN_PERSON_AND_ORGANIZATION_ASSIGNMENT(#65,#61,(#82,#84));
#58=CC_DESIGN_PERSON_AND_ORGANIZATION_ASSIGNMENT(#66,#62,(#86));
#59=CC_DESIGN_PERSON_AND_ORGANIZATION_ASSIGNMENT(#67,#63,(#84));
#60=CC_DESIGN_PERSON_AND_ORGANIZATION_ASSIGNMENT(#68,#64,(#31));
#61=PERSON_AND_ORGANIZATION_ROLE('creator');
#62=PERSON_AND_ORGANIZATION_ROLE('design_owner');
#63=PERSON_AND_ORGANIZATION_ROLE('design_supplier');
#64=PERSON_AND_ORGANIZATION_ROLE('classification_officer');
#65=PERSON_AND_ORGANIZATION(#79,#72);
#66=PERSON_AND_ORGANIZATION(#79,#73);
#67=PERSON_AND_ORGANIZATION(#79,#74);
#68=PERSON_AND_ORGANIZATION(#79,#75);
#69=PERSON_AND_ORGANIZATION(#79,#76);
#70=PERSON_AND_ORGANIZATION(#79,#77);
#71=PERSON_AND_ORGANIZATION(#79,#78);
#72=ORGANIZATION(' ',' ',' ');
#73=ORGANIZATION(' ',' ',' ');
#74=ORGANIZATION(' ',' ',' ');
#75=ORGANIZATION(' ',' ',' ');
#76=ORGANIZATION(' ',' ',' ');
#77=ORGANIZATION(' ',' ',' ');
#78=ORGANIZATION(' ',' ',' ');
#79=PERSON(' ',' ',' ',(' '),$,$);
#80=SHAPE_DEFINITION_REPRESENTATION(#81,#94);
#81=PRODUCT_DEFINITION_SHAPE('','',#82);
#82=PRODUCT_DEFINITION(' ','',#84,#83);
#83=DESIGN_CONTEXT('',#93,'design');
#84=PRODUCT_DEFINITION_FORMATION_WITH_SPECIFIED_SOURCE(' ',' ',#86,.NOT_KNOWN.);
#85=PRODUCT_RELATED_PRODUCT_CATEGORY('detail','',(#86));
#86=PRODUCT('9384_2_3D','9384_2_3D',' ',(#91));
#87=PRODUCT_CATEGORY_RELATIONSHIP(' ',' ',#89,#90);
#88=PRODUCT_CATEGORY_RELATIONSHIP('','',#90,#85);
#89=PRODUCT_CATEGORY('part',' ');
#90=PRODUCT_CATEGORY(' ','');
#91=MECHANICAL_CONTEXT(' ',#93,'mechanical');
#92=APPLICATION_PROTOCOL_DEFINITION('international standard',
'config_control_design',1994,#93);
#93=APPLICATION_CONTEXT(
'configuration controlled 3D designs of mechanical parts and assemblies');
#94=SHAPE_REPRESENTATION('9384_2_3D-None',(#358),#561);
#95=PRESENTATION_LAYER_ASSIGNMENT('1','Layer 1',(#112,#113));
#96=STYLED_ITEM('',(#98),#112);
#97=STYLED_ITEM('',(#99),#113);
#98=PRESENTATION_STYLE_ASSIGNMENT((#100));
#99=PRESENTATION_STYLE_ASSIGNMENT((#101));
#100=SURFACE_STYLE_USAGE(.BOTH.,#102);
#101=SURFACE_STYLE_USAGE(.BOTH.,#103);
#102=SURFACE_SIDE_STYLE('',(#104));
#103=SURFACE_SIDE_STYLE('',(#105));
#104=SURFACE_STYLE_FILL_AREA(#106);
#105=SURFACE_STYLE_FILL_AREA(#107);
#106=FILL_AREA_STYLE('',(#108));
#107=FILL_AREA_STYLE('',(#109));
#108=FILL_AREA_STYLE_COLOUR('',#110);
#109=FILL_AREA_STYLE_COLOUR('',#111);
#110=COLOUR_RGB('TLS_NOCUT',0.499992370489052,0.499992370489052,0.499992370489052);
#111=COLOUR_RGB('TLS_CUT',0.8,0.8,0.8);
#112=MANIFOLD_SOLID_BREP('NOCUT',#114);
#113=MANIFOLD_SOLID_BREP('CUT',#115);
#114=CLOSED_SHELL('',(#132,#133,#134,#135,#136,#137,#138,#139,#140,#141,
#142,#143,#144,#145,#146,#147));
#115=CLOSED_SHELL('',(#148,#149,#150,#151,#152,#153));
#116=TOROIDAL_SURFACE('',#367,28.3,0.8);
#117=TOROIDAL_SURFACE('',#371,55.6391,5.);
#118=TOROIDAL_SURFACE('',#382,28.3,0.8);
#119=TOROIDAL_SURFACE('',#385,55.6391,5.);
#120=TOROIDAL_SURFACE('',#393,57.55,5.95);
#121=TOROIDAL_SURFACE('',#397,57.55,5.95);
#122=CYLINDRICAL_SURFACE('',#365,27.5);
#123=CYLINDRICAL_SURFACE('',#373,60.6391);
#124=CYLINDRICAL_SURFACE('',#380,27.5);
#125=CYLINDRICAL_SURFACE('',#389,20.00625);
#126=CYLINDRICAL_SURFACE('',#395,63.5);
#127=CYLINDRICAL_SURFACE('',#401,28.5);
#128=CONICAL_SURFACE('',#363,27.5,45.);
#129=CONICAL_SURFACE('',#378,26.9,45.);
#130=CONICAL_SURFACE('',#387,20.00625,44.8203899942529);
#131=CONICAL_SURFACE('',#390,21.,44.8203899942529);
#132=ADVANCED_FACE('',(#160,#161),#154,.T.);
#133=ADVANCED_FACE('',(#162,#163),#128,.T.);
#134=ADVANCED_FACE('',(#164,#165),#122,.T.);
#135=ADVANCED_FACE('',(#166,#167),#116,.F.);
#136=ADVANCED_FACE('',(#168,#169),#155,.T.);
#137=ADVANCED_FACE('',(#170,#171),#117,.T.);
#138=ADVANCED_FACE('',(#172,#173),#123,.T.);
#139=ADVANCED_FACE('',(#174,#175),#156,.T.);
#140=ADVANCED_FACE('',(#176,#177),#129,.T.);
#141=ADVANCED_FACE('',(#178,#179),#124,.T.);
#142=ADVANCED_FACE('',(#180,#181),#118,.F.);
#143=ADVANCED_FACE('',(#182,#183),#157,.T.);
#144=ADVANCED_FACE('',(#184,#185),#119,.T.);
#145=ADVANCED_FACE('',(#186,#187),#130,.F.);
#146=ADVANCED_FACE('',(#188,#189),#125,.F.);
#147=ADVANCED_FACE('',(#190,#191),#131,.F.);
#148=ADVANCED_FACE('',(#192,#193),#120,.T.);
#149=ADVANCED_FACE('',(#194,#195),#126,.T.);
#150=ADVANCED_FACE('',(#196,#197),#121,.T.);
#151=ADVANCED_FACE('',(#198,#199),#158,.F.);
#152=ADVANCED_FACE('',(#200,#201),#127,.F.);
#153=ADVANCED_FACE('',(#202,#203),#159,.F.);
#154=PLANE('',#361);
#155=PLANE('',#369);
#156=PLANE('',#376);
#157=PLANE('',#384);
#158=PLANE('',#399);
#159=PLANE('',#402);
#160=FACE_BOUND('',#204,.T.);
#161=FACE_BOUND('',#205,.T.);
#162=FACE_BOUND('',#206,.T.);
#163=FACE_BOUND('',#207,.T.);
#164=FACE_BOUND('',#208,.T.);
#165=FACE_BOUND('',#209,.T.);
#166=FACE_BOUND('',#210,.T.);
#167=FACE_BOUND('',#211,.T.);
#168=FACE_BOUND('',#212,.T.);
#169=FACE_BOUND('',#213,.T.);
#170=FACE_BOUND('',#214,.T.);
#171=FACE_BOUND('',#215,.T.);
#172=FACE_BOUND('',#216,.T.);
#173=FACE_BOUND('',#217,.T.);
#174=FACE_BOUND('',#218,.T.);
#175=FACE_BOUND('',#219,.T.);
#176=FACE_BOUND('',#220,.T.);
#177=FACE_BOUND('',#221,.T.);
#178=FACE_BOUND('',#222,.T.);
#179=FACE_BOUND('',#223,.T.);
#180=FACE_BOUND('',#224,.T.);
#181=FACE_BOUND('',#225,.T.);
#182=FACE_BOUND('',#226,.T.);
#183=FACE_BOUND('',#227,.T.);
#184=FACE_BOUND('',#228,.T.);
#185=FACE_BOUND('',#229,.T.);
#186=FACE_BOUND('',#230,.T.);
#187=FACE_BOUND('',#231,.T.);
#188=FACE_BOUND('',#232,.T.);
#189=FACE_BOUND('',#233,.T.);
#190=FACE_BOUND('',#234,.T.);
#191=FACE_BOUND('',#235,.T.);
#192=FACE_BOUND('',#236,.T.);
#193=FACE_BOUND('',#237,.T.);
#194=FACE_BOUND('',#238,.T.);
#195=FACE_BOUND('',#239,.T.);
#196=FACE_BOUND('',#240,.T.);
#197=FACE_BOUND('',#241,.T.);
#198=FACE_BOUND('',#242,.T.);
#199=FACE_BOUND('',#243,.T.);
#200=FACE_BOUND('',#244,.T.);
#201=FACE_BOUND('',#245,.T.);
#202=FACE_BOUND('',#246,.T.);
#203=FACE_BOUND('',#247,.T.);
#204=EDGE_LOOP('',(#248));
#205=EDGE_LOOP('',(#249));
#206=EDGE_LOOP('',(#250));
#207=EDGE_LOOP('',(#251));
#208=EDGE_LOOP('',(#252));
#209=EDGE_LOOP('',(#253));
#210=EDGE_LOOP('',(#254));
#211=EDGE_LOOP('',(#255));
#212=EDGE_LOOP('',(#256));
#213=EDGE_LOOP('',(#257));
#214=EDGE_LOOP('',(#258));
#215=EDGE_LOOP('',(#259));
#216=EDGE_LOOP('',(#260));
#217=EDGE_LOOP('',(#261));
#218=EDGE_LOOP('',(#262));
#219=EDGE_LOOP('',(#263));
#220=EDGE_LOOP('',(#264));
#221=EDGE_LOOP('',(#265));
#222=EDGE_LOOP('',(#266));
#223=EDGE_LOOP('',(#267));
#224=EDGE_LOOP('',(#268));
#225=EDGE_LOOP('',(#269));
#226=EDGE_LOOP('',(#270));
#227=EDGE_LOOP('',(#271));
#228=EDGE_LOOP('',(#272));
#229=EDGE_LOOP('',(#273));
#230=EDGE_LOOP('',(#274));
#231=EDGE_LOOP('',(#275));
#232=EDGE_LOOP('',(#276));
#233=EDGE_LOOP('',(#277));
#234=EDGE_LOOP('',(#278));
#235=EDGE_LOOP('',(#279));
#236=EDGE_LOOP('',(#280));
#237=EDGE_LOOP('',(#281));
#238=EDGE_LOOP('',(#282));
#239=EDGE_LOOP('',(#283));
#240=EDGE_LOOP('',(#284));
#241=EDGE_LOOP('',(#285));
#242=EDGE_LOOP('',(#286));
#243=EDGE_LOOP('',(#287));
#244=EDGE_LOOP('',(#288));
#245=EDGE_LOOP('',(#289));
#246=EDGE_LOOP('',(#290));
#247=EDGE_LOOP('',(#291));
#248=ORIENTED_EDGE('',*,*,#314,.F.);
#249=ORIENTED_EDGE('',*,*,#315,.T.);
#250=ORIENTED_EDGE('',*,*,#314,.T.);
#251=ORIENTED_EDGE('',*,*,#316,.F.);
#252=ORIENTED_EDGE('',*,*,#316,.T.);
#253=ORIENTED_EDGE('',*,*,#317,.F.);
#254=ORIENTED_EDGE('',*,*,#317,.T.);
#255=ORIENTED_EDGE('',*,*,#318,.F.);
#256=ORIENTED_EDGE('',*,*,#318,.T.);
#257=ORIENTED_EDGE('',*,*,#319,.F.);
#258=ORIENTED_EDGE('',*,*,#320,.F.);
#259=ORIENTED_EDGE('',*,*,#319,.T.);
#260=ORIENTED_EDGE('',*,*,#320,.T.);
#261=ORIENTED_EDGE('',*,*,#321,.F.);
#262=ORIENTED_EDGE('',*,*,#322,.F.);
#263=ORIENTED_EDGE('',*,*,#323,.T.);
#264=ORIENTED_EDGE('',*,*,#324,.T.);
#265=ORIENTED_EDGE('',*,*,#323,.F.);
#266=ORIENTED_EDGE('',*,*,#325,.T.);
#267=ORIENTED_EDGE('',*,*,#324,.F.);
#268=ORIENTED_EDGE('',*,*,#326,.T.);
#269=ORIENTED_EDGE('',*,*,#325,.F.);
#270=ORIENTED_EDGE('',*,*,#327,.T.);
#271=ORIENTED_EDGE('',*,*,#326,.F.);
#272=ORIENTED_EDGE('',*,*,#327,.F.);
#273=ORIENTED_EDGE('',*,*,#321,.T.);
#274=ORIENTED_EDGE('',*,*,#322,.T.);
#275=ORIENTED_EDGE('',*,*,#328,.F.);
#276=ORIENTED_EDGE('',*,*,#328,.T.);
#277=ORIENTED_EDGE('',*,*,#329,.F.);
#278=ORIENTED_EDGE('',*,*,#329,.T.);
#279=ORIENTED_EDGE('',*,*,#315,.F.);
#280=ORIENTED_EDGE('',*,*,#330,.F.);
#281=ORIENTED_EDGE('',*,*,#331,.T.);
#282=ORIENTED_EDGE('',*,*,#332,.F.);
#283=ORIENTED_EDGE('',*,*,#330,.T.);
#284=ORIENTED_EDGE('',*,*,#333,.F.);
#285=ORIENTED_EDGE('',*,*,#332,.T.);
#286=ORIENTED_EDGE('',*,*,#334,.F.);
#287=ORIENTED_EDGE('',*,*,#333,.T.);
#288=ORIENTED_EDGE('',*,*,#335,.F.);
#289=ORIENTED_EDGE('',*,*,#334,.T.);
#290=ORIENTED_EDGE('',*,*,#331,.F.);
#291=ORIENTED_EDGE('',*,*,#335,.T.);
#292=VERTEX_POINT('',#495);
#293=VERTEX_POINT('',#497);
#294=VERTEX_POINT('',#500);
#295=VERTEX_POINT('',#503);
#296=VERTEX_POINT('',#506);
#297=VERTEX_POINT('',#509);
#298=VERTEX_POINT('',#512);
#299=VERTEX_POINT('',#515);
#300=VERTEX_POINT('',#518);
#301=VERTEX_POINT('',#520);
#302=VERTEX_POINT('',#523);
#303=VERTEX_POINT('',#526);
#304=VERTEX_POINT('',#529);
#305=VERTEX_POINT('',#532);
#306=VERTEX_POINT('',#536);
#307=VERTEX_POINT('',#539);
#308=VERTEX_POINT('',#543);
#309=VERTEX_POINT('',#545);
#310=VERTEX_POINT('',#548);
#311=VERTEX_POINT('',#551);
#312=VERTEX_POINT('',#554);
#313=VERTEX_POINT('',#557);
#314=EDGE_CURVE('',#292,#292,#336,.T.);
#315=EDGE_CURVE('',#293,#293,#337,.T.);
#316=EDGE_CURVE('',#294,#294,#338,.T.);
#317=EDGE_CURVE('',#295,#295,#339,.T.);
#318=EDGE_CURVE('',#296,#296,#340,.T.);
#319=EDGE_CURVE('',#297,#297,#341,.T.);
#320=EDGE_CURVE('',#298,#298,#342,.T.);
#321=EDGE_CURVE('',#299,#299,#343,.T.);
#322=EDGE_CURVE('',#300,#300,#344,.T.);
#323=EDGE_CURVE('',#301,#301,#345,.T.);
#324=EDGE_CURVE('',#302,#302,#346,.T.);
#325=EDGE_CURVE('',#303,#303,#347,.T.);
#326=EDGE_CURVE('',#304,#304,#348,.T.);
#327=EDGE_CURVE('',#305,#305,#349,.T.);
#328=EDGE_CURVE('',#306,#306,#350,.T.);
#329=EDGE_CURVE('',#307,#307,#351,.T.);
#330=EDGE_CURVE('',#308,#308,#352,.T.);
#331=EDGE_CURVE('',#309,#309,#353,.T.);
#332=EDGE_CURVE('',#310,#310,#354,.T.);
#333=EDGE_CURVE('',#311,#311,#355,.T.);
#334=EDGE_CURVE('',#312,#312,#356,.T.);
#335=EDGE_CURVE('',#313,#313,#357,.T.);
#336=CIRCLE('',#359,26.9);
#337=CIRCLE('',#360,21.);
#338=CIRCLE('',#362,27.5);
#339=CIRCLE('',#364,27.5);
#340=CIRCLE('',#366,28.3);
#341=CIRCLE('',#368,55.6391);
#342=CIRCLE('',#370,60.6391);
#343=CIRCLE('',#372,60.6391);
#344=CIRCLE('',#374,21.);
#345=CIRCLE('',#375,26.9);
#346=CIRCLE('',#377,27.5);
#347=CIRCLE('',#379,27.5);
#348=CIRCLE('',#381,28.3);
#349=CIRCLE('',#383,55.6391);
#350=CIRCLE('',#386,20.00625);
#351=CIRCLE('',#388,20.00625);
#352=CIRCLE('',#391,63.5);
#353=CIRCLE('',#392,57.55);
#354=CIRCLE('',#394,63.5);
#355=CIRCLE('',#396,57.55);
#356=CIRCLE('',#398,28.5);
#357=CIRCLE('',#400,28.5);
#358=AXIS2_PLACEMENT_3D('',#493,#403,#404);
#359=AXIS2_PLACEMENT_3D('',#494,#405,#406);
#360=AXIS2_PLACEMENT_3D('',#496,#407,#408);
#361=AXIS2_PLACEMENT_3D('',#498,#409,#410);
#362=AXIS2_PLACEMENT_3D('',#499,#411,#412);
#363=AXIS2_PLACEMENT_3D('',#501,#413,#414);
#364=AXIS2_PLACEMENT_3D('',#502,#415,#416);
#365=AXIS2_PLACEMENT_3D('',#504,#417,#418);
#366=AXIS2_PLACEMENT_3D('',#505,#419,#420);
#367=AXIS2_PLACEMENT_3D('',#507,#421,#422);
#368=AXIS2_PLACEMENT_3D('',#508,#423,#424);
#369=AXIS2_PLACEMENT_3D('',#510,#425,#426);
#370=AXIS2_PLACEMENT_3D('',#511,#427,#428);
#371=AXIS2_PLACEMENT_3D('',#513,#429,#430);
#372=AXIS2_PLACEMENT_3D('',#514,#431,#432);
#373=AXIS2_PLACEMENT_3D('',#516,#433,#434);
#374=AXIS2_PLACEMENT_3D('',#517,#435,#436);
#375=AXIS2_PLACEMENT_3D('',#519,#437,#438);
#376=AXIS2_PLACEMENT_3D('',#521,#439,#440);
#377=AXIS2_PLACEMENT_3D('',#522,#441,#442);
#378=AXIS2_PLACEMENT_3D('',#524,#443,#444);
#379=AXIS2_PLACEMENT_3D('',#525,#445,#446);
#380=AXIS2_PLACEMENT_3D('',#527,#447,#448);
#381=AXIS2_PLACEMENT_3D('',#528,#449,#450);
#382=AXIS2_PLACEMENT_3D('',#530,#451,#452);
#383=AXIS2_PLACEMENT_3D('',#531,#453,#454);
#384=AXIS2_PLACEMENT_3D('',#533,#455,#456);
#385=AXIS2_PLACEMENT_3D('',#534,#457,#458);
#386=AXIS2_PLACEMENT_3D('',#535,#459,#460);
#387=AXIS2_PLACEMENT_3D('',#537,#461,#462);
#388=AXIS2_PLACEMENT_3D('',#538,#463,#464);
#389=AXIS2_PLACEMENT_3D('',#540,#465,#466);
#390=AXIS2_PLACEMENT_3D('',#541,#467,#468);
#391=AXIS2_PLACEMENT_3D('',#542,#469,#470);
#392=AXIS2_PLACEMENT_3D('',#544,#471,#472);
#393=AXIS2_PLACEMENT_3D('',#546,#473,#474);
#394=AXIS2_PLACEMENT_3D('',#547,#475,#476);
#395=AXIS2_PLACEMENT_3D('',#549,#477,#478);
#396=AXIS2_PLACEMENT_3D('',#550,#479,#480);
#397=AXIS2_PLACEMENT_3D('',#552,#481,#482);
#398=AXIS2_PLACEMENT_3D('',#553,#483,#484);
#399=AXIS2_PLACEMENT_3D('',#555,#485,#486);
#400=AXIS2_PLACEMENT_3D('',#556,#487,#488);
#401=AXIS2_PLACEMENT_3D('',#558,#489,#490);
#402=AXIS2_PLACEMENT_3D('',#559,#491,#492);
#403=DIRECTION('',(0.,0.,1.));
#404=DIRECTION('',(1.,0.,0.));
#405=DIRECTION('',(0.,0.,-1.));
#406=DIRECTION('',(1.,0.,0.));
#407=DIRECTION('',(0.,0.,-1.));
#408=DIRECTION('',(1.,0.,0.));
#409=DIRECTION('',(0.,0.,1.));
#410=DIRECTION('',(-1.,0.,0.));
#411=DIRECTION('',(0.,0.,-1.));
#412=DIRECTION('',(1.,0.,0.));
#413=DIRECTION('',(0.,0.,-1.));
#414=DIRECTION('',(1.,0.,6.41552234424513E-017));
#415=DIRECTION('',(0.,0.,-1.));
#416=DIRECTION('',(1.,0.,0.));
#417=DIRECTION('',(0.,0.,-1.));
#418=DIRECTION('',(1.,0.,0.));
#419=DIRECTION('',(0.,0.,-1.));
#420=DIRECTION('',(1.,0.,0.));
#421=DIRECTION('',(0.,0.,-1.));
#422=DIRECTION('',(1.,0.,0.));
#423=DIRECTION('',(0.,0.,-1.));
#424=DIRECTION('',(1.,0.,0.));
#425=DIRECTION('',(0.,0.,1.));
#426=DIRECTION('',(-1.,0.,0.));
#427=DIRECTION('',(0.,0.,-1.));
#428=DIRECTION('',(1.,0.,0.));
#429=DIRECTION('',(0.,0.,-1.));
#430=DIRECTION('',(1.,0.,0.));
#431=DIRECTION('',(0.,0.,-1.));
#432=DIRECTION('',(1.,0.,0.));
#433=DIRECTION('',(0.,0.,-1.));
#434=DIRECTION('',(1.,0.,0.));
#435=DIRECTION('',(0.,0.,-1.));
#436=DIRECTION('',(1.,0.,0.));
#437=DIRECTION('',(0.,0.,-1.));
#438=DIRECTION('',(1.,0.,0.));
#439=DIRECTION('',(0.,0.,-1.));
#440=DIRECTION('',(1.,0.,0.));
#441=DIRECTION('',(0.,0.,-1.));
#442=DIRECTION('',(1.,0.,0.));
#443=DIRECTION('',(0.,0.,1.));
#444=DIRECTION('',(-1.,0.,-1.35142543653856E-017));
#445=DIRECTION('',(0.,0.,-1.));
#446=DIRECTION('',(1.,0.,0.));
#447=DIRECTION('',(0.,0.,-1.));
#448=DIRECTION('',(1.,0.,0.));
#449=DIRECTION('',(0.,0.,-1.));
#450=DIRECTION('',(1.,0.,0.));
#451=DIRECTION('',(0.,0.,-1.));
#452=DIRECTION('',(1.,0.,0.));
#453=DIRECTION('',(0.,0.,-1.));
#454=DIRECTION('',(1.,0.,0.));
#455=DIRECTION('',(0.,0.,-1.));
#456=DIRECTION('',(1.,0.,0.));
#457=DIRECTION('',(0.,0.,-1.));
#458=DIRECTION('',(1.,0.,0.));
#459=DIRECTION('',(0.,0.,-1.));
#460=DIRECTION('',(1.,0.,0.));
#461=DIRECTION('',(0.,0.,-1.));
#462=DIRECTION('',(1.,0.,9.58263040594831E-017));
#463=DIRECTION('',(0.,0.,-1.));
#464=DIRECTION('',(1.,0.,0.));
#465=DIRECTION('',(0.,0.,-1.));
#466=DIRECTION('',(1.,0.,0.));
#467=DIRECTION('',(0.,0.,1.));
#468=DIRECTION('',(-1.,0.,0.));
#469=DIRECTION('',(0.,0.,1.));
#470=DIRECTION('',(1.,0.,0.));
#471=DIRECTION('',(0.,0.,1.));
#472=DIRECTION('',(1.,0.,0.));
#473=DIRECTION('',(0.,0.,1.));
#474=DIRECTION('',(1.,0.,0.));
#475=DIRECTION('',(0.,0.,1.));
#476=DIRECTION('',(1.,0.,0.));
#477=DIRECTION('',(0.,0.,1.));
#478=DIRECTION('',(1.,0.,0.));
#479=DIRECTION('',(0.,0.,1.));
#480=DIRECTION('',(1.,0.,0.));
#481=DIRECTION('',(0.,0.,1.));
#482=DIRECTION('',(1.,0.,0.));
#483=DIRECTION('',(0.,0.,1.));
#484=DIRECTION('',(1.,0.,0.));
#485=DIRECTION('',(0.,0.,-1.));
#486=DIRECTION('',(-1.,0.,0.));
#487=DIRECTION('',(0.,0.,1.));
#488=DIRECTION('',(1.,0.,0.));
#489=DIRECTION('',(0.,0.,1.));
#490=DIRECTION('',(1.,0.,0.));
#491=DIRECTION('',(0.,0.,1.));
#492=DIRECTION('',(1.,0.,0.));
#493=CARTESIAN_POINT('',(0.,0.,0.));
#494=CARTESIAN_POINT('',(0.,0.,0.));
#495=CARTESIAN_POINT('',(26.9,0.,0.));
#496=CARTESIAN_POINT('',(0.,0.,0.));
#497=CARTESIAN_POINT('',(21.,0.,0.));
#498=CARTESIAN_POINT('',(0.,-26.9,0.));
#499=CARTESIAN_POINT('',(0.,0.,-0.6));
#500=CARTESIAN_POINT('',(27.5,0.,-0.6));
#501=CARTESIAN_POINT('',(0.,0.,-0.6));
#502=CARTESIAN_POINT('',(0.,0.,-1.7));
#503=CARTESIAN_POINT('',(27.5,0.,-1.7));
#504=CARTESIAN_POINT('',(0.,0.,-13.5));
#505=CARTESIAN_POINT('',(0.,0.,-2.5));
#506=CARTESIAN_POINT('',(28.3,0.,-2.5));
#507=CARTESIAN_POINT('',(0.,0.,-1.7));
#508=CARTESIAN_POINT('',(0.,0.,-2.5));
#509=CARTESIAN_POINT('',(55.6391,0.,-2.5));
#510=CARTESIAN_POINT('',(0.,-55.6391,-2.5));
#511=CARTESIAN_POINT('',(0.,0.,-7.5));
#512=CARTESIAN_POINT('',(60.6391,0.,-7.5));
#513=CARTESIAN_POINT('',(0.,0.,-7.5));
#514=CARTESIAN_POINT('',(0.,0.,-8.49999999999999));
#515=CARTESIAN_POINT('',(60.6391,0.,-8.49999999999999));
#516=CARTESIAN_POINT('',(0.,0.,-13.5));
#517=CARTESIAN_POINT('',(0.,0.,-16.));
#518=CARTESIAN_POINT('',(21.,0.,-16.));
#519=CARTESIAN_POINT('',(0.,0.,-16.));
#520=CARTESIAN_POINT('',(26.9,0.,-16.));
#521=CARTESIAN_POINT('',(0.,-21.,-16.));
#522=CARTESIAN_POINT('',(0.,0.,-15.4));
#523=CARTESIAN_POINT('',(27.5,0.,-15.4));
#524=CARTESIAN_POINT('',(0.,0.,-16.));
#525=CARTESIAN_POINT('',(0.,0.,-14.3));
#526=CARTESIAN_POINT('',(27.5,0.,-14.3));
#527=CARTESIAN_POINT('',(0.,0.,-13.5));
#528=CARTESIAN_POINT('',(0.,0.,-13.5));
#529=CARTESIAN_POINT('',(28.3,0.,-13.5));
#530=CARTESIAN_POINT('',(0.,0.,-14.3));
#531=CARTESIAN_POINT('',(0.,0.,-13.5));
#532=CARTESIAN_POINT('',(55.6391,0.,-13.5));
#533=CARTESIAN_POINT('',(0.,-28.3,-13.5));
#534=CARTESIAN_POINT('',(0.,0.,-8.5));
#535=CARTESIAN_POINT('',(0.,0.,-15.));
#536=CARTESIAN_POINT('',(20.00625,0.,-15.));
#537=CARTESIAN_POINT('',(0.,0.,-15.));
#538=CARTESIAN_POINT('',(0.,0.,-0.999999999999999));
#539=CARTESIAN_POINT('',(20.00625,0.,-0.999999999999999));
#540=CARTESIAN_POINT('',(0.,0.,-13.5));
#541=CARTESIAN_POINT('',(0.,0.,0.));
#542=CARTESIAN_POINT('',(0.,0.,-8.05));
#543=CARTESIAN_POINT('',(63.5,0.,-8.05));
#544=CARTESIAN_POINT('',(0.,0.,-14.));
#545=CARTESIAN_POINT('',(57.55,0.,-14.));
#546=CARTESIAN_POINT('',(0.,0.,-8.05));
#547=CARTESIAN_POINT('',(0.,0.,-7.95));
#548=CARTESIAN_POINT('',(63.5,0.,-7.95));
#549=CARTESIAN_POINT('',(0.,0.,66.2952357642815));
#550=CARTESIAN_POINT('',(0.,0.,-2.));
#551=CARTESIAN_POINT('',(57.55,0.,-2.));
#552=CARTESIAN_POINT('',(0.,0.,-7.95000000000001));
#553=CARTESIAN_POINT('',(0.,0.,-2.));
#554=CARTESIAN_POINT('',(28.5,0.,-2.));
#555=CARTESIAN_POINT('',(-57.55,0.,-2.));
#556=CARTESIAN_POINT('',(0.,0.,-14.));
#557=CARTESIAN_POINT('',(28.5,0.,-14.));
#558=CARTESIAN_POINT('',(0.,0.,66.2952357642815));
#559=CARTESIAN_POINT('',(-28.5,0.,-14.));
#560=MECHANICAL_DESIGN_GEOMETRIC_PRESENTATION_REPRESENTATION('',(#96,#97),
#561);
#561=(
GEOMETRIC_REPRESENTATION_CONTEXT(3)
GLOBAL_UNCERTAINTY_ASSIGNED_CONTEXT((#562))
GLOBAL_UNIT_ASSIGNED_CONTEXT((#568,#564,#563))
REPRESENTATION_CONTEXT('9384_2_3D','TOP_LEVEL_ASSEMBLY_PART')
);
#562=UNCERTAINTY_MEASURE_WITH_UNIT(LENGTH_MEASURE(2.E-005),#568,
'DISTANCE_ACCURACY_VALUE','Maximum Tolerance applied to model');
#563=(
NAMED_UNIT(*)
SI_UNIT($,.STERADIAN.)
SOLID_ANGLE_UNIT()
);
#564=(
CONVERSION_BASED_UNIT('DEGREE',#566)
NAMED_UNIT(#565)
PLANE_ANGLE_UNIT()
);
#565=DIMENSIONAL_EXPONENTS(0.,0.,0.,0.,0.,0.,0.);
#566=PLANE_ANGLE_MEASURE_WITH_UNIT(PLANE_ANGLE_MEASURE(0.0174532925),#567);
#567=(
NAMED_UNIT(*)
PLANE_ANGLE_UNIT()
SI_UNIT($,.RADIAN.)
);
#568=(
LENGTH_UNIT()
NAMED_UNIT(*)
SI_UNIT(.MILLI.,.METRE.)
);
ENDSEC;
END-ISO-10303-21;
