ISO-10303-21;
HEADER;
/* Generated by software containing ST-Developer
 * from STEP Tools, Inc. (www.steptools.com) 
 */
/* OPTION: using custom schema-name function */

FILE_DESCRIPTION(
/* description */ (''),
/* implementation_level */ '2;1');

FILE_NAME(
/* name */ '1493819470494.stp',
/* time_stamp */ '2017-05-03T15:51:14+02:00',
/* author */ (''),
/* organization */ ('SMS'),
/* preprocessor_version */ 'ST-DEVELOPER v15',
/* originating_system */ 'SIEMENS PLM Software NX 8.5',
/* authorisation */ '');

FILE_SCHEMA (('AUTOMOTIVE_DESIGN { 1 0 10303 214 3 1 1 1 }'));
ENDSEC;

DATA;
#10=CONSTRUCTIVE_GEOMETRY_REPRESENTATION_RELATIONSHIP(
'supplemental geometry','',#24,#11);
#11=CONSTRUCTIVE_GEOMETRY_REPRESENTATION('supplemental geometry',(#287,
#288,#289),#488);
#12=SHAPE_REPRESENTATION_RELATIONSHIP('None',
'relationship between 200843128MOD000_02-None and 200843128MOD000_02-N
one',#24,#13);
#13=ADVANCED_BREP_SHAPE_REPRESENTATION('200843128MOD000_02-None',(#30),
#488);
#14=SHAPE_DEFINITION_REPRESENTATION(#15,#24);
#15=PRODUCT_DEFINITION_SHAPE('','',#16);
#16=PRODUCT_DEFINITION(' ','',#18,#17);
#17=PRODUCT_DEFINITION_CONTEXT('part definition',#23,'design');
#18=PRODUCT_DEFINITION_FORMATION_WITH_SPECIFIED_SOURCE(' ',' ',#20,
 .NOT_KNOWN.);
#19=PRODUCT_RELATED_PRODUCT_CATEGORY('part','',(#20));
#20=PRODUCT('200843128MOD000_02','200843128MOD000_02',' ',(#21));
#21=PRODUCT_CONTEXT(' ',#23,'mechanical');
#22=APPLICATION_PROTOCOL_DEFINITION('international standard',
'automotive_design',2010,#23);
#23=APPLICATION_CONTEXT(
'core data for automotive mechanical design processes');
#24=SHAPE_REPRESENTATION('200843128MOD000_02-None',(#286),#488);
#25=SURFACE_STYLE_USAGE(.BOTH.,#26);
#26=SURFACE_SIDE_STYLE('',(#27));
#27=SURFACE_STYLE_FILL_AREA(#28);
#28=FILL_AREA_STYLE('',(#29));
#29=FILL_AREA_STYLE_COLOUR('',#282);
#30=MANIFOLD_SOLID_BREP('',#31);
#31=CLOSED_SHELL('',(#83,#84,#85,#86,#87,#88,#89,#90,#91,#92,#93,#94,#95,
#96,#97,#98,#99,#100,#101,#102));
#32=LINE('',#444,#40);
#33=LINE('',#448,#41);
#34=LINE('',#449,#42);
#35=LINE('',#454,#43);
#36=LINE('',#473,#44);
#37=LINE('',#475,#45);
#38=LINE('',#478,#46);
#39=LINE('',#480,#47);
#40=VECTOR('',#363,1.);
#41=VECTOR('',#366,1.);
#42=VECTOR('',#367,1.);
#43=VECTOR('',#370,1.);
#44=VECTOR('',#395,1.);
#45=VECTOR('',#398,1.);
#46=VECTOR('',#403,1.);
#47=VECTOR('',#406,1.);
#48=CONICAL_SURFACE('',#298,11.,30.);
#49=CONICAL_SURFACE('',#299,11.,30.);
#50=CONICAL_SURFACE('',#313,7.23066775003438,2.2);
#51=CONICAL_SURFACE('',#315,5.96941692684626,5.99999999999999);
#52=CONICAL_SURFACE('',#325,9.65,60.);
#53=CYLINDRICAL_SURFACE('',#297,11.);
#54=CYLINDRICAL_SURFACE('',#302,4.6);
#55=CYLINDRICAL_SURFACE('',#309,9.65);
#56=CYLINDRICAL_SURFACE('',#326,9.5);
#57=FACE_BOUND('',#123,.T.);
#58=FACE_BOUND('',#124,.T.);
#59=FACE_BOUND('',#125,.T.);
#60=FACE_BOUND('',#126,.T.);
#61=FACE_BOUND('',#127,.T.);
#62=FACE_BOUND('',#128,.T.);
#63=FACE_BOUND('',#129,.T.);
#64=FACE_BOUND('',#130,.T.);
#65=FACE_BOUND('',#131,.T.);
#66=FACE_BOUND('',#132,.T.);
#67=FACE_BOUND('',#133,.T.);
#68=FACE_BOUND('',#134,.T.);
#69=FACE_BOUND('',#135,.T.);
#70=FACE_BOUND('',#136,.T.);
#71=FACE_BOUND('',#137,.T.);
#72=FACE_BOUND('',#138,.T.);
#73=FACE_BOUND('',#139,.T.);
#74=FACE_BOUND('',#140,.T.);
#75=FACE_BOUND('',#141,.T.);
#76=FACE_BOUND('',#142,.T.);
#77=FACE_BOUND('',#143,.T.);
#78=FACE_BOUND('',#144,.T.);
#79=FACE_BOUND('',#152,.T.);
#80=FACE_BOUND('',#153,.T.);
#81=FACE_BOUND('',#154,.T.);
#82=FACE_BOUND('',#155,.T.);
#83=ADVANCED_FACE('',(#114),#103,.T.);
#84=ADVANCED_FACE('',(#57,#58),#104,.T.);
#85=ADVANCED_FACE('',(#59,#60),#53,.T.);
#86=ADVANCED_FACE('',(#61,#62),#48,.T.);
#87=ADVANCED_FACE('',(#63,#64),#49,.T.);
#88=ADVANCED_FACE('',(#65,#66),#54,.T.);
#89=ADVANCED_FACE('CU_SU1',(#67,#68,#69,#70),#55,.T.);
#90=ADVANCED_FACE('',(#71,#72),#105,.F.);
#91=ADVANCED_FACE('',(#73,#74),#50,.T.);
#92=ADVANCED_FACE('',(#75,#76),#51,.T.);
#93=ADVANCED_FACE('',(#77,#78),#106,.F.);
#94=ADVANCED_FACE('',(#115),#107,.F.);
#95=ADVANCED_FACE('',(#116),#108,.T.);
#96=ADVANCED_FACE('CU_SU3',(#117),#109,.T.);
#97=ADVANCED_FACE('',(#118),#110,.T.);
#98=ADVANCED_FACE('',(#119),#111,.T.);
#99=ADVANCED_FACE('CU_SU4',(#120),#112,.T.);
#100=ADVANCED_FACE('',(#121),#113,.T.);
#101=ADVANCED_FACE('',(#79,#80),#52,.T.);
#102=ADVANCED_FACE('',(#81,#82),#56,.T.);
#103=PLANE('',#291);
#104=PLANE('',#294);
#105=PLANE('',#311);
#106=PLANE('',#316);
#107=PLANE('',#317);
#108=PLANE('',#318);
#109=PLANE('',#319);
#110=PLANE('',#320);
#111=PLANE('',#321);
#112=PLANE('',#322);
#113=PLANE('',#323);
#114=FACE_OUTER_BOUND('',#122,.T.);
#115=FACE_OUTER_BOUND('',#145,.T.);
#116=FACE_OUTER_BOUND('',#146,.T.);
#117=FACE_OUTER_BOUND('',#147,.T.);
#118=FACE_OUTER_BOUND('',#148,.T.);
#119=FACE_OUTER_BOUND('',#149,.T.);
#120=FACE_OUTER_BOUND('',#150,.T.);
#121=FACE_OUTER_BOUND('',#151,.T.);
#122=EDGE_LOOP('',(#156));
#123=EDGE_LOOP('',(#157));
#124=EDGE_LOOP('',(#158));
#125=EDGE_LOOP('',(#159));
#126=EDGE_LOOP('',(#160));
#127=EDGE_LOOP('',(#161));
#128=EDGE_LOOP('',(#162));
#129=EDGE_LOOP('',(#163));
#130=EDGE_LOOP('',(#164));
#131=EDGE_LOOP('',(#165));
#132=EDGE_LOOP('',(#166));
#133=EDGE_LOOP('',(#167,#168,#169,#170));
#134=EDGE_LOOP('',(#171,#172,#173,#174));
#135=EDGE_LOOP('',(#175));
#136=EDGE_LOOP('',(#176));
#137=EDGE_LOOP('',(#177));
#138=EDGE_LOOP('',(#178));
#139=EDGE_LOOP('',(#179));
#140=EDGE_LOOP('',(#180));
#141=EDGE_LOOP('',(#181));
#142=EDGE_LOOP('',(#182));
#143=EDGE_LOOP('',(#183));
#144=EDGE_LOOP('',(#184));
#145=EDGE_LOOP('',(#185));
#146=EDGE_LOOP('',(#186,#187));
#147=EDGE_LOOP('',(#188,#189,#190,#191));
#148=EDGE_LOOP('',(#192,#193));
#149=EDGE_LOOP('',(#194,#195));
#150=EDGE_LOOP('',(#196,#197,#198,#199));
#151=EDGE_LOOP('',(#200,#201));
#152=EDGE_LOOP('',(#202));
#153=EDGE_LOOP('',(#203));
#154=EDGE_LOOP('',(#204));
#155=EDGE_LOOP('',(#205));
#156=ORIENTED_EDGE('',*,*,#227,.T.);
#157=ORIENTED_EDGE('',*,*,#228,.F.);
#158=ORIENTED_EDGE('',*,*,#229,.T.);
#159=ORIENTED_EDGE('',*,*,#230,.T.);
#160=ORIENTED_EDGE('',*,*,#231,.T.);
#161=ORIENTED_EDGE('',*,*,#227,.F.);
#162=ORIENTED_EDGE('',*,*,#230,.F.);
#163=ORIENTED_EDGE('',*,*,#229,.F.);
#164=ORIENTED_EDGE('',*,*,#231,.F.);
#165=ORIENTED_EDGE('',*,*,#232,.F.);
#166=ORIENTED_EDGE('',*,*,#233,.T.);
#167=ORIENTED_EDGE('',*,*,#234,.F.);
#168=ORIENTED_EDGE('',*,*,#235,.F.);
#169=ORIENTED_EDGE('',*,*,#236,.F.);
#170=ORIENTED_EDGE('',*,*,#237,.F.);
#171=ORIENTED_EDGE('',*,*,#238,.F.);
#172=ORIENTED_EDGE('',*,*,#239,.F.);
#173=ORIENTED_EDGE('',*,*,#240,.F.);
#174=ORIENTED_EDGE('',*,*,#241,.F.);
#175=ORIENTED_EDGE('',*,*,#242,.F.);
#176=ORIENTED_EDGE('',*,*,#243,.T.);
#177=ORIENTED_EDGE('',*,*,#244,.T.);
#178=ORIENTED_EDGE('',*,*,#243,.F.);
#179=ORIENTED_EDGE('',*,*,#244,.F.);
#180=ORIENTED_EDGE('',*,*,#245,.T.);
#181=ORIENTED_EDGE('',*,*,#245,.F.);
#182=ORIENTED_EDGE('',*,*,#246,.T.);
#183=ORIENTED_EDGE('',*,*,#232,.T.);
#184=ORIENTED_EDGE('',*,*,#246,.F.);
#185=ORIENTED_EDGE('',*,*,#233,.F.);
#186=ORIENTED_EDGE('',*,*,#239,.T.);
#187=ORIENTED_EDGE('',*,*,#247,.F.);
#188=ORIENTED_EDGE('',*,*,#240,.T.);
#189=ORIENTED_EDGE('',*,*,#247,.T.);
#190=ORIENTED_EDGE('',*,*,#238,.T.);
#191=ORIENTED_EDGE('',*,*,#248,.F.);
#192=ORIENTED_EDGE('',*,*,#241,.T.);
#193=ORIENTED_EDGE('',*,*,#248,.T.);
#194=ORIENTED_EDGE('',*,*,#234,.T.);
#195=ORIENTED_EDGE('',*,*,#249,.F.);
#196=ORIENTED_EDGE('',*,*,#235,.T.);
#197=ORIENTED_EDGE('',*,*,#249,.T.);
#198=ORIENTED_EDGE('',*,*,#237,.T.);
#199=ORIENTED_EDGE('',*,*,#250,.F.);
#200=ORIENTED_EDGE('',*,*,#236,.T.);
#201=ORIENTED_EDGE('',*,*,#250,.T.);
#202=ORIENTED_EDGE('',*,*,#251,.T.);
#203=ORIENTED_EDGE('',*,*,#242,.T.);
#204=ORIENTED_EDGE('',*,*,#228,.T.);
#205=ORIENTED_EDGE('',*,*,#251,.F.);
#206=VERTEX_POINT('',#422);
#207=VERTEX_POINT('',#425);
#208=VERTEX_POINT('',#427);
#209=VERTEX_POINT('',#430);
#210=VERTEX_POINT('',#432);
#211=VERTEX_POINT('',#437);
#212=VERTEX_POINT('',#439);
#213=VERTEX_POINT('',#442);
#214=VERTEX_POINT('',#443);
#215=VERTEX_POINT('',#445);
#216=VERTEX_POINT('',#447);
#217=VERTEX_POINT('',#450);
#218=VERTEX_POINT('',#451);
#219=VERTEX_POINT('',#453);
#220=VERTEX_POINT('',#455);
#221=VERTEX_POINT('',#458);
#222=VERTEX_POINT('',#460);
#223=VERTEX_POINT('',#463);
#224=VERTEX_POINT('',#466);
#225=VERTEX_POINT('',#469);
#226=VERTEX_POINT('',#484);
#227=EDGE_CURVE('',#206,#206,#252,.T.);
#228=EDGE_CURVE('',#207,#207,#253,.T.);
#229=EDGE_CURVE('',#208,#208,#254,.T.);
#230=EDGE_CURVE('',#209,#209,#255,.T.);
#231=EDGE_CURVE('',#210,#210,#256,.T.);
#232=EDGE_CURVE('',#211,#211,#257,.T.);
#233=EDGE_CURVE('',#212,#212,#258,.T.);
#234=EDGE_CURVE('',#213,#214,#259,.T.);
#235=EDGE_CURVE('',#215,#213,#32,.T.);
#236=EDGE_CURVE('',#216,#215,#260,.T.);
#237=EDGE_CURVE('',#214,#216,#33,.T.);
#238=EDGE_CURVE('',#217,#218,#34,.T.);
#239=EDGE_CURVE('',#219,#217,#261,.T.);
#240=EDGE_CURVE('',#220,#219,#35,.T.);
#241=EDGE_CURVE('',#218,#220,#262,.T.);
#242=EDGE_CURVE('',#221,#221,#263,.T.);
#243=EDGE_CURVE('',#222,#222,#264,.T.);
#244=EDGE_CURVE('',#223,#223,#265,.T.);
#245=EDGE_CURVE('',#224,#224,#266,.T.);
#246=EDGE_CURVE('',#225,#225,#267,.T.);
#247=EDGE_CURVE('',#219,#217,#36,.T.);
#248=EDGE_CURVE('',#220,#218,#37,.T.);
#249=EDGE_CURVE('',#213,#214,#38,.T.);
#250=EDGE_CURVE('',#215,#216,#39,.T.);
#251=EDGE_CURVE('',#226,#226,#268,.T.);
#252=CIRCLE('',#290,10.4226497308104);
#253=CIRCLE('',#292,9.5);
#254=CIRCLE('',#293,10.4226497308104);
#255=CIRCLE('',#295,11.);
#256=CIRCLE('',#296,11.);
#257=CIRCLE('',#300,4.6);
#258=CIRCLE('',#301,4.6);
#259=CIRCLE('',#303,9.65);
#260=CIRCLE('',#304,9.65);
#261=CIRCLE('',#305,9.65);
#262=CIRCLE('',#306,9.65);
#263=CIRCLE('',#307,9.65);
#264=CIRCLE('',#308,9.65);
#265=CIRCLE('',#310,7.36512418747422);
#266=CIRCLE('',#312,7.23066775003438);
#267=CIRCLE('',#314,5.96941692684626);
#268=CIRCLE('',#324,9.5);
#269=PRESENTATION_LAYER_ASSIGNMENT('1','Layer 1',(#287,#288,#289,#30));
#270=STYLED_ITEM('',(#274),#287);
#271=STYLED_ITEM('',(#275),#288);
#272=STYLED_ITEM('',(#276),#289);
#273=STYLED_ITEM('',(#277),#30);
#274=PRESENTATION_STYLE_ASSIGNMENT((#278));
#275=PRESENTATION_STYLE_ASSIGNMENT((#279));
#276=PRESENTATION_STYLE_ASSIGNMENT((#280));
#277=PRESENTATION_STYLE_ASSIGNMENT((#25));
#278=CURVE_STYLE('',#283,POSITIVE_LENGTH_MEASURE(0.13),#281);
#279=CURVE_STYLE('',#284,POSITIVE_LENGTH_MEASURE(0.13),#281);
#280=CURVE_STYLE('',#285,POSITIVE_LENGTH_MEASURE(0.13),#281);
#281=COLOUR_RGB('Strong Emerald',0.,0.803921568627451,0.525490196078431);
#282=COLOUR_RGB('TLS_NOCUT',0.499992370489052,0.499992370489052,0.499992370489052);
#283=DRAUGHTING_PRE_DEFINED_CURVE_FONT('continuous');
#284=DRAUGHTING_PRE_DEFINED_CURVE_FONT('continuous');
#285=DRAUGHTING_PRE_DEFINED_CURVE_FONT('continuous');
#286=AXIS2_PLACEMENT_3D('',#417,#327,#328);
#287=AXIS2_PLACEMENT_3D('PCS',#418,#329,#330);
#288=AXIS2_PLACEMENT_3D('MCS',#419,#331,#332);
#289=AXIS2_PLACEMENT_3D('CSW',#420,#333,#334);
#290=AXIS2_PLACEMENT_3D('',#421,#335,#336);
#291=AXIS2_PLACEMENT_3D('',#423,#337,#338);
#292=AXIS2_PLACEMENT_3D('',#424,#339,#340);
#293=AXIS2_PLACEMENT_3D('',#426,#341,#342);
#294=AXIS2_PLACEMENT_3D('',#428,#343,#344);
#295=AXIS2_PLACEMENT_3D('',#429,#345,#346);
#296=AXIS2_PLACEMENT_3D('',#431,#347,#348);
#297=AXIS2_PLACEMENT_3D('',#433,#349,#350);
#298=AXIS2_PLACEMENT_3D('',#434,#351,#352);
#299=AXIS2_PLACEMENT_3D('',#435,#353,#354);
#300=AXIS2_PLACEMENT_3D('',#436,#355,#356);
#301=AXIS2_PLACEMENT_3D('',#438,#357,#358);
#302=AXIS2_PLACEMENT_3D('',#440,#359,#360);
#303=AXIS2_PLACEMENT_3D('',#441,#361,#362);
#304=AXIS2_PLACEMENT_3D('',#446,#364,#365);
#305=AXIS2_PLACEMENT_3D('',#452,#368,#369);
#306=AXIS2_PLACEMENT_3D('',#456,#371,#372);
#307=AXIS2_PLACEMENT_3D('',#457,#373,#374);
#308=AXIS2_PLACEMENT_3D('',#459,#375,#376);
#309=AXIS2_PLACEMENT_3D('',#461,#377,#378);
#310=AXIS2_PLACEMENT_3D('',#462,#379,#380);
#311=AXIS2_PLACEMENT_3D('',#464,#381,#382);
#312=AXIS2_PLACEMENT_3D('',#465,#383,#384);
#313=AXIS2_PLACEMENT_3D('',#467,#385,#386);
#314=AXIS2_PLACEMENT_3D('',#468,#387,#388);
#315=AXIS2_PLACEMENT_3D('',#470,#389,#390);
#316=AXIS2_PLACEMENT_3D('',#471,#391,#392);
#317=AXIS2_PLACEMENT_3D('',#472,#393,#394);
#318=AXIS2_PLACEMENT_3D('',#474,#396,#397);
#319=AXIS2_PLACEMENT_3D('',#476,#399,#400);
#320=AXIS2_PLACEMENT_3D('',#477,#401,#402);
#321=AXIS2_PLACEMENT_3D('',#479,#404,#405);
#322=AXIS2_PLACEMENT_3D('',#481,#407,#408);
#323=AXIS2_PLACEMENT_3D('',#482,#409,#410);
#324=AXIS2_PLACEMENT_3D('',#483,#411,#412);
#325=AXIS2_PLACEMENT_3D('',#485,#413,#414);
#326=AXIS2_PLACEMENT_3D('',#486,#415,#416);
#327=DIRECTION('',(0.,0.,1.));
#328=DIRECTION('',(1.,0.,0.));
#329=DIRECTION('',(0.,0.,1.));
#330=DIRECTION('',(1.,0.,0.));
#331=DIRECTION('',(0.,0.,1.));
#332=DIRECTION('',(1.,0.,0.));
#333=DIRECTION('',(0.,0.,1.));
#334=DIRECTION('',(1.,0.,0.));
#335=DIRECTION('',(0.,0.,-1.));
#336=DIRECTION('',(-0.5,-0.866025403784439,0.));
#337=DIRECTION('',(0.,0.,-1.));
#338=DIRECTION('',(-0.5,-0.866025403784439,0.));
#339=DIRECTION('',(0.,0.,1.));
#340=DIRECTION('',(1.,0.,0.));
#341=DIRECTION('',(0.,0.,1.));
#342=DIRECTION('',(0.5,0.866025403784439,0.));
#343=DIRECTION('',(0.,0.,1.));
#344=DIRECTION('',(0.5,0.866025403784439,0.));
#345=DIRECTION('',(0.,0.,1.));
#346=DIRECTION('',(-0.5,-0.866025403784439,0.));
#347=DIRECTION('',(0.,0.,-1.));
#348=DIRECTION('',(0.5,0.866025403784439,0.));
#349=DIRECTION('',(0.,0.,1.));
#350=DIRECTION('',(0.5,0.866025403784439,0.));
#351=DIRECTION('',(0.,0.,1.));
#352=DIRECTION('',(0.5,0.866025403784439,-5.89690722285607E-017));
#353=DIRECTION('',(0.,0.,-1.));
#354=DIRECTION('',(-0.5,-0.866025403784439,8.25567011199849E-017));
#355=DIRECTION('',(0.,0.,-1.));
#356=DIRECTION('',(-1.,0.,0.));
#357=DIRECTION('',(0.,0.,-1.));
#358=DIRECTION('',(-1.,0.,0.));
#359=DIRECTION('',(0.,0.,-1.));
#360=DIRECTION('',(-1.,0.,0.));
#361=DIRECTION('',(0.,0.,1.));
#362=DIRECTION('',(1.,0.,0.));
#363=DIRECTION('',(0.,0.,-1.));
#364=DIRECTION('',(0.,2.16840434497101E-016,-1.));
#365=DIRECTION('',(0.,-1.,-2.24705113468498E-016));
#366=DIRECTION('',(0.,0.,1.));
#367=DIRECTION('',(0.,0.,1.));
#368=DIRECTION('',(0.,0.,1.));
#369=DIRECTION('',(1.,0.,0.));
#370=DIRECTION('',(0.,0.,-1.));
#371=DIRECTION('',(0.,-2.16840434497101E-016,-1.));
#372=DIRECTION('',(0.,-1.,2.24705113468498E-016));
#373=DIRECTION('',(0.,0.,-1.));
#374=DIRECTION('',(-1.,0.,0.));
#375=DIRECTION('',(0.,0.,-1.));
#376=DIRECTION('',(-1.,0.,0.));
#377=DIRECTION('',(0.,0.,-1.));
#378=DIRECTION('',(-1.,0.,0.));
#379=DIRECTION('',(0.,0.,-1.));
#380=DIRECTION('',(-1.,0.,0.));
#381=DIRECTION('',(0.,0.,-1.));
#382=DIRECTION('',(-1.,0.,0.));
#383=DIRECTION('',(0.,0.,-1.));
#384=DIRECTION('',(-1.,0.,0.));
#385=DIRECTION('',(0.,0.,-1.));
#386=DIRECTION('',(-1.,0.,-1.14959632444314E-015));
#387=DIRECTION('',(0.,0.,-1.));
#388=DIRECTION('',(-1.,0.,0.));
#389=DIRECTION('',(0.,0.,-1.));
#390=DIRECTION('',(-1.,0.,-3.74826636215048E-016));
#391=DIRECTION('',(0.,0.,-1.));
#392=DIRECTION('',(-1.,0.,0.));
#393=DIRECTION('',(0.,0.,-1.));
#394=DIRECTION('',(-1.,0.,0.));
#395=DIRECTION('',(-1.,0.,0.));
#396=DIRECTION('',(0.,0.,1.));
#397=DIRECTION('',(1.,0.,0.));
#398=DIRECTION('',(-1.,0.,0.));
#399=DIRECTION('',(0.,1.,0.));
#400=DIRECTION('',(0.,0.,-1.));
#401=DIRECTION('',(0.,-2.16840434497101E-016,-1.));
#402=DIRECTION('',(0.,-1.,2.16840434497101E-016));
#403=DIRECTION('',(1.,0.,0.));
#404=DIRECTION('',(0.,0.,1.));
#405=DIRECTION('',(1.,0.,0.));
#406=DIRECTION('',(1.,0.,0.));
#407=DIRECTION('',(0.,-1.,0.));
#408=DIRECTION('',(0.,0.,-1.));
#409=DIRECTION('',(0.,2.16840434497101E-016,-1.));
#410=DIRECTION('',(0.,1.,2.16840434497101E-016));
#411=DIRECTION('',(0.,0.,1.));
#412=DIRECTION('',(1.,0.,0.));
#413=DIRECTION('',(0.,0.,1.));
#414=DIRECTION('',(1.,0.,-4.97996977563038E-018));
#415=DIRECTION('',(0.,0.,1.));
#416=DIRECTION('',(1.,0.,0.));
#417=CARTESIAN_POINT('',(0.,0.,0.));
#418=CARTESIAN_POINT('',(0.,0.,0.));
#419=CARTESIAN_POINT('',(0.,0.,0.));
#420=CARTESIAN_POINT('',(0.,0.,-26.5));
#421=CARTESIAN_POINT('',(-1.77635683940025E-015,0.,-38.));
#422=CARTESIAN_POINT('',(-5.21132486540519,-9.02627944162883,-38.));
#423=CARTESIAN_POINT('',(-1.77635683940025E-015,0.,-38.));
#424=CARTESIAN_POINT('',(-1.77635683940025E-015,0.,-19.6));
#425=CARTESIAN_POINT('',(9.5,0.,-19.6));
#426=CARTESIAN_POINT('',(-1.77635683940025E-015,0.,-19.6));
#427=CARTESIAN_POINT('',(5.21132486540519,9.02627944162883,-19.6));
#428=CARTESIAN_POINT('',(-1.77635683940025E-015,0.,-19.6));
#429=CARTESIAN_POINT('',(-1.77635683940025E-015,0.,-37.));
#430=CARTESIAN_POINT('',(-5.5,-9.52627944162883,-37.));
#431=CARTESIAN_POINT('',(-1.77635683940025E-015,0.,-20.6));
#432=CARTESIAN_POINT('',(5.5,9.52627944162883,-20.6));
#433=CARTESIAN_POINT('',(-1.77635683940025E-015,0.,-38.));
#434=CARTESIAN_POINT('',(-1.77635683940025E-015,0.,-37.));
#435=CARTESIAN_POINT('',(-1.77635683940025E-015,0.,-20.6));
#436=CARTESIAN_POINT('',(0.,0.,15.5));
#437=CARTESIAN_POINT('',(-4.6,0.,15.5));
#438=CARTESIAN_POINT('',(0.,0.,19.5));
#439=CARTESIAN_POINT('',(-4.6,0.,19.5));
#440=CARTESIAN_POINT('',(0.,0.,66.0749858115762));
#441=CARTESIAN_POINT('',(0.,0.,-7.95));
#442=CARTESIAN_POINT('',(-5.39652666073284,-8.,-7.95));
#443=CARTESIAN_POINT('',(5.39652666073284,-8.,-7.95));
#444=CARTESIAN_POINT('',(-5.39652666073281,-8.,66.0749858115762));
#445=CARTESIAN_POINT('',(-5.39652666073284,-8.,-2.05));
#446=CARTESIAN_POINT('',(0.,0.,-2.05));
#447=CARTESIAN_POINT('',(5.39652666073284,-8.,-2.05));
#448=CARTESIAN_POINT('',(5.39652666073281,-8.,66.0749858115762));
#449=CARTESIAN_POINT('',(-5.39652666073281,8.,66.0749858115762));
#450=CARTESIAN_POINT('',(-5.39652666073284,8.,-7.95));
#451=CARTESIAN_POINT('',(-5.39652666073284,8.,-2.05));
#452=CARTESIAN_POINT('',(0.,0.,-7.95));
#453=CARTESIAN_POINT('',(5.39652666073284,8.,-7.95));
#454=CARTESIAN_POINT('',(5.39652666073281,8.,66.0749858115762));
#455=CARTESIAN_POINT('',(5.39652666073284,8.,-2.05));
#456=CARTESIAN_POINT('',(0.,0.,-2.05));
#457=CARTESIAN_POINT('',(0.,0.,-10.));
#458=CARTESIAN_POINT('',(-9.65,0.,-10.));
#459=CARTESIAN_POINT('',(0.,0.,0.));
#460=CARTESIAN_POINT('',(-9.65,0.,0.));
#461=CARTESIAN_POINT('',(0.,0.,66.0749858115762));
#462=CARTESIAN_POINT('',(0.,0.,0.));
#463=CARTESIAN_POINT('',(-7.36512418747422,0.,0.));
#464=CARTESIAN_POINT('',(-7.36512418747422,0.,-1.77906761601312E-016));
#465=CARTESIAN_POINT('',(0.,0.,3.5));
#466=CARTESIAN_POINT('',(-7.23066775003438,0.,3.5));
#467=CARTESIAN_POINT('',(0.,0.,3.5));
#468=CARTESIAN_POINT('',(0.,0.,15.5));
#469=CARTESIAN_POINT('',(-5.96941692684626,0.,15.5));
#470=CARTESIAN_POINT('',(0.,0.,15.5));
#471=CARTESIAN_POINT('',(-4.6,0.,15.5));
#472=CARTESIAN_POINT('',(0.,0.,19.5));
#473=CARTESIAN_POINT('',(-10.,8.,-7.95));
#474=CARTESIAN_POINT('',(-10.,12.,-7.95));
#475=CARTESIAN_POINT('',(-10.,8.,-2.05));
#476=CARTESIAN_POINT('',(-10.,8.,-7.95));
#477=CARTESIAN_POINT('',(-10.,8.,-2.05));
#478=CARTESIAN_POINT('',(-10.,-8.,-7.95));
#479=CARTESIAN_POINT('',(-10.,-12.,-7.95));
#480=CARTESIAN_POINT('',(-10.,-8.,-2.05));
#481=CARTESIAN_POINT('',(-10.,-8.,-7.95));
#482=CARTESIAN_POINT('',(-10.,-8.,-2.05));
#483=CARTESIAN_POINT('',(-1.77635683940025E-015,0.,-10.0866025403784));
#484=CARTESIAN_POINT('',(9.5,0.,-10.0866025403784));
#485=CARTESIAN_POINT('',(-1.77635683940025E-015,0.,-10.));
#486=CARTESIAN_POINT('',(-1.77635683940025E-015,0.,-10.));
#487=MECHANICAL_DESIGN_GEOMETRIC_PRESENTATION_REPRESENTATION('',(#270,#271,
#272,#273),#488);
#488=(
GEOMETRIC_REPRESENTATION_CONTEXT(3)
GLOBAL_UNCERTAINTY_ASSIGNED_CONTEXT((#489))
GLOBAL_UNIT_ASSIGNED_CONTEXT((#495,#491,#490))
REPRESENTATION_CONTEXT('1493819470494','TOP_LEVEL_ASSEMBLY_PART')
);
#489=UNCERTAINTY_MEASURE_WITH_UNIT(LENGTH_MEASURE(2.E-005),#495,
'DISTANCE_ACCURACY_VALUE','Maximum Tolerance applied to model');
#490=(
NAMED_UNIT(*)
SI_UNIT($,.STERADIAN.)
SOLID_ANGLE_UNIT()
);
#491=(
CONVERSION_BASED_UNIT('DEGREE',#493)
NAMED_UNIT(#492)
PLANE_ANGLE_UNIT()
);
#492=DIMENSIONAL_EXPONENTS(0.,0.,0.,0.,0.,0.,0.);
#493=PLANE_ANGLE_MEASURE_WITH_UNIT(PLANE_ANGLE_MEASURE(0.0174532925),#494);
#494=(
NAMED_UNIT(*)
PLANE_ANGLE_UNIT()
SI_UNIT($,.RADIAN.)
);
#495=(
LENGTH_UNIT()
NAMED_UNIT(*)
SI_UNIT(.MILLI.,.METRE.)
);
ENDSEC;
END-ISO-10303-21;
