ISO-10303-21;
HEADER;
FILE_DESCRIPTION(
/* description */ ('3-D model version:1'),
/* implementation_level */ '2;1');
FILE_NAME(
/* name */ 'EH12-A11.7-SS-085',
/* time_stamp */ '2016-12-02T14:02:42',
/* author */ ('InteractiveCad'),
/* organization */ ('AB Sandvik Coromant'),
/* preprocessor_version */ 'ST-DEVELOPER v15',
/* originating_system */ 'SIEMENS PLM Software NX 8.5',
/* authorization */ '');
FILE_SCHEMA(('AUTOMOTIVE_DESIGN'));
ENDSEC;
DATA;
#10=SHAPE_REPRESENTATION_RELATIONSHIP('None','relationship between EH12-A11.7-SS-085-635461140589907096-1-None and EH12-A11.7-SS-085-635461140589907096-1-None',
     #92,#11);
#11=ADVANCED_BREP_SHAPE_REPRESENTATION('EH12-A11.7-SS-085-635461140589907096-1-None',
     (#102),#499);
#15=APPROVAL_PERSON_ORGANIZATION(#69,#24,#18);
#16=APPROVAL_PERSON_ORGANIZATION(#70,#25,#19);
#17=APPROVAL_PERSON_ORGANIZATION(#71,#26,#20);
#18=APPROVAL_ROLE('approver');
#19=APPROVAL_ROLE('approver');
#20=APPROVAL_ROLE('approver');
#21=APPROVAL_DATE_TIME(#39,#24);
#22=APPROVAL_DATE_TIME(#40,#25);
#23=APPROVAL_DATE_TIME(#41,#26);
#24=APPROVAL(#27,' ');
#25=APPROVAL(#28,' ');
#26=APPROVAL(#29,' ');
#27=APPROVAL_STATUS('not_yet_approved');
#28=APPROVAL_STATUS('not_yet_approved');
#29=APPROVAL_STATUS('not_yet_approved');
#31=SECURITY_CLASSIFICATION(' ',' ',#32);
#32=SECURITY_CLASSIFICATION_LEVEL('confidential');
#35=DATE_TIME_ROLE('creation_date');
#36=DATE_TIME_ROLE('classification_date');
#37=DATE_AND_TIME(#52,#42);
#38=DATE_AND_TIME(#53,#43);
#39=DATE_AND_TIME(#54,#44);
#40=DATE_AND_TIME(#55,#45);
#41=DATE_AND_TIME(#56,#46);
#42=LOCAL_TIME(0,0,0.0,#47);
#43=LOCAL_TIME(0,0,0.0,#48);
#44=LOCAL_TIME(0,0,0.0,#49);
#45=LOCAL_TIME(0,0,0.0,#50);
#46=LOCAL_TIME(0,0,0.0,#51);
#47=COORDINATED_UNIVERSAL_TIME_OFFSET(0,0,.BEHIND.);
#48=COORDINATED_UNIVERSAL_TIME_OFFSET(0,0,.BEHIND.);
#49=COORDINATED_UNIVERSAL_TIME_OFFSET(0,0,.BEHIND.);
#50=COORDINATED_UNIVERSAL_TIME_OFFSET(0,0,.BEHIND.);
#51=COORDINATED_UNIVERSAL_TIME_OFFSET(0,0,.BEHIND.);
#52=CALENDAR_DATE(0,1,1);
#53=CALENDAR_DATE(0,1,1);
#54=CALENDAR_DATE(0,1,1);
#55=CALENDAR_DATE(0,1,1);
#56=CALENDAR_DATE(0,1,1);
#61=PERSON_AND_ORGANIZATION_ROLE('creator');
#62=PERSON_AND_ORGANIZATION_ROLE('design_owner');
#63=PERSON_AND_ORGANIZATION_ROLE('design_supplier');
#64=PERSON_AND_ORGANIZATION_ROLE('classification_officer');
#65=PERSON_AND_ORGANIZATION(#79,#72);
#66=PERSON_AND_ORGANIZATION(#79,#73);
#67=PERSON_AND_ORGANIZATION(#79,#74);
#68=PERSON_AND_ORGANIZATION(#79,#75);
#69=PERSON_AND_ORGANIZATION(#79,#76);
#70=PERSON_AND_ORGANIZATION(#79,#77);
#71=PERSON_AND_ORGANIZATION(#79,#78);
#72=ORGANIZATION(' ',' ',' ');
#73=ORGANIZATION(' ',' ',' ');
#74=ORGANIZATION(' ',' ',' ');
#75=ORGANIZATION(' ',' ',' ');
#76=ORGANIZATION(' ',' ',' ');
#77=ORGANIZATION(' ',' ',' ');
#78=ORGANIZATION(' ',' ',' ');
#79=PERSON(' ',' ',' ',(' '),$,$);
#80=SHAPE_DEFINITION_REPRESENTATION(#81,#92);
#81=PRODUCT_DEFINITION_SHAPE('','',#82);
#82=PRODUCT_DEFINITION(' ','',#84,$);
#84=PRODUCT_DEFINITION_FORMATION_WITH_SPECIFIED_SOURCE(' ',' ',#86,.NOT_KNOWN.);
#85=PRODUCT_RELATED_PRODUCT_CATEGORY('detail','',(#86));
#86=PRODUCT('EH12-A11.7-SS-085-635461140589907096-1','EH12-A11.7-SS-085-635461140589907096-1',
     ' ',());
#87=PRODUCT_CATEGORY('part',' ');
#88=PRODUCT_CATEGORY(' ','');
#90=APPLICATION_PROTOCOL_DEFINITION('international standard','config_control_design',
     2010,#91);
#91=APPLICATION_CONTEXT('configuration controlled 3D designs of mechanical parts and assemblies');
#92=SHAPE_REPRESENTATION('EH12-A11.7-SS-085-635461140589907096-1-None',(#318),#499);
#93=PRESENTATION_LAYER_ASSIGNMENT('1','Layer 1',(#102));
#94=STYLED_ITEM('',(#95),#102);
#95=PRESENTATION_STYLE_ASSIGNMENT((#96));
#96=SURFACE_STYLE_USAGE(.BOTH.,#97);
#97=SURFACE_SIDE_STYLE('',(#98));
#98=SURFACE_STYLE_FILL_AREA(#99);
#99=FILL_AREA_STYLE('',(#100));
#100=FILL_AREA_STYLE_COLOUR('',#101);
#101=COLOUR_RGB('TLS_NOCUT',0.499992370489052,0.499992370489052,0.499992370489052);
#102=MANIFOLD_SOLID_BREP('NOCUT',#103);
#103=CLOSED_SHELL('',(#122,#123,#124,#125,#126,#127,#128,#129,#130,#131,#132,#133,
     #134,#135,#136,#137,#138,#139,#140,#141));
#104=VERTEX_LOOP('',#269);
#105=FACE_OUTER_BOUND('',#196,.T.);
#106=PLANE('',#331);
#107=PLANE('',#333);
#108=CONICAL_SURFACE('',#325,5.80046341555448,2.75825793206539);
#109=CONICAL_SURFACE('',#334,4.84725,45.0);
#110=CONICAL_SURFACE('',#336,0.0,59.0);
#111=CONICAL_SURFACE('',#340,2.775,75.0000000000006);
#112=CONICAL_SURFACE('',#344,3.75464583834813,20.0000000000001);
#113=CONICAL_SURFACE('',#346,3.49549967072475,6.0);
#114=CONICAL_SURFACE('',#348,4.0,70.0000000000001);
#115=CONICAL_SURFACE('',#356,4.5301584610165,2.00000000000003);
#116=CONICAL_SURFACE('',#357,4.58253961525413,47.0);
#117=TOROIDAL_SURFACE('',#323,5.44725,0.399999999999987);
#118=TOROIDAL_SURFACE('',#327,6.2,0.400000000000013);
#119=TOROIDAL_SURFACE('',#342,2.81495321756222,1.0);
#120=TOROIDAL_SURFACE('',#350,4.1301584610165,0.5);
#121=TOROIDAL_SURFACE('',#354,4.1301584610165,0.500000000000005);
#122=ADVANCED_FACE('FP_EH_SU1',(#146,#147),#142,.T.);
#123=ADVANCED_FACE('',(#148,#149),#117,.T.);
#124=ADVANCED_FACE('FP_EH_SU2',(#150,#151),#108,.T.);
#125=ADVANCED_FACE('',(#152,#153),#118,.F.);
#126=ADVANCED_FACE('FP_EH_SU3',(#154,#155),#143,.T.);
#127=ADVANCED_FACE('FP_EH_SU4',(#156,#157),#106,.T.);
#128=ADVANCED_FACE('',(#105),#107,.F.);
#129=ADVANCED_FACE('',(#158,#159),#109,.T.);
#130=ADVANCED_FACE('',(#160,#161),#110,.F.);
#131=ADVANCED_FACE('DCH3',(#162,#163),#144,.F.);
#132=ADVANCED_FACE('',(#164,#165),#111,.F.);
#133=ADVANCED_FACE('',(#166,#167),#119,.F.);
#134=ADVANCED_FACE('',(#168,#169),#112,.F.);
#135=ADVANCED_FACE('TSALN',(#170,#171),#113,.F.);
#136=ADVANCED_FACE('',(#172,#173),#114,.F.);
#137=ADVANCED_FACE('',(#174,#175),#120,.F.);
#138=ADVANCED_FACE('DCH2',(#176,#177),#145,.F.);
#139=ADVANCED_FACE('',(#178,#179),#121,.F.);
#140=ADVANCED_FACE('TSAN',(#180,#181),#115,.F.);
#141=ADVANCED_FACE('DCH4',(#182,#183),#116,.F.);
#142=CYLINDRICAL_SURFACE('',#321,5.84724999999999);
#143=CYLINDRICAL_SURFACE('',#329,5.8);
#144=CYLINDRICAL_SURFACE('',#338,2.775);
#145=CYLINDRICAL_SURFACE('',#352,4.63015846101651);
#146=FACE_BOUND('',#184,.T.);
#147=FACE_BOUND('',#185,.T.);
#148=FACE_BOUND('',#186,.T.);
#149=FACE_BOUND('',#187,.T.);
#150=FACE_BOUND('',#188,.T.);
#151=FACE_BOUND('',#189,.T.);
#152=FACE_BOUND('',#190,.T.);
#153=FACE_BOUND('',#191,.T.);
#154=FACE_BOUND('',#192,.T.);
#155=FACE_BOUND('',#193,.T.);
#156=FACE_BOUND('',#194,.T.);
#157=FACE_BOUND('',#195,.T.);
#158=FACE_BOUND('',#197,.T.);
#159=FACE_BOUND('',#198,.T.);
#160=FACE_BOUND('',#199,.T.);
#161=FACE_BOUND('',#104,.T.);
#162=FACE_BOUND('',#200,.T.);
#163=FACE_BOUND('',#201,.T.);
#164=FACE_BOUND('',#202,.T.);
#165=FACE_BOUND('',#203,.T.);
#166=FACE_BOUND('',#204,.T.);
#167=FACE_BOUND('',#205,.T.);
#168=FACE_BOUND('',#206,.T.);
#169=FACE_BOUND('',#207,.T.);
#170=FACE_BOUND('',#208,.T.);
#171=FACE_BOUND('',#209,.T.);
#172=FACE_BOUND('',#210,.T.);
#173=FACE_BOUND('',#211,.T.);
#174=FACE_BOUND('',#212,.T.);
#175=FACE_BOUND('',#213,.T.);
#176=FACE_BOUND('',#214,.T.);
#177=FACE_BOUND('',#215,.T.);
#178=FACE_BOUND('',#216,.T.);
#179=FACE_BOUND('',#217,.T.);
#180=FACE_BOUND('',#218,.T.);
#181=FACE_BOUND('',#219,.T.);
#182=FACE_BOUND('',#220,.T.);
#183=FACE_BOUND('',#221,.T.);
#184=EDGE_LOOP('',(#222));
#185=EDGE_LOOP('',(#223));
#186=EDGE_LOOP('',(#224));
#187=EDGE_LOOP('',(#225));
#188=EDGE_LOOP('',(#226));
#189=EDGE_LOOP('',(#227));
#190=EDGE_LOOP('',(#228));
#191=EDGE_LOOP('',(#229));
#192=EDGE_LOOP('',(#230));
#193=EDGE_LOOP('',(#231));
#194=EDGE_LOOP('',(#232));
#195=EDGE_LOOP('',(#233));
#196=EDGE_LOOP('',(#234));
#197=EDGE_LOOP('',(#235));
#198=EDGE_LOOP('',(#236));
#199=EDGE_LOOP('',(#237));
#200=EDGE_LOOP('',(#238));
#201=EDGE_LOOP('',(#239));
#202=EDGE_LOOP('',(#240));
#203=EDGE_LOOP('',(#241));
#204=EDGE_LOOP('',(#242));
#205=EDGE_LOOP('',(#243));
#206=EDGE_LOOP('',(#244));
#207=EDGE_LOOP('',(#245));
#208=EDGE_LOOP('',(#246));
#209=EDGE_LOOP('',(#247));
#210=EDGE_LOOP('',(#248));
#211=EDGE_LOOP('',(#249));
#212=EDGE_LOOP('',(#250));
#213=EDGE_LOOP('',(#251));
#214=EDGE_LOOP('',(#252));
#215=EDGE_LOOP('',(#253));
#216=EDGE_LOOP('',(#254));
#217=EDGE_LOOP('',(#255));
#218=EDGE_LOOP('',(#256));
#219=EDGE_LOOP('',(#257));
#220=EDGE_LOOP('',(#258));
#221=EDGE_LOOP('',(#259));
#222=ORIENTED_EDGE('',*,*,#280,.F.);
#223=ORIENTED_EDGE('',*,*,#281,.T.);
#224=ORIENTED_EDGE('',*,*,#280,.T.);
#225=ORIENTED_EDGE('',*,*,#282,.F.);
#226=ORIENTED_EDGE('',*,*,#282,.T.);
#227=ORIENTED_EDGE('',*,*,#283,.F.);
#228=ORIENTED_EDGE('',*,*,#283,.T.);
#229=ORIENTED_EDGE('',*,*,#284,.F.);
#230=ORIENTED_EDGE('',*,*,#284,.T.);
#231=ORIENTED_EDGE('',*,*,#285,.F.);
#232=ORIENTED_EDGE('',*,*,#286,.F.);
#233=ORIENTED_EDGE('',*,*,#285,.T.);
#234=ORIENTED_EDGE('',*,*,#287,.F.);
#235=ORIENTED_EDGE('',*,*,#281,.F.);
#236=ORIENTED_EDGE('',*,*,#287,.T.);
#237=ORIENTED_EDGE('',*,*,#288,.T.);
#238=ORIENTED_EDGE('',*,*,#289,.T.);
#239=ORIENTED_EDGE('',*,*,#288,.F.);
#240=ORIENTED_EDGE('',*,*,#290,.T.);
#241=ORIENTED_EDGE('',*,*,#289,.F.);
#242=ORIENTED_EDGE('',*,*,#291,.T.);
#243=ORIENTED_EDGE('',*,*,#290,.F.);
#244=ORIENTED_EDGE('',*,*,#292,.T.);
#245=ORIENTED_EDGE('',*,*,#291,.F.);
#246=ORIENTED_EDGE('',*,*,#293,.T.);
#247=ORIENTED_EDGE('',*,*,#292,.F.);
#248=ORIENTED_EDGE('',*,*,#294,.T.);
#249=ORIENTED_EDGE('',*,*,#293,.F.);
#250=ORIENTED_EDGE('',*,*,#295,.T.);
#251=ORIENTED_EDGE('',*,*,#294,.F.);
#252=ORIENTED_EDGE('',*,*,#296,.T.);
#253=ORIENTED_EDGE('',*,*,#295,.F.);
#254=ORIENTED_EDGE('',*,*,#297,.T.);
#255=ORIENTED_EDGE('',*,*,#296,.F.);
#256=ORIENTED_EDGE('',*,*,#298,.T.);
#257=ORIENTED_EDGE('',*,*,#297,.F.);
#258=ORIENTED_EDGE('',*,*,#286,.T.);
#259=ORIENTED_EDGE('',*,*,#298,.F.);
#260=VERTEX_POINT('',#440);
#261=VERTEX_POINT('',#442);
#262=VERTEX_POINT('',#445);
#263=VERTEX_POINT('',#448);
#264=VERTEX_POINT('',#451);
#265=VERTEX_POINT('',#454);
#266=VERTEX_POINT('',#457);
#267=VERTEX_POINT('',#460);
#268=VERTEX_POINT('',#464);
#269=VERTEX_POINT('',#465);
#270=VERTEX_POINT('',#468);
#271=VERTEX_POINT('',#471);
#272=VERTEX_POINT('',#474);
#273=VERTEX_POINT('',#477);
#274=VERTEX_POINT('',#480);
#275=VERTEX_POINT('',#483);
#276=VERTEX_POINT('',#486);
#277=VERTEX_POINT('',#489);
#278=VERTEX_POINT('',#492);
#279=VERTEX_POINT('',#495);
#280=EDGE_CURVE('',#260,#260,#299,.T.);
#281=EDGE_CURVE('',#261,#261,#300,.T.);
#282=EDGE_CURVE('',#262,#262,#301,.T.);
#283=EDGE_CURVE('',#263,#263,#302,.T.);
#284=EDGE_CURVE('',#264,#264,#303,.T.);
#285=EDGE_CURVE('',#265,#265,#304,.T.);
#286=EDGE_CURVE('',#266,#266,#305,.T.);
#287=EDGE_CURVE('',#267,#267,#306,.T.);
#288=EDGE_CURVE('',#268,#268,#307,.T.);
#289=EDGE_CURVE('',#270,#270,#308,.T.);
#290=EDGE_CURVE('',#271,#271,#309,.T.);
#291=EDGE_CURVE('',#272,#272,#310,.T.);
#292=EDGE_CURVE('',#273,#273,#311,.T.);
#293=EDGE_CURVE('',#274,#274,#312,.T.);
#294=EDGE_CURVE('',#275,#275,#313,.T.);
#295=EDGE_CURVE('',#276,#276,#314,.T.);
#296=EDGE_CURVE('',#277,#277,#315,.T.);
#297=EDGE_CURVE('',#278,#278,#316,.T.);
#298=EDGE_CURVE('',#279,#279,#317,.T.);
#299=CIRCLE('',#319,5.84724999999999);
#300=CIRCLE('',#320,5.84725);
#301=CIRCLE('',#322,5.8467865844455);
#302=CIRCLE('',#324,5.80046341555448);
#303=CIRCLE('',#326,5.8);
#304=CIRCLE('',#328,5.8);
#305=CIRCLE('',#330,5.11872397026647);
#306=CIRCLE('',#332,4.84725);
#307=CIRCLE('',#335,2.775);
#308=CIRCLE('',#337,2.775);
#309=CIRCLE('',#339,3.07377226266474);
#310=CIRCLE('',#341,3.75464583834813);
#311=CIRCLE('',#343,3.49549967072475);
#312=CIRCLE('',#345,4.0);
#313=CIRCLE('',#347,4.30116853267934);
#314=CIRCLE('',#349,4.6301584610165);
#315=CIRCLE('',#351,4.63015846101651);
#316=CIRCLE('',#353,4.5301584610165);
#317=CIRCLE('',#355,4.58253961525413);
#318=AXIS2_PLACEMENT_3D('',#438,#358,#359);
#319=AXIS2_PLACEMENT_3D('',#439,#360,#361);
#320=AXIS2_PLACEMENT_3D('',#441,#362,#363);
#321=AXIS2_PLACEMENT_3D('',#443,#364,#365);
#322=AXIS2_PLACEMENT_3D('',#444,#366,#367);
#323=AXIS2_PLACEMENT_3D('',#446,#368,#369);
#324=AXIS2_PLACEMENT_3D('',#447,#370,#371);
#325=AXIS2_PLACEMENT_3D('',#449,#372,#373);
#326=AXIS2_PLACEMENT_3D('',#450,#374,#375);
#327=AXIS2_PLACEMENT_3D('',#452,#376,#377);
#328=AXIS2_PLACEMENT_3D('',#453,#378,#379);
#329=AXIS2_PLACEMENT_3D('',#455,#380,#381);
#330=AXIS2_PLACEMENT_3D('',#456,#382,#383);
#331=AXIS2_PLACEMENT_3D('',#458,#384,#385);
#332=AXIS2_PLACEMENT_3D('',#459,#386,#387);
#333=AXIS2_PLACEMENT_3D('',#461,#388,#389);
#334=AXIS2_PLACEMENT_3D('',#462,#390,#391);
#335=AXIS2_PLACEMENT_3D('',#463,#392,#393);
#336=AXIS2_PLACEMENT_3D('',#466,#394,#395);
#337=AXIS2_PLACEMENT_3D('',#467,#396,#397);
#338=AXIS2_PLACEMENT_3D('',#469,#398,#399);
#339=AXIS2_PLACEMENT_3D('',#470,#400,#401);
#340=AXIS2_PLACEMENT_3D('',#472,#402,#403);
#341=AXIS2_PLACEMENT_3D('',#473,#404,#405);
#342=AXIS2_PLACEMENT_3D('',#475,#406,#407);
#343=AXIS2_PLACEMENT_3D('',#476,#408,#409);
#344=AXIS2_PLACEMENT_3D('',#478,#410,#411);
#345=AXIS2_PLACEMENT_3D('',#479,#412,#413);
#346=AXIS2_PLACEMENT_3D('',#481,#414,#415);
#347=AXIS2_PLACEMENT_3D('',#482,#416,#417);
#348=AXIS2_PLACEMENT_3D('',#484,#418,#419);
#349=AXIS2_PLACEMENT_3D('',#485,#420,#421);
#350=AXIS2_PLACEMENT_3D('',#487,#422,#423);
#351=AXIS2_PLACEMENT_3D('',#488,#424,#425);
#352=AXIS2_PLACEMENT_3D('',#490,#426,#427);
#353=AXIS2_PLACEMENT_3D('',#491,#428,#429);
#354=AXIS2_PLACEMENT_3D('',#493,#430,#431);
#355=AXIS2_PLACEMENT_3D('',#494,#432,#433);
#356=AXIS2_PLACEMENT_3D('',#496,#434,#435);
#357=AXIS2_PLACEMENT_3D('',#497,#436,#437);
#358=DIRECTION('',(0.0,0.0,1.0));
#359=DIRECTION('',(1.0,0.0,0.0));
#360=DIRECTION('',(0.0,0.0,-1.0));
#361=DIRECTION('',(1.0,0.0,0.0));
#362=DIRECTION('',(0.0,0.0,-1.0));
#363=DIRECTION('',(1.0,0.0,0.0));
#364=DIRECTION('',(0.0,0.0,-1.0));
#365=DIRECTION('',(-1.0,0.0,0.0));
#366=DIRECTION('',(0.0,0.0,-1.0));
#367=DIRECTION('',(1.0,0.0,0.0));
#368=DIRECTION('',(0.0,0.0,-1.0));
#369=DIRECTION('',(-1.0,0.0,0.0));
#370=DIRECTION('',(0.0,0.0,-1.0));
#371=DIRECTION('',(1.0,0.0,0.0));
#372=DIRECTION('',(0.0,0.0,1.0));
#373=DIRECTION('',(1.0,0.0,-5.14198110321513E-16));
#374=DIRECTION('',(0.0,0.0,-1.0));
#375=DIRECTION('',(1.0,0.0,0.0));
#376=DIRECTION('',(0.0,0.0,-1.0));
#377=DIRECTION('',(-1.0,0.0,0.0));
#378=DIRECTION('',(0.0,0.0,-1.0));
#379=DIRECTION('',(1.0,0.0,0.0));
#380=DIRECTION('',(0.0,0.0,-1.0));
#381=DIRECTION('',(-1.0,0.0,0.0));
#382=DIRECTION('',(0.0,0.0,-1.0));
#383=DIRECTION('',(1.0,0.0,0.0));
#384=DIRECTION('',(0.0,0.0,-1.0));
#385=DIRECTION('',(-1.0,0.0,0.0));
#386=DIRECTION('',(0.0,0.0,-1.0));
#387=DIRECTION('',(1.0,0.0,0.0));
#388=DIRECTION('',(0.0,0.0,-1.0));
#389=DIRECTION('',(-1.0,0.0,0.0));
#390=DIRECTION('',(0.0,0.0,-1.0));
#391=DIRECTION('',(-1.0,0.0,0.0));
#392=DIRECTION('',(0.0,0.0,-1.0));
#393=DIRECTION('',(1.0,0.0,0.0));
#394=DIRECTION('',(0.0,0.0,-1.0));
#395=DIRECTION('',(-1.0,0.0,2.50158485188096E-17));
#396=DIRECTION('',(0.0,0.0,-1.0));
#397=DIRECTION('',(1.0,0.0,0.0));
#398=DIRECTION('',(0.0,0.0,-1.0));
#399=DIRECTION('',(-1.0,0.0,0.0));
#400=DIRECTION('',(0.0,0.0,-1.0));
#401=DIRECTION('',(1.0,0.0,0.0));
#402=DIRECTION('',(0.0,0.0,-1.0));
#403=DIRECTION('',(-1.0,0.0,-1.11473374043493E-17));
#404=DIRECTION('',(0.0,0.0,-1.0));
#405=DIRECTION('',(1.0,0.0,0.0));
#406=DIRECTION('',(0.0,0.0,-1.0));
#407=DIRECTION('',(-1.0,0.0,0.0));
#408=DIRECTION('',(0.0,0.0,-1.0));
#409=DIRECTION('',(1.0,0.0,0.0));
#410=DIRECTION('',(0.0,0.0,1.0));
#411=DIRECTION('',(1.0,0.0,7.54791887014482E-17));
#412=DIRECTION('',(0.0,0.0,-1.0));
#413=DIRECTION('',(1.0,0.0,0.0));
#414=DIRECTION('',(0.0,0.0,-1.0));
#415=DIRECTION('',(-1.0,0.0,-3.83365239775446E-16));
#416=DIRECTION('',(0.0,0.0,-1.0));
#417=DIRECTION('',(1.0,0.0,0.0));
#418=DIRECTION('',(0.0,0.0,-1.0));
#419=DIRECTION('',(-1.0,0.0,1.51312757026716E-17));
#420=DIRECTION('',(0.0,0.0,-1.0));
#421=DIRECTION('',(1.0,0.0,0.0));
#422=DIRECTION('',(0.0,0.0,-1.0));
#423=DIRECTION('',(-1.0,0.0,0.0));
#424=DIRECTION('',(0.0,0.0,-1.0));
#425=DIRECTION('',(1.0,0.0,0.0));
#426=DIRECTION('',(0.0,0.0,-1.0));
#427=DIRECTION('',(-1.0,0.0,0.0));
#428=DIRECTION('',(0.0,0.0,-1.0));
#429=DIRECTION('',(1.0,0.0,0.0));
#430=DIRECTION('',(0.0,0.0,-1.0));
#431=DIRECTION('',(-1.0,0.0,0.0));
#432=DIRECTION('',(0.0,0.0,-1.0));
#433=DIRECTION('',(1.0,0.0,0.0));
#434=DIRECTION('',(0.0,0.0,-1.0));
#435=DIRECTION('',(-1.0,0.0,1.05532025693519E-15));
#436=DIRECTION('',(0.0,0.0,-1.0));
#437=DIRECTION('',(-1.0,0.0,-1.28861801427449E-17));
#438=CARTESIAN_POINT('',(0.0,0.0,0.0));
#439=CARTESIAN_POINT('',(0.0,0.0,-82.0));
#440=CARTESIAN_POINT('',(5.84724999999999,0.0,-82.0));
#441=CARTESIAN_POINT('',(0.0,0.0,-1.0));
#442=CARTESIAN_POINT('',(5.84725,0.0,-1.0));
#443=CARTESIAN_POINT('',(0.0,0.0,54.3179268578294));
#444=CARTESIAN_POINT('',(0.0,0.0,-82.0192488360586));
#445=CARTESIAN_POINT('',(5.8467865844455,0.0,-82.0192488360586));
#446=CARTESIAN_POINT('',(0.0,0.0,-82.0));
#447=CARTESIAN_POINT('',(0.0,0.0,-82.9807511639414));
#448=CARTESIAN_POINT('',(5.80046341555448,0.0,-82.9807511639414));
#449=CARTESIAN_POINT('',(0.0,0.0,-82.9807511639414));
#450=CARTESIAN_POINT('',(0.0,0.0,-83.0));
#451=CARTESIAN_POINT('',(5.8,0.0,-83.0));
#452=CARTESIAN_POINT('',(0.0,0.0,-83.0));
#453=CARTESIAN_POINT('',(0.0,0.0,-85.0));
#454=CARTESIAN_POINT('',(5.8,0.0,-85.0));
#455=CARTESIAN_POINT('',(0.0,0.0,54.3179268578294));
#456=CARTESIAN_POINT('',(0.0,0.0,-85.0));
#457=CARTESIAN_POINT('',(5.11872397026647,0.0,-85.0));
#458=CARTESIAN_POINT('',(1.15463194561016E-14,0.0,-85.0));
#459=CARTESIAN_POINT('',(0.0,0.0,0.0));
#460=CARTESIAN_POINT('',(4.84725,0.0,0.0));
#461=CARTESIAN_POINT('',(0.0,0.0,0.0));
#462=CARTESIAN_POINT('',(0.0,0.0,0.0));
#463=CARTESIAN_POINT('',(0.0,0.0,-70.5));
#464=CARTESIAN_POINT('',(2.775,0.0,-70.5));
#465=CARTESIAN_POINT('',(0.0,0.0,-68.8326117821985));
#466=CARTESIAN_POINT('',(0.0,0.0,-68.8326117821985));
#467=CARTESIAN_POINT('',(0.0,0.0,-74.2));
#468=CARTESIAN_POINT('',(2.775,0.0,-74.2));
#469=CARTESIAN_POINT('',(0.0,0.0,-85.0));
#470=CARTESIAN_POINT('',(0.0,0.0,-74.2800557865018));
#471=CARTESIAN_POINT('',(3.07377226266474,0.0,-74.2800557865018));
#472=CARTESIAN_POINT('',(0.0,0.0,-74.2));
#473=CARTESIAN_POINT('',(0.0,0.0,-75.5880017561166));
#474=CARTESIAN_POINT('',(3.75464583834813,0.0,-75.5880017561166));
#475=CARTESIAN_POINT('',(0.0,0.0,-75.2459816127909));
#476=CARTESIAN_POINT('',(0.0,0.0,-76.3));
#477=CARTESIAN_POINT('',(3.49549967072475,0.0,-76.3));
#478=CARTESIAN_POINT('',(0.0,0.0,-75.5880017561166));
#479=CARTESIAN_POINT('',(0.0,0.0,-81.1));
#480=CARTESIAN_POINT('',(4.0,0.0,-81.1));
#481=CARTESIAN_POINT('',(0.0,0.0,-76.3));
#482=CARTESIAN_POINT('',(0.0,0.0,-81.2096163813929));
#483=CARTESIAN_POINT('',(4.30116853267934,0.0,-81.2096163813929));
#484=CARTESIAN_POINT('',(0.0,0.0,-81.1));
#485=CARTESIAN_POINT('',(0.0,0.0,-81.6794626917859));
#486=CARTESIAN_POINT('',(4.6301584610165,0.0,-81.6794626917859));
#487=CARTESIAN_POINT('',(0.0,0.0,-81.6794626917859));
#488=CARTESIAN_POINT('',(0.0,0.0,-82.7));
#489=CARTESIAN_POINT('',(4.63015846101651,0.0,-82.7));
#490=CARTESIAN_POINT('',(0.0,0.0,-85.0));
#491=CARTESIAN_POINT('',(0.0,0.0,-83.0));
#492=CARTESIAN_POINT('',(4.5301584610165,0.0,-83.0));
#493=CARTESIAN_POINT('',(0.0,0.0,-82.7));
#494=CARTESIAN_POINT('',(0.0,0.0,-84.5));
#495=CARTESIAN_POINT('',(4.58253961525413,0.0,-84.5));
#496=CARTESIAN_POINT('',(0.0,0.0,-83.0));
#497=CARTESIAN_POINT('',(0.0,0.0,-84.5));
#498=MECHANICAL_DESIGN_GEOMETRIC_PRESENTATION_REPRESENTATION('',(#94),#499);
#499=(GEOMETRIC_REPRESENTATION_CONTEXT(3)GLOBAL_UNCERTAINTY_ASSIGNED_CONTEXT((#500))
     GLOBAL_UNIT_ASSIGNED_CONTEXT((#506,#502,#501))REPRESENTATION_CONTEXT('EH12-A11',
     'TOP_LEVEL_ASSEMBLY_PART'));
#500=UNCERTAINTY_MEASURE_WITH_UNIT(LENGTH_MEASURE(2.0E-5),#506,'DISTANCE_ACCURACY_VALUE',
     'Maximum Tolerance applied to model');
#501=(NAMED_UNIT(*)SI_UNIT($,.STERADIAN.)SOLID_ANGLE_UNIT());
#502=(CONVERSION_BASED_UNIT('DEGREE',#504)NAMED_UNIT(*)PLANE_ANGLE_UNIT());
#503=DIMENSIONAL_EXPONENTS(0.0,0.0,0.0,0.0,0.0,0.0,0.0);
#504=PLANE_ANGLE_MEASURE_WITH_UNIT(PLANE_ANGLE_MEASURE(0.0174532925),#505);
#505=(NAMED_UNIT(*)PLANE_ANGLE_UNIT()SI_UNIT($,.RADIAN.));
#506=(LENGTH_UNIT()NAMED_UNIT(*)SI_UNIT(.MILLI.,.METRE.));
#507=CARTESIAN_POINT('',(0.0,0.0,0.0));
#508=DIRECTION('',(0.0,0.0,1.0));
#509=DIRECTION('',(1.0,0.0,0.0));
#510=AXIS2_PLACEMENT_3D('PCS',#507,#508,#509);
#511=CARTESIAN_POINT('',(0.0,0.0,-41.0));
#512=DIRECTION('',(0.0,0.0,1.0));
#513=DIRECTION('',(1.0,0.0,0.0));
#514=AXIS2_PLACEMENT_3D('MCS',#511,#512,#513);
#515=CARTESIAN_POINT('',(0.0,0.0,-85.0));
#516=DIRECTION('',(0.0,0.0,1.0));
#517=DIRECTION('',(1.0,0.0,0.0));
#518=AXIS2_PLACEMENT_3D('CSW',#515,#516,#517);
#519=CONSTRUCTIVE_GEOMETRY_REPRESENTATION('supplemental geometry',(#510,#514,#518),
     #499);
#520=CONSTRUCTIVE_GEOMETRY_REPRESENTATION_RELATIONSHIP('supplemental geometry',$,
     #92,#519);
ENDSEC;
END-ISO-10303-21;
