ISO-10303-21;
HEADER;
/* Generated by software containing ST-Developer
 * from STEP Tools, Inc. (www.steptools.com) 
 */
/* OPTION: using custom schema-name function */

FILE_DESCRIPTION(
/* description */ (''),
/* implementation_level */ '2;1');

FILE_NAME(
/* name */ '1522909599720.stp',
/* time_stamp */ '2018-04-05T08:26:55+02:00',
/* author */ (''),
/* organization */ ('SMS'),
/* preprocessor_version */ 'ST-DEVELOPER v15',
/* originating_system */ 'SIEMENS PLM Software NX 8.5',
/* authorisation */ '');

FILE_SCHEMA (('AUTOMOTIVE_DESIGN { 1 0 10303 214 3 1 1 1 }'));
ENDSEC;

DATA;
#10=CONSTRUCTIVE_GEOMETRY_REPRESENTATION_RELATIONSHIP(
'supplemental geometry','',#24,#11);
#11=CONSTRUCTIVE_GEOMETRY_REPRESENTATION('supplemental geometry',(#281,
#282,#283),#486);
#12=SHAPE_REPRESENTATION_RELATIONSHIP('None',
'relationship between MOD000000000000000020084269200000-None and MOD00
0000000000000020084269200000-None',#24,#13);
#13=ADVANCED_BREP_SHAPE_REPRESENTATION(
'MOD000000000000000020084269200000-None',(#30),#486);
#14=SHAPE_DEFINITION_REPRESENTATION(#15,#24);
#15=PRODUCT_DEFINITION_SHAPE('','',#16);
#16=PRODUCT_DEFINITION(' ','',#18,#17);
#17=PRODUCT_DEFINITION_CONTEXT('part definition',#23,'design');
#18=PRODUCT_DEFINITION_FORMATION_WITH_SPECIFIED_SOURCE(' ',' ',#20,
 .NOT_KNOWN.);
#19=PRODUCT_RELATED_PRODUCT_CATEGORY('part','',(#20));
#20=PRODUCT('MOD000000000000000020084269200000',
'MOD000000000000000020084269200000',' ',(#21));
#21=PRODUCT_CONTEXT(' ',#23,'mechanical');
#22=APPLICATION_PROTOCOL_DEFINITION('international standard',
'automotive_design',2010,#23);
#23=APPLICATION_CONTEXT(
'core data for automotive mechanical design processes');
#24=SHAPE_REPRESENTATION('MOD000000000000000020084269200000-None',(#280),
#486);
#25=SURFACE_STYLE_USAGE(.BOTH.,#26);
#26=SURFACE_SIDE_STYLE('',(#27));
#27=SURFACE_STYLE_FILL_AREA(#28);
#28=FILL_AREA_STYLE('',(#29));
#29=FILL_AREA_STYLE_COLOUR('',#276);
#30=MANIFOLD_SOLID_BREP('NOCUT',#31);
#31=CLOSED_SHELL('',(#46,#47,#48,#49,#50,#51,#52,#53,#54,#55,#56,#57,#58,
#59,#60,#61,#62,#63,#64,#65,#66));
#32=CYLINDRICAL_SURFACE('',#296,16.);
#33=CYLINDRICAL_SURFACE('',#298,8.);
#34=CYLINDRICAL_SURFACE('',#300,15.85);
#35=CYLINDRICAL_SURFACE('',#306,12.5);
#36=CYLINDRICAL_SURFACE('',#320,18.);
#37=PLANE('',#292);
#38=PLANE('',#302);
#39=PLANE('',#324);
#40=TOROIDAL_SURFACE('',#289,15.1762395692966,0.4);
#41=TOROIDAL_SURFACE('',#310,16.8343145750508,0.4);
#42=TOROIDAL_SURFACE('',#313,16.7843145750508,0.4);
#43=TOROIDAL_SURFACE('',#321,17.6,0.4);
#44=TOROIDAL_SURFACE('',#322,17.6,0.4);
#45=TOROIDAL_SURFACE('',#325,16.25,0.4);
#46=ADVANCED_FACE('',(#74,#75),#67,.T.);
#47=ADVANCED_FACE('',(#76,#77),#40,.T.);
#48=ADVANCED_FACE('',(#78,#79),#37,.T.);
#49=ADVANCED_FACE('',(#80,#81),#68,.F.);
#50=ADVANCED_FACE('',(#82,#83),#32,.T.);
#51=ADVANCED_FACE('',(#84,#85),#33,.F.);
#52=ADVANCED_FACE('',(#86,#87),#34,.T.);
#53=ADVANCED_FACE('',(#88,#89),#38,.T.);
#54=ADVANCED_FACE('',(#90,#91),#69,.F.);
#55=ADVANCED_FACE('',(#92,#93),#35,.F.);
#56=ADVANCED_FACE('',(#94,#95),#70,.F.);
#57=ADVANCED_FACE('',(#96,#97),#41,.T.);
#58=ADVANCED_FACE('',(#98,#99),#71,.T.);
#59=ADVANCED_FACE('',(#100,#101),#42,.T.);
#60=ADVANCED_FACE('',(#102,#103),#72,.T.);
#61=ADVANCED_FACE('',(#104,#105),#73,.T.);
#62=ADVANCED_FACE('',(#106,#107),#36,.T.);
#63=ADVANCED_FACE('',(#108,#109),#43,.T.);
#64=ADVANCED_FACE('',(#110,#111),#44,.T.);
#65=ADVANCED_FACE('',(#112,#113),#39,.T.);
#66=ADVANCED_FACE('',(#114,#115),#45,.F.);
#67=CONICAL_SURFACE('',#286,16.1,14.9999999999999);
#68=CONICAL_SURFACE('',#294,8.,30.);
#69=CONICAL_SURFACE('',#304,8.,45.);
#70=CONICAL_SURFACE('',#307,12.5,30.);
#71=CONICAL_SURFACE('',#311,15.4071796769725,30.);
#72=CONICAL_SURFACE('',#315,18.,45.);
#73=CONICAL_SURFACE('',#317,17.,45.);
#74=FACE_BOUND('',#116,.T.);
#75=FACE_BOUND('',#117,.T.);
#76=FACE_BOUND('',#118,.T.);
#77=FACE_BOUND('',#119,.T.);
#78=FACE_BOUND('',#120,.T.);
#79=FACE_BOUND('',#121,.T.);
#80=FACE_BOUND('',#122,.T.);
#81=FACE_BOUND('',#123,.T.);
#82=FACE_BOUND('',#124,.T.);
#83=FACE_BOUND('',#125,.T.);
#84=FACE_BOUND('',#126,.T.);
#85=FACE_BOUND('',#127,.T.);
#86=FACE_BOUND('',#128,.T.);
#87=FACE_BOUND('',#129,.T.);
#88=FACE_BOUND('',#130,.T.);
#89=FACE_BOUND('',#131,.T.);
#90=FACE_BOUND('',#132,.T.);
#91=FACE_BOUND('',#133,.T.);
#92=FACE_BOUND('',#134,.T.);
#93=FACE_BOUND('',#135,.T.);
#94=FACE_BOUND('',#136,.T.);
#95=FACE_BOUND('',#137,.T.);
#96=FACE_BOUND('',#138,.T.);
#97=FACE_BOUND('',#139,.T.);
#98=FACE_BOUND('',#140,.T.);
#99=FACE_BOUND('',#141,.T.);
#100=FACE_BOUND('',#142,.T.);
#101=FACE_BOUND('',#143,.T.);
#102=FACE_BOUND('',#144,.T.);
#103=FACE_BOUND('',#145,.T.);
#104=FACE_BOUND('',#146,.T.);
#105=FACE_BOUND('',#147,.T.);
#106=FACE_BOUND('',#148,.T.);
#107=FACE_BOUND('',#149,.T.);
#108=FACE_BOUND('',#150,.T.);
#109=FACE_BOUND('',#151,.T.);
#110=FACE_BOUND('',#152,.T.);
#111=FACE_BOUND('',#153,.T.);
#112=FACE_BOUND('',#154,.T.);
#113=FACE_BOUND('',#155,.T.);
#114=FACE_BOUND('',#156,.T.);
#115=FACE_BOUND('',#157,.T.);
#116=EDGE_LOOP('',(#158));
#117=EDGE_LOOP('',(#159));
#118=EDGE_LOOP('',(#160));
#119=EDGE_LOOP('',(#161));
#120=EDGE_LOOP('',(#162));
#121=EDGE_LOOP('',(#163));
#122=EDGE_LOOP('',(#164));
#123=EDGE_LOOP('',(#165));
#124=EDGE_LOOP('',(#166));
#125=EDGE_LOOP('',(#167));
#126=EDGE_LOOP('',(#168));
#127=EDGE_LOOP('',(#169));
#128=EDGE_LOOP('',(#170));
#129=EDGE_LOOP('',(#171));
#130=EDGE_LOOP('',(#172));
#131=EDGE_LOOP('',(#173));
#132=EDGE_LOOP('',(#174));
#133=EDGE_LOOP('',(#175));
#134=EDGE_LOOP('',(#176));
#135=EDGE_LOOP('',(#177));
#136=EDGE_LOOP('',(#178));
#137=EDGE_LOOP('',(#179));
#138=EDGE_LOOP('',(#180));
#139=EDGE_LOOP('',(#181));
#140=EDGE_LOOP('',(#182));
#141=EDGE_LOOP('',(#183));
#142=EDGE_LOOP('',(#184));
#143=EDGE_LOOP('',(#185));
#144=EDGE_LOOP('',(#186));
#145=EDGE_LOOP('',(#187));
#146=EDGE_LOOP('',(#188));
#147=EDGE_LOOP('',(#189));
#148=EDGE_LOOP('',(#190));
#149=EDGE_LOOP('',(#191));
#150=EDGE_LOOP('',(#192));
#151=EDGE_LOOP('',(#193));
#152=EDGE_LOOP('',(#194));
#153=EDGE_LOOP('',(#195));
#154=EDGE_LOOP('',(#196));
#155=EDGE_LOOP('',(#197));
#156=EDGE_LOOP('',(#198));
#157=EDGE_LOOP('',(#199));
#158=ORIENTED_EDGE('',*,*,#221,.T.);
#159=ORIENTED_EDGE('',*,*,#222,.T.);
#160=ORIENTED_EDGE('',*,*,#223,.F.);
#161=ORIENTED_EDGE('',*,*,#224,.F.);
#162=ORIENTED_EDGE('',*,*,#225,.T.);
#163=ORIENTED_EDGE('',*,*,#226,.F.);
#164=ORIENTED_EDGE('',*,*,#225,.F.);
#165=ORIENTED_EDGE('',*,*,#227,.T.);
#166=ORIENTED_EDGE('',*,*,#222,.F.);
#167=ORIENTED_EDGE('',*,*,#228,.F.);
#168=ORIENTED_EDGE('',*,*,#227,.F.);
#169=ORIENTED_EDGE('',*,*,#229,.T.);
#170=ORIENTED_EDGE('',*,*,#230,.T.);
#171=ORIENTED_EDGE('',*,*,#221,.F.);
#172=ORIENTED_EDGE('',*,*,#224,.T.);
#173=ORIENTED_EDGE('',*,*,#231,.F.);
#174=ORIENTED_EDGE('',*,*,#232,.T.);
#175=ORIENTED_EDGE('',*,*,#229,.F.);
#176=ORIENTED_EDGE('',*,*,#233,.T.);
#177=ORIENTED_EDGE('',*,*,#232,.F.);
#178=ORIENTED_EDGE('',*,*,#231,.T.);
#179=ORIENTED_EDGE('',*,*,#233,.F.);
#180=ORIENTED_EDGE('',*,*,#234,.F.);
#181=ORIENTED_EDGE('',*,*,#235,.F.);
#182=ORIENTED_EDGE('',*,*,#223,.T.);
#183=ORIENTED_EDGE('',*,*,#228,.T.);
#184=ORIENTED_EDGE('',*,*,#236,.F.);
#185=ORIENTED_EDGE('',*,*,#226,.T.);
#186=ORIENTED_EDGE('',*,*,#237,.T.);
#187=ORIENTED_EDGE('',*,*,#236,.T.);
#188=ORIENTED_EDGE('',*,*,#234,.T.);
#189=ORIENTED_EDGE('',*,*,#238,.T.);
#190=ORIENTED_EDGE('',*,*,#239,.T.);
#191=ORIENTED_EDGE('',*,*,#240,.T.);
#192=ORIENTED_EDGE('',*,*,#237,.F.);
#193=ORIENTED_EDGE('',*,*,#240,.F.);
#194=ORIENTED_EDGE('',*,*,#238,.F.);
#195=ORIENTED_EDGE('',*,*,#239,.F.);
#196=ORIENTED_EDGE('',*,*,#235,.T.);
#197=ORIENTED_EDGE('',*,*,#241,.F.);
#198=ORIENTED_EDGE('',*,*,#241,.T.);
#199=ORIENTED_EDGE('',*,*,#230,.F.);
#200=VERTEX_POINT('',#423);
#201=VERTEX_POINT('',#425);
#202=VERTEX_POINT('',#428);
#203=VERTEX_POINT('',#430);
#204=VERTEX_POINT('',#433);
#205=VERTEX_POINT('',#435);
#206=VERTEX_POINT('',#438);
#207=VERTEX_POINT('',#441);
#208=VERTEX_POINT('',#444);
#209=VERTEX_POINT('',#447);
#210=VERTEX_POINT('',#450);
#211=VERTEX_POINT('',#453);
#212=VERTEX_POINT('',#456);
#213=VERTEX_POINT('',#460);
#214=VERTEX_POINT('',#462);
#215=VERTEX_POINT('',#466);
#216=VERTEX_POINT('',#469);
#217=VERTEX_POINT('',#472);
#218=VERTEX_POINT('',#475);
#219=VERTEX_POINT('',#477);
#220=VERTEX_POINT('',#482);
#221=EDGE_CURVE('',#200,#200,#242,.T.);
#222=EDGE_CURVE('',#201,#201,#243,.T.);
#223=EDGE_CURVE('',#202,#202,#244,.T.);
#224=EDGE_CURVE('',#203,#203,#245,.T.);
#225=EDGE_CURVE('',#204,#204,#246,.T.);
#226=EDGE_CURVE('',#205,#205,#247,.T.);
#227=EDGE_CURVE('',#206,#206,#248,.T.);
#228=EDGE_CURVE('',#207,#207,#249,.T.);
#229=EDGE_CURVE('',#208,#208,#250,.T.);
#230=EDGE_CURVE('',#209,#209,#251,.T.);
#231=EDGE_CURVE('',#210,#210,#252,.T.);
#232=EDGE_CURVE('',#211,#211,#253,.T.);
#233=EDGE_CURVE('',#212,#212,#254,.T.);
#234=EDGE_CURVE('',#213,#213,#255,.T.);
#235=EDGE_CURVE('',#214,#214,#256,.T.);
#236=EDGE_CURVE('',#215,#215,#257,.T.);
#237=EDGE_CURVE('',#216,#216,#258,.T.);
#238=EDGE_CURVE('',#217,#217,#259,.T.);
#239=EDGE_CURVE('',#218,#218,#260,.T.);
#240=EDGE_CURVE('',#219,#219,#261,.T.);
#241=EDGE_CURVE('',#220,#220,#262,.T.);
#242=CIRCLE('',#284,15.85);
#243=CIRCLE('',#285,16.);
#244=CIRCLE('',#287,15.5226497308104);
#245=CIRCLE('',#288,15.1762395692966);
#246=CIRCLE('',#290,8.25);
#247=CIRCLE('',#291,17.0488897061572);
#248=CIRCLE('',#293,8.);
#249=CIRCLE('',#295,16.);
#250=CIRCLE('',#297,8.);
#251=CIRCLE('',#299,15.85);
#252=CIRCLE('',#301,12.7886751345948);
#253=CIRCLE('',#303,12.5);
#254=CIRCLE('',#305,12.5);
#255=CIRCLE('',#308,17.1171572875254);
#256=CIRCLE('',#309,16.8343145750508);
#257=CIRCLE('',#312,17.0671572875254);
#258=CIRCLE('',#314,17.8828427124746);
#259=CIRCLE('',#316,17.8828427124746);
#260=CIRCLE('',#318,18.);
#261=CIRCLE('',#319,18.);
#262=CIRCLE('',#323,16.25);
#263=PRESENTATION_LAYER_ASSIGNMENT('1','Layer 1',(#281,#282,#283,#30));
#264=STYLED_ITEM('',(#268),#281);
#265=STYLED_ITEM('',(#269),#282);
#266=STYLED_ITEM('',(#270),#283);
#267=STYLED_ITEM('',(#271),#30);
#268=PRESENTATION_STYLE_ASSIGNMENT((#272));
#269=PRESENTATION_STYLE_ASSIGNMENT((#273));
#270=PRESENTATION_STYLE_ASSIGNMENT((#274));
#271=PRESENTATION_STYLE_ASSIGNMENT((#25));
#272=CURVE_STYLE('',#277,POSITIVE_LENGTH_MEASURE(0.18),#275);
#273=CURVE_STYLE('',#278,POSITIVE_LENGTH_MEASURE(0.18),#275);
#274=CURVE_STYLE('',#279,POSITIVE_LENGTH_MEASURE(0.18),#275);
#275=COLOUR_RGB('Strong Stone',0.576470588235294,0.54508278019379,0.392156862745098);
#276=COLOUR_RGB('Medium Gray',0.501960784313725,0.501960784313725,0.501960784313725);
#277=DRAUGHTING_PRE_DEFINED_CURVE_FONT('continuous');
#278=DRAUGHTING_PRE_DEFINED_CURVE_FONT('continuous');
#279=DRAUGHTING_PRE_DEFINED_CURVE_FONT('continuous');
#280=AXIS2_PLACEMENT_3D('',#418,#326,#327);
#281=AXIS2_PLACEMENT_3D('MCS',#419,#328,#329);
#282=AXIS2_PLACEMENT_3D('PCS',#420,#330,#331);
#283=AXIS2_PLACEMENT_3D('CSW',#421,#332,#333);
#284=AXIS2_PLACEMENT_3D('',#422,#334,#335);
#285=AXIS2_PLACEMENT_3D('',#424,#336,#337);
#286=AXIS2_PLACEMENT_3D('',#426,#338,#339);
#287=AXIS2_PLACEMENT_3D('',#427,#340,#341);
#288=AXIS2_PLACEMENT_3D('',#429,#342,#343);
#289=AXIS2_PLACEMENT_3D('',#431,#344,#345);
#290=AXIS2_PLACEMENT_3D('',#432,#346,#347);
#291=AXIS2_PLACEMENT_3D('',#434,#348,#349);
#292=AXIS2_PLACEMENT_3D('',#436,#350,#351);
#293=AXIS2_PLACEMENT_3D('',#437,#352,#353);
#294=AXIS2_PLACEMENT_3D('',#439,#354,#355);
#295=AXIS2_PLACEMENT_3D('',#440,#356,#357);
#296=AXIS2_PLACEMENT_3D('',#442,#358,#359);
#297=AXIS2_PLACEMENT_3D('',#443,#360,#361);
#298=AXIS2_PLACEMENT_3D('',#445,#362,#363);
#299=AXIS2_PLACEMENT_3D('',#446,#364,#365);
#300=AXIS2_PLACEMENT_3D('',#448,#366,#367);
#301=AXIS2_PLACEMENT_3D('',#449,#368,#369);
#302=AXIS2_PLACEMENT_3D('',#451,#370,#371);
#303=AXIS2_PLACEMENT_3D('',#452,#372,#373);
#304=AXIS2_PLACEMENT_3D('',#454,#374,#375);
#305=AXIS2_PLACEMENT_3D('',#455,#376,#377);
#306=AXIS2_PLACEMENT_3D('',#457,#378,#379);
#307=AXIS2_PLACEMENT_3D('',#458,#380,#381);
#308=AXIS2_PLACEMENT_3D('',#459,#382,#383);
#309=AXIS2_PLACEMENT_3D('',#461,#384,#385);
#310=AXIS2_PLACEMENT_3D('',#463,#386,#387);
#311=AXIS2_PLACEMENT_3D('',#464,#388,#389);
#312=AXIS2_PLACEMENT_3D('',#465,#390,#391);
#313=AXIS2_PLACEMENT_3D('',#467,#392,#393);
#314=AXIS2_PLACEMENT_3D('',#468,#394,#395);
#315=AXIS2_PLACEMENT_3D('',#470,#396,#397);
#316=AXIS2_PLACEMENT_3D('',#471,#398,#399);
#317=AXIS2_PLACEMENT_3D('',#473,#400,#401);
#318=AXIS2_PLACEMENT_3D('',#474,#402,#403);
#319=AXIS2_PLACEMENT_3D('',#476,#404,#405);
#320=AXIS2_PLACEMENT_3D('',#478,#406,#407);
#321=AXIS2_PLACEMENT_3D('',#479,#408,#409);
#322=AXIS2_PLACEMENT_3D('',#480,#410,#411);
#323=AXIS2_PLACEMENT_3D('',#481,#412,#413);
#324=AXIS2_PLACEMENT_3D('',#483,#414,#415);
#325=AXIS2_PLACEMENT_3D('',#484,#416,#417);
#326=DIRECTION('',(0.,0.,1.));
#327=DIRECTION('',(1.,0.,0.));
#328=DIRECTION('',(0.,0.,1.));
#329=DIRECTION('',(1.,0.,0.));
#330=DIRECTION('',(0.,0.,1.));
#331=DIRECTION('',(1.,0.,0.));
#332=DIRECTION('',(0.,0.,1.));
#333=DIRECTION('',(1.,0.,0.));
#334=DIRECTION('',(-6.12323399573677E-017,-6.12323399573677E-017,1.));
#335=DIRECTION('',(1.,-6.12323399573677E-017,5.47231380434324E-017));
#336=DIRECTION('',(6.12323399573677E-017,6.12323399573677E-017,-1.));
#337=DIRECTION('',(1.,-6.12323399573677E-017,5.42101086242752E-017));
#338=DIRECTION('',(-6.12323399573677E-017,-6.12323399573677E-017,1.));
#339=DIRECTION('',(1.,-6.12323399573677E-017,-1.87794045213566E-016));
#340=DIRECTION('',(6.12323399573677E-017,6.12323399573677E-017,-1.));
#341=DIRECTION('',(1.,-6.12323399573677E-017,0.));
#342=DIRECTION('',(-6.12323399573677E-017,-6.12323399573677E-017,1.));
#343=DIRECTION('',(1.,-6.12323399573677E-017,0.));
#344=DIRECTION('',(-6.12323399573677E-017,-6.12323399573677E-017,1.));
#345=DIRECTION('',(1.,-6.12323399573677E-017,0.));
#346=DIRECTION('',(-6.12323399573677E-017,-6.12323399573677E-017,1.));
#347=DIRECTION('',(1.,-6.12323399573677E-017,1.05134756119806E-016));
#348=DIRECTION('',(-6.12323399573677E-017,-6.12323399573677E-017,1.));
#349=DIRECTION('',(-1.,6.12323399573677E-017,-5.08749691585579E-017));
#350=DIRECTION('',(6.12323399573677E-017,6.12323399573677E-017,-1.));
#351=DIRECTION('',(-1.,6.12323399573677E-017,-6.15826833971767E-017));
#352=DIRECTION('',(-6.12323399573677E-017,-6.12323399573677E-017,1.));
#353=DIRECTION('',(1.,-6.12323399573677E-017,1.0842021724855E-016));
#354=DIRECTION('',(6.12323399573677E-017,6.12323399573677E-017,-1.));
#355=DIRECTION('',(-1.,6.12323399573677E-017,-4.4453472577498E-018));
#356=DIRECTION('',(-6.12323399573677E-017,-6.12323399573677E-017,1.));
#357=DIRECTION('',(-1.,6.12323399573677E-017,0.));
#358=DIRECTION('',(6.12323399573677E-017,6.12323399573677E-017,-1.));
#359=DIRECTION('',(1.,-6.12323399573677E-017,0.));
#360=DIRECTION('',(-6.12323399573677E-017,-6.12323399573677E-017,1.));
#361=DIRECTION('',(1.,-6.12323399573677E-017,0.));
#362=DIRECTION('',(6.12323399573677E-017,6.12323399573677E-017,-1.));
#363=DIRECTION('',(-1.,6.12323399573677E-017,-1.0842021724855E-016));
#364=DIRECTION('',(-6.12323399573677E-017,-6.12323399573677E-017,1.));
#365=DIRECTION('',(1.,-6.12323399573677E-017,6.15635302988614E-017));
#366=DIRECTION('',(6.12323399573677E-017,6.12323399573677E-017,-1.));
#367=DIRECTION('',(1.,-6.12323399573677E-017,5.47231380434324E-017));
#368=DIRECTION('',(-6.12323399573677E-017,-6.12323399573677E-017,1.));
#369=DIRECTION('',(1.,-6.12323399573677E-017,0.));
#370=DIRECTION('',(-6.12323399573677E-017,-6.12323399573677E-017,1.));
#371=DIRECTION('',(1.,-6.12323399573677E-017,6.24500451351651E-017));
#372=DIRECTION('',(-6.12323399573677E-017,-6.12323399573677E-017,1.));
#373=DIRECTION('',(1.,-6.12323399573677E-017,0.));
#374=DIRECTION('',(-6.12323399573677E-017,-6.12323399573677E-017,1.));
#375=DIRECTION('',(1.,-6.12323399573677E-017,9.6373526443156E-017));
#376=DIRECTION('',(-6.12323399573677E-017,-6.12323399573677E-017,1.));
#377=DIRECTION('',(1.,-6.12323399573677E-017,0.));
#378=DIRECTION('',(6.12323399573677E-017,6.12323399573677E-017,-1.));
#379=DIRECTION('',(1.,-6.12323399573677E-017,0.));
#380=DIRECTION('',(-6.12323399573677E-017,-6.12323399573677E-017,1.));
#381=DIRECTION('',(1.,-6.12323399573677E-017,1.76457338404889E-016));
#382=DIRECTION('',(6.12323399573677E-017,6.12323399573677E-017,-1.));
#383=DIRECTION('',(1.,-6.12323399573677E-017,6.09648304031073E-017));
#384=DIRECTION('',(-6.12323399573677E-017,-6.12323399573677E-017,1.));
#385=DIRECTION('',(1.,-6.12323399573677E-017,6.12323399573677E-017));
#386=DIRECTION('',(-6.12323399573677E-017,-6.12323399573677E-017,1.));
#387=DIRECTION('',(1.,-6.12323399573677E-017,5.97640282922707E-017));
#388=DIRECTION('',(6.12323399573677E-017,6.12323399573677E-017,-1.));
#389=DIRECTION('',(-1.,6.12323399573677E-017,9.36490150185372E-017));
#390=DIRECTION('',(-6.12323399573677E-017,-6.12323399573677E-017,1.));
#391=DIRECTION('',(-1.,6.12323399573677E-017,-5.08205158818317E-017));
#392=DIRECTION('',(6.12323399573677E-017,6.12323399573677E-017,-1.));
#393=DIRECTION('',(-1.,6.12323399573677E-017,-5.04740374834438E-017));
#394=DIRECTION('',(6.12323399573677E-017,6.12323399573677E-017,-1.));
#395=DIRECTION('',(-1.,6.12323399573677E-017,-4.85024529899463E-017));
#396=DIRECTION('',(-6.12323399573677E-017,-6.12323399573677E-017,1.));
#397=DIRECTION('',(1.,-6.12323399573677E-017,1.10763286776515E-016));
#398=DIRECTION('',(-6.12323399573677E-017,-6.12323399573677E-017,1.));
#399=DIRECTION('',(1.,-6.12323399573677E-017,6.06280662374329E-017));
#400=DIRECTION('',(6.12323399573677E-017,6.12323399573677E-017,-1.));
#401=DIRECTION('',(-1.,6.12323399573677E-017,0.));
#402=DIRECTION('',(6.12323399573677E-017,6.12323399573677E-017,-1.));
#403=DIRECTION('',(1.,-6.12323399573677E-017,6.02334540269725E-017));
#404=DIRECTION('',(-6.12323399573677E-017,-6.12323399573677E-017,1.));
#405=DIRECTION('',(-1.,6.12323399573677E-017,-7.2280144832367E-017));
#406=DIRECTION('',(6.12323399573677E-017,6.12323399573677E-017,-1.));
#407=DIRECTION('',(1.,-6.12323399573677E-017,4.8186763221578E-017));
#408=DIRECTION('',(6.12323399573677E-017,6.12323399573677E-017,-1.));
#409=DIRECTION('',(-1.,6.12323399573677E-017,-7.2280144832367E-017));
#410=DIRECTION('',(-6.12323399573677E-017,-6.12323399573677E-017,1.));
#411=DIRECTION('',(1.,-6.12323399573677E-017,6.02334540269725E-017));
#412=DIRECTION('',(-6.12323399573677E-017,-6.12323399573677E-017,1.));
#413=DIRECTION('',(1.,-6.12323399573677E-017,6.12323399573677E-017));
#414=DIRECTION('',(-6.12323399573677E-017,-6.12323399573677E-017,1.));
#415=DIRECTION('',(1.,-6.12323399573677E-017,6.12323399573677E-017));
#416=DIRECTION('',(-6.12323399573677E-017,-6.12323399573677E-017,1.));
#417=DIRECTION('',(1.,-6.12323399573677E-017,6.18613852168906E-017));
#418=CARTESIAN_POINT('',(0.,0.,0.));
#419=CARTESIAN_POINT('',(0.,0.,0.));
#420=CARTESIAN_POINT('',(0.,0.,0.));
#421=CARTESIAN_POINT('',(0.,0.,-5.));
#422=CARTESIAN_POINT('',(-9.59502989466113E-017,-9.59502989466113E-017,
1.56698729810776));
#423=CARTESIAN_POINT('',(15.85,-1.06648288727089E-015,1.56698729810776));
#424=CARTESIAN_POINT('',(-1.30228629514696E-016,-1.30228629514696E-016,
2.1267949192431));
#425=CARTESIAN_POINT('',(16.,-1.10994606883258E-015,2.1267949192431));
#426=CARTESIAN_POINT('',(-1.5308084989342E-016,-1.53080849893419E-016,2.5));
#427=CARTESIAN_POINT('',(-3.66169392945059E-015,-3.66169392945059E-015,
59.8));
#428=CARTESIAN_POINT('',(15.5226497308104,-4.61218209480671E-015,59.8));
#429=CARTESIAN_POINT('',(-3.67394039744206E-015,-3.67394039744206E-015,
60.));
#430=CARTESIAN_POINT('',(15.1762395692966,-4.60321705802369E-015,60.));
#431=CARTESIAN_POINT('',(-3.64944746145911E-015,-3.64944746145911E-015,
59.6));
#432=CARTESIAN_POINT('',(3.06161699786839E-016,3.06161699786839E-016,-5.));
#433=CARTESIAN_POINT('',(8.25,-1.99005104861445E-016,-5.));
#434=CARTESIAN_POINT('',(3.06161699786839E-016,3.06161699786839E-016,-5.));
#435=CARTESIAN_POINT('',(-17.0488897061572,1.35010511016992E-015,-5.));
#436=CARTESIAN_POINT('',(18.,-7.96020419445779E-016,-5.));
#437=CARTESIAN_POINT('',(2.79647318818716E-016,2.79647318818716E-016,-4.56698729810778));
#438=CARTESIAN_POINT('',(8.,-2.10211400840226E-016,-4.56698729810778));
#439=CARTESIAN_POINT('',(2.79647318818716E-016,2.79647318818716E-016,-4.56698729810778));
#440=CARTESIAN_POINT('',(-3.61106734188046E-015,-3.61106734188046E-015,
58.9732050807569));
#441=CARTESIAN_POINT('',(-16.,-2.63134990256258E-015,58.9732050807569));
#442=CARTESIAN_POINT('',(-3.67394039744206E-015,-3.67394039744206E-015,
60.));
#443=CARTESIAN_POINT('',(-2.90853614797496E-015,-2.90853614797496E-015,
47.5));
#444=CARTESIAN_POINT('',(8.,-3.39839486763391E-015,47.5));
#445=CARTESIAN_POINT('',(3.12284933782575E-016,3.12284933782575E-016,-5.1));
#446=CARTESIAN_POINT('',(-2.4492935982947E-017,-2.4492935982947E-017,0.4));
#447=CARTESIAN_POINT('',(15.85,-9.95025524307225E-016,0.400000000000001));
#448=CARTESIAN_POINT('',(3.29236298368095E-016,3.29236298368095E-016,-5.37683679240941));
#449=CARTESIAN_POINT('',(-3.67394039744206E-015,-3.67394039744206E-015,
60.));
#450=CARTESIAN_POINT('',(12.7886751345948,-4.4570209008879E-015,60.));
#451=CARTESIAN_POINT('',(-3.67394039744206E-015,-3.67394039744206E-015,
60.));
#452=CARTESIAN_POINT('',(-3.18408167778312E-015,-3.18408167778312E-015,
52.));
#453=CARTESIAN_POINT('',(12.5,-3.94948592725022E-015,52.));
#454=CARTESIAN_POINT('',(-2.90853614797496E-015,-2.90853614797496E-015,
47.5));
#455=CARTESIAN_POINT('',(-3.64332422746338E-015,-3.64332422746338E-015,
59.5));
#456=CARTESIAN_POINT('',(12.5,-4.40872847693047E-015,59.5));
#457=CARTESIAN_POINT('',(-3.67394039744206E-015,-3.67394039744206E-015,
60.));
#458=CARTESIAN_POINT('',(-3.64332422746338E-015,-3.64332422746338E-015,
59.5));
#459=CARTESIAN_POINT('',(7.17381485823724E-018,7.17381485823724E-018,-0.117157287525382));
#460=CARTESIAN_POINT('',(17.1171572875254,-1.04094977927525E-015,-0.117157287525381));
#461=CARTESIAN_POINT('',(1.99164708024447E-032,1.99164708024447E-032,-3.25260651745652E-016));
#462=CARTESIAN_POINT('',(16.8343145750508,-1.03080447300878E-015,7.05543821263126E-016));
#463=CARTESIAN_POINT('',(2.44929359829471E-017,2.44929359829471E-017,-0.4));
#464=CARTESIAN_POINT('',(-3.67394039744206E-015,-3.67394039744206E-015,
60.));
#465=CARTESIAN_POINT('',(3.05111118924338E-016,3.05111118924338E-016,-4.98284271247462));
#466=CARTESIAN_POINT('',(-17.0671572875254,1.35017309605996E-015,-4.98284271247462));
#467=CARTESIAN_POINT('',(2.87791997799628E-016,2.87791997799628E-016,-4.7));
#468=CARTESIAN_POINT('',(2.55164791685576E-016,2.55164791685576E-016,-4.16715728752538));
#469=CARTESIAN_POINT('',(-17.8828427124746,1.35017309605996E-015,-4.16715728752538));
#470=CARTESIAN_POINT('',(2.47990976827339E-016,2.47990976827339E-016,-4.05));
#471=CARTESIAN_POINT('',(5.40585250991305E-017,5.40585250991305E-017,-0.882842712474619));
#472=CARTESIAN_POINT('',(17.8828427124746,-1.04094977927525E-015,-0.882842712474618));
#473=CARTESIAN_POINT('',(0.,0.,0.));
#474=CARTESIAN_POINT('',(7.13776462238404E-017,7.13776462238404E-017,-1.16568542494924));
#475=CARTESIAN_POINT('',(18.,-1.03080447300878E-015,-1.16568542494924));
#476=CARTESIAN_POINT('',(2.37845670560866E-016,2.37845670560866E-016,-3.88431457505076));
#477=CARTESIAN_POINT('',(-18.,1.34002778979348E-015,-3.88431457505076));
#478=CARTESIAN_POINT('',(3.29236298368095E-016,3.29236298368095E-016,-5.37683679240941));
#479=CARTESIAN_POINT('',(2.37845670560866E-016,2.37845670560866E-016,-3.88431457505076));
#480=CARTESIAN_POINT('',(7.13776462238404E-017,7.13776462238403E-017,-1.16568542494924));
#481=CARTESIAN_POINT('',(5.31105888065192E-032,5.31105888065192E-032,-8.67361737988404E-016));
#482=CARTESIAN_POINT('',(16.25,-9.95025524307225E-016,1.27663786318821E-016));
#483=CARTESIAN_POINT('',(16.25,-9.95025524307225E-016,6.42659818249436E-016));
#484=CARTESIAN_POINT('',(-2.4492935982947E-017,-2.4492935982947E-017,0.4));
#485=MECHANICAL_DESIGN_GEOMETRIC_PRESENTATION_REPRESENTATION('',(#264,#265,
#266,#267),#486);
#486=(
GEOMETRIC_REPRESENTATION_CONTEXT(3)
GLOBAL_UNCERTAINTY_ASSIGNED_CONTEXT((#487))
GLOBAL_UNIT_ASSIGNED_CONTEXT((#493,#489,#488))
REPRESENTATION_CONTEXT('1522909599720','TOP_LEVEL_ASSEMBLY_PART')
);
#487=UNCERTAINTY_MEASURE_WITH_UNIT(LENGTH_MEASURE(2.E-005),#493,
'DISTANCE_ACCURACY_VALUE','Maximum Tolerance applied to model');
#488=(
NAMED_UNIT(*)
SI_UNIT($,.STERADIAN.)
SOLID_ANGLE_UNIT()
);
#489=(
CONVERSION_BASED_UNIT('DEGREE',#491)
NAMED_UNIT(#490)
PLANE_ANGLE_UNIT()
);
#490=DIMENSIONAL_EXPONENTS(0.,0.,0.,0.,0.,0.,0.);
#491=PLANE_ANGLE_MEASURE_WITH_UNIT(PLANE_ANGLE_MEASURE(0.0174532925),#492);
#492=(
NAMED_UNIT(*)
PLANE_ANGLE_UNIT()
SI_UNIT($,.RADIAN.)
);
#493=(
LENGTH_UNIT()
NAMED_UNIT(*)
SI_UNIT(.MILLI.,.METRE.)
);
ENDSEC;
END-ISO-10303-21;
