ISO-10303-21;
HEADER;
FILE_DESCRIPTION(
/* description */ ('3-D model version:1'),
/* implementation_level */ '2;1');
FILE_NAME(
/* name */ 'C5-391.327-09035',
/* time_stamp */ '2016-12-02T14:01:29',
/* author */ ('InteractiveCad'),
/* organization */ ('AB Sandvik Coromant'),
/* preprocessor_version */ 'ST-DEVELOPER v11',
/* originating_system */ 'SIEMENS UGS NX 6.0',
/* authorization */ '');
FILE_SCHEMA(('AUTOMOTIVE_DESIGN'));
ENDSEC;
DATA;
#10=SHAPE_REPRESENTATION_RELATIONSHIP('None','relationship between C5_391.327_09035_635176195390106380_1_stp-None an\X\0Dd C5_391.327_09035_635176195390106380_1_stp-None',
     #22,#11);
#11=ADVANCED_BREP_SHAPE_REPRESENTATION('C5_391.327_09035_635176195390106380_1_stp-None',
     (#32),#477);
#12=SHAPE_DEFINITION_REPRESENTATION(#13,#22);
#13=PRODUCT_DEFINITION_SHAPE('','',#14);
#14=PRODUCT_DEFINITION(' ','',#16,#15);
#15=PRODUCT_DEFINITION_CONTEXT('part definition',#21,'design');
#16=PRODUCT_DEFINITION_FORMATION_WITH_SPECIFIED_SOURCE(' ',' ',#18,.NOT_KNOWN.);
#17=PRODUCT_RELATED_PRODUCT_CATEGORY('part','',(#18));
#18=PRODUCT('C5_391.327_09035_635176195390106380_1_stp','C5_391.327_09035_635176195390106380_1_stp',
     ' ',(#19));
#19=PRODUCT_CONTEXT(' ',#21,'mechanical');
#20=APPLICATION_PROTOCOL_DEFINITION('international standard','automotive_design',
     2001,#21);
#21=APPLICATION_CONTEXT('core data for automotive mechanical design processes');
#22=SHAPE_REPRESENTATION('C5_391.327_09035_635176195390106380_1_stp-None',(#269),
     #477);
#23=PRESENTATION_LAYER_ASSIGNMENT('1','Layer 1',(#32));
#24=STYLED_ITEM('',(#25),#32);
#25=PRESENTATION_STYLE_ASSIGNMENT((#26));
#26=SURFACE_STYLE_USAGE(.BOTH.,#27);
#27=SURFACE_SIDE_STYLE('',(#28));
#28=SURFACE_STYLE_FILL_AREA(#29);
#29=FILL_AREA_STYLE('',(#30));
#30=FILL_AREA_STYLE_COLOUR('',#31);
#31=COLOUR_RGB('TLS_NOCUT',0.499992370489052,0.499992370489052,0.499992370489052);
#32=MANIFOLD_SOLID_BREP('NOCUT',#33);
#33=CLOSED_SHELL('',(#70,#71,#72,#73,#74,#75,#76,#77,#78,#79,#80,#81,#82,#83,#84,
     #85,#86));
#34=B_SPLINE_CURVE_WITH_KNOTS('',3,(#451,#452,#453,#454),.UNSPECIFIED.,.F.,.F.,
     (4,4),(0.0,1.0),.UNSPECIFIED.);
#35=B_SPLINE_CURVE_WITH_KNOTS('',3,(#459,#460,#461,#462),.UNSPECIFIED.,.F.,.F.,
     (4,4),(0.0,1.0),.UNSPECIFIED.);
#36=LINE('',#433,#42);
#37=LINE('',#437,#43);
#38=LINE('',#441,#44);
#39=LINE('',#445,#45);
#40=LINE('',#449,#46);
#41=LINE('',#466,#47);
#42=VECTOR('',#354,1.0);
#43=VECTOR('',#357,1.0);
#44=VECTOR('',#362,1.0);
#45=VECTOR('',#367,1.0);
#46=VECTOR('',#372,1.0);
#47=VECTOR('',#379,1.0);
#48=FACE_OUTER_BOUND('',#120,.T.);
#49=FACE_OUTER_BOUND('',#121,.T.);
#50=FACE_OUTER_BOUND('',#122,.T.);
#51=FACE_OUTER_BOUND('',#123,.T.);
#52=FACE_OUTER_BOUND('',#124,.T.);
#53=FACE_OUTER_BOUND('',#125,.T.);
#54=FACE_OUTER_BOUND('',#126,.T.);
#55=FACE_OUTER_BOUND('',#127,.T.);
#56=FACE_OUTER_BOUND('',#128,.T.);
#57=FACE_OUTER_BOUND('',#129,.T.);
#58=TOROIDAL_SURFACE('',#287,9.49999999999999,5.0);
#59=CYLINDRICAL_SURFACE('',#281,25.0);
#60=CYLINDRICAL_SURFACE('',#289,4.49999999999999);
#61=CYLINDRICAL_SURFACE('',#309,5.0);
#62=CONICAL_SURFACE('',#279,24.7,44.9999999999927);
#63=CONICAL_SURFACE('',#283,25.0,44.9999999999913);
#64=CONICAL_SURFACE('',#292,28.0,1.43916666666667);
#65=CONICAL_SURFACE('',#294,12.0,1.43916666666667);
#66=CONICAL_SURFACE('',#296,28.0,1.43916666666667);
#67=CONICAL_SURFACE('',#298,12.0,1.43916666666667);
#68=CONICAL_SURFACE('',#302,28.0,1.43916666666667);
#69=CONICAL_SURFACE('',#304,12.0,1.43916666666667);
#70=ADVANCED_FACE('',(#92,#93),#87,.T.);
#71=ADVANCED_FACE('',(#94,#95),#62,.T.);
#72=ADVANCED_FACE('',(#96,#97),#59,.T.);
#73=ADVANCED_FACE('',(#98,#99),#63,.T.);
#74=ADVANCED_FACE('',(#100,#101),#88,.T.);
#75=ADVANCED_FACE('',(#102,#103),#58,.F.);
#76=ADVANCED_FACE('',(#104,#105),#60,.T.);
#77=ADVANCED_FACE('',(#48),#89,.T.);
#78=ADVANCED_FACE('',(#49),#64,.T.);
#79=ADVANCED_FACE('',(#50),#65,.T.);
#80=ADVANCED_FACE('',(#51),#66,.T.);
#81=ADVANCED_FACE('',(#52),#67,.T.);
#82=ADVANCED_FACE('',(#53),#68,.T.);
#83=ADVANCED_FACE('',(#54),#69,.T.);
#84=ADVANCED_FACE('',(#55),#90,.F.);
#85=ADVANCED_FACE('',(#56),#91,.F.);
#86=ADVANCED_FACE('',(#57),#61,.F.);
#87=PLANE('',#277);
#88=PLANE('',#285);
#89=PLANE('',#290);
#90=PLANE('',#306);
#91=PLANE('',#308);
#92=FACE_BOUND('',#106,.T.);
#93=FACE_BOUND('',#107,.T.);
#94=FACE_BOUND('',#108,.T.);
#95=FACE_BOUND('',#109,.T.);
#96=FACE_BOUND('',#110,.T.);
#97=FACE_BOUND('',#111,.T.);
#98=FACE_BOUND('',#112,.T.);
#99=FACE_BOUND('',#113,.T.);
#100=FACE_BOUND('',#114,.T.);
#101=FACE_BOUND('',#115,.T.);
#102=FACE_BOUND('',#116,.T.);
#103=FACE_BOUND('',#117,.T.);
#104=FACE_BOUND('',#118,.T.);
#105=FACE_BOUND('',#119,.T.);
#106=EDGE_LOOP('',(#130));
#107=EDGE_LOOP('',(#131,#132,#133,#134,#135,#136));
#108=EDGE_LOOP('',(#137));
#109=EDGE_LOOP('',(#138));
#110=EDGE_LOOP('',(#139));
#111=EDGE_LOOP('',(#140));
#112=EDGE_LOOP('',(#141));
#113=EDGE_LOOP('',(#142));
#114=EDGE_LOOP('',(#143));
#115=EDGE_LOOP('',(#144));
#116=EDGE_LOOP('',(#145));
#117=EDGE_LOOP('',(#146));
#118=EDGE_LOOP('',(#147));
#119=EDGE_LOOP('',(#148));
#120=EDGE_LOOP('',(#149));
#121=EDGE_LOOP('',(#150,#151,#152,#153));
#122=EDGE_LOOP('',(#154,#155,#156,#157));
#123=EDGE_LOOP('',(#158,#159,#160,#161));
#124=EDGE_LOOP('',(#162,#163,#164,#165));
#125=EDGE_LOOP('',(#166,#167,#168,#169,#170,#171,#172,#173));
#126=EDGE_LOOP('',(#174,#175,#176,#177));
#127=EDGE_LOOP('',(#178,#179,#180,#181,#182,#183,#184,#185));
#128=EDGE_LOOP('',(#186,#187));
#129=EDGE_LOOP('',(#188,#189,#190,#191));
#130=ORIENTED_EDGE('',*,*,#215,.T.);
#131=ORIENTED_EDGE('',*,*,#216,.T.);
#132=ORIENTED_EDGE('',*,*,#217,.T.);
#133=ORIENTED_EDGE('',*,*,#218,.T.);
#134=ORIENTED_EDGE('',*,*,#219,.T.);
#135=ORIENTED_EDGE('',*,*,#220,.T.);
#136=ORIENTED_EDGE('',*,*,#221,.T.);
#137=ORIENTED_EDGE('',*,*,#222,.T.);
#138=ORIENTED_EDGE('',*,*,#215,.F.);
#139=ORIENTED_EDGE('',*,*,#223,.T.);
#140=ORIENTED_EDGE('',*,*,#222,.F.);
#141=ORIENTED_EDGE('',*,*,#223,.F.);
#142=ORIENTED_EDGE('',*,*,#224,.T.);
#143=ORIENTED_EDGE('',*,*,#225,.T.);
#144=ORIENTED_EDGE('',*,*,#224,.F.);
#145=ORIENTED_EDGE('',*,*,#226,.T.);
#146=ORIENTED_EDGE('',*,*,#225,.F.);
#147=ORIENTED_EDGE('',*,*,#226,.F.);
#148=ORIENTED_EDGE('',*,*,#227,.T.);
#149=ORIENTED_EDGE('',*,*,#227,.F.);
#150=ORIENTED_EDGE('',*,*,#220,.F.);
#151=ORIENTED_EDGE('',*,*,#228,.F.);
#152=ORIENTED_EDGE('',*,*,#229,.T.);
#153=ORIENTED_EDGE('',*,*,#230,.T.);
#154=ORIENTED_EDGE('',*,*,#221,.F.);
#155=ORIENTED_EDGE('',*,*,#230,.F.);
#156=ORIENTED_EDGE('',*,*,#231,.T.);
#157=ORIENTED_EDGE('',*,*,#232,.T.);
#158=ORIENTED_EDGE('',*,*,#216,.F.);
#159=ORIENTED_EDGE('',*,*,#232,.F.);
#160=ORIENTED_EDGE('',*,*,#233,.T.);
#161=ORIENTED_EDGE('',*,*,#234,.T.);
#162=ORIENTED_EDGE('',*,*,#217,.F.);
#163=ORIENTED_EDGE('',*,*,#234,.F.);
#164=ORIENTED_EDGE('',*,*,#235,.T.);
#165=ORIENTED_EDGE('',*,*,#236,.T.);
#166=ORIENTED_EDGE('',*,*,#237,.F.);
#167=ORIENTED_EDGE('',*,*,#238,.F.);
#168=ORIENTED_EDGE('',*,*,#239,.F.);
#169=ORIENTED_EDGE('',*,*,#240,.T.);
#170=ORIENTED_EDGE('',*,*,#241,.T.);
#171=ORIENTED_EDGE('',*,*,#218,.F.);
#172=ORIENTED_EDGE('',*,*,#236,.F.);
#173=ORIENTED_EDGE('',*,*,#242,.T.);
#174=ORIENTED_EDGE('',*,*,#219,.F.);
#175=ORIENTED_EDGE('',*,*,#241,.F.);
#176=ORIENTED_EDGE('',*,*,#243,.T.);
#177=ORIENTED_EDGE('',*,*,#228,.T.);
#178=ORIENTED_EDGE('',*,*,#240,.F.);
#179=ORIENTED_EDGE('',*,*,#244,.T.);
#180=ORIENTED_EDGE('',*,*,#242,.F.);
#181=ORIENTED_EDGE('',*,*,#235,.F.);
#182=ORIENTED_EDGE('',*,*,#233,.F.);
#183=ORIENTED_EDGE('',*,*,#231,.F.);
#184=ORIENTED_EDGE('',*,*,#229,.F.);
#185=ORIENTED_EDGE('',*,*,#243,.F.);
#186=ORIENTED_EDGE('',*,*,#238,.T.);
#187=ORIENTED_EDGE('',*,*,#245,.F.);
#188=ORIENTED_EDGE('',*,*,#237,.T.);
#189=ORIENTED_EDGE('',*,*,#244,.F.);
#190=ORIENTED_EDGE('',*,*,#239,.T.);
#191=ORIENTED_EDGE('',*,*,#245,.T.);
#192=VERTEX_POINT('',#400);
#193=VERTEX_POINT('',#402);
#194=VERTEX_POINT('',#403);
#195=VERTEX_POINT('',#405);
#196=VERTEX_POINT('',#407);
#197=VERTEX_POINT('',#409);
#198=VERTEX_POINT('',#411);
#199=VERTEX_POINT('',#415);
#200=VERTEX_POINT('',#418);
#201=VERTEX_POINT('',#421);
#202=VERTEX_POINT('',#424);
#203=VERTEX_POINT('',#427);
#204=VERTEX_POINT('',#430);
#205=VERTEX_POINT('',#434);
#206=VERTEX_POINT('',#436);
#207=VERTEX_POINT('',#440);
#208=VERTEX_POINT('',#444);
#209=VERTEX_POINT('',#448);
#210=VERTEX_POINT('',#455);
#211=VERTEX_POINT('',#456);
#212=VERTEX_POINT('',#458);
#213=VERTEX_POINT('',#463);
#214=VERTEX_POINT('',#465);
#215=EDGE_CURVE('',#192,#192,#246,.T.);
#216=EDGE_CURVE('',#193,#194,#247,.T.);
#217=EDGE_CURVE('',#194,#195,#248,.T.);
#218=EDGE_CURVE('',#195,#196,#249,.T.);
#219=EDGE_CURVE('',#196,#197,#250,.T.);
#220=EDGE_CURVE('',#197,#198,#251,.T.);
#221=EDGE_CURVE('',#198,#193,#252,.T.);
#222=EDGE_CURVE('',#199,#199,#253,.T.);
#223=EDGE_CURVE('',#200,#200,#254,.T.);
#224=EDGE_CURVE('',#201,#201,#255,.T.);
#225=EDGE_CURVE('',#202,#202,#256,.T.);
#226=EDGE_CURVE('',#203,#203,#257,.T.);
#227=EDGE_CURVE('',#204,#204,#258,.T.);
#228=EDGE_CURVE('',#205,#197,#36,.T.);
#229=EDGE_CURVE('',#205,#206,#259,.T.);
#230=EDGE_CURVE('',#206,#198,#37,.T.);
#231=EDGE_CURVE('',#206,#207,#260,.T.);
#232=EDGE_CURVE('',#207,#193,#38,.T.);
#233=EDGE_CURVE('',#207,#208,#261,.T.);
#234=EDGE_CURVE('',#208,#194,#39,.T.);
#235=EDGE_CURVE('',#208,#209,#262,.T.);
#236=EDGE_CURVE('',#209,#195,#40,.T.);
#237=EDGE_CURVE('',#210,#211,#34,.T.);
#238=EDGE_CURVE('',#212,#210,#263,.T.);
#239=EDGE_CURVE('',#213,#212,#35,.T.);
#240=EDGE_CURVE('',#213,#214,#264,.T.);
#241=EDGE_CURVE('',#214,#196,#41,.T.);
#242=EDGE_CURVE('',#209,#211,#265,.T.);
#243=EDGE_CURVE('',#214,#205,#266,.T.);
#244=EDGE_CURVE('',#213,#211,#267,.T.);
#245=EDGE_CURVE('',#212,#210,#268,.T.);
#246=CIRCLE('',#270,24.7);
#247=CIRCLE('',#271,28.0);
#248=CIRCLE('',#272,12.0);
#249=CIRCLE('',#273,28.0);
#250=CIRCLE('',#274,12.0);
#251=CIRCLE('',#275,28.0);
#252=CIRCLE('',#276,12.0);
#253=CIRCLE('',#278,25.0);
#254=CIRCLE('',#280,25.0);
#255=CIRCLE('',#282,24.5);
#256=CIRCLE('',#284,9.49999999999999);
#257=CIRCLE('',#286,4.49999999999999);
#258=CIRCLE('',#288,4.49999999999999);
#259=CIRCLE('',#291,27.2462955787618);
#260=CIRCLE('',#293,11.2462955787618);
#261=CIRCLE('',#295,27.2462955787618);
#262=CIRCLE('',#297,11.2462955787618);
#263=CIRCLE('',#299,27.3857308966909);
#264=CIRCLE('',#300,27.2462955787618);
#265=CIRCLE('',#301,27.2462955787618);
#266=CIRCLE('',#303,11.2462955787618);
#267=CIRCLE('',#305,5.0);
#268=CIRCLE('',#307,5.0);
#269=AXIS2_PLACEMENT_3D('',#398,#310,#311);
#270=AXIS2_PLACEMENT_3D('',#399,#312,#313);
#271=AXIS2_PLACEMENT_3D('',#401,#314,#315);
#272=AXIS2_PLACEMENT_3D('',#404,#316,#317);
#273=AXIS2_PLACEMENT_3D('',#406,#318,#319);
#274=AXIS2_PLACEMENT_3D('',#408,#320,#321);
#275=AXIS2_PLACEMENT_3D('',#410,#322,#323);
#276=AXIS2_PLACEMENT_3D('',#412,#324,#325);
#277=AXIS2_PLACEMENT_3D('',#413,#326,#327);
#278=AXIS2_PLACEMENT_3D('',#414,#328,#329);
#279=AXIS2_PLACEMENT_3D('',#416,#330,#331);
#280=AXIS2_PLACEMENT_3D('',#417,#332,#333);
#281=AXIS2_PLACEMENT_3D('',#419,#334,#335);
#282=AXIS2_PLACEMENT_3D('',#420,#336,#337);
#283=AXIS2_PLACEMENT_3D('',#422,#338,#339);
#284=AXIS2_PLACEMENT_3D('',#423,#340,#341);
#285=AXIS2_PLACEMENT_3D('',#425,#342,#343);
#286=AXIS2_PLACEMENT_3D('',#426,#344,#345);
#287=AXIS2_PLACEMENT_3D('',#428,#346,#347);
#288=AXIS2_PLACEMENT_3D('',#429,#348,#349);
#289=AXIS2_PLACEMENT_3D('',#431,#350,#351);
#290=AXIS2_PLACEMENT_3D('',#432,#352,#353);
#291=AXIS2_PLACEMENT_3D('',#435,#355,#356);
#292=AXIS2_PLACEMENT_3D('',#438,#358,#359);
#293=AXIS2_PLACEMENT_3D('',#439,#360,#361);
#294=AXIS2_PLACEMENT_3D('',#442,#363,#364);
#295=AXIS2_PLACEMENT_3D('',#443,#365,#366);
#296=AXIS2_PLACEMENT_3D('',#446,#368,#369);
#297=AXIS2_PLACEMENT_3D('',#447,#370,#371);
#298=AXIS2_PLACEMENT_3D('',#450,#373,#374);
#299=AXIS2_PLACEMENT_3D('',#457,#375,#376);
#300=AXIS2_PLACEMENT_3D('',#464,#377,#378);
#301=AXIS2_PLACEMENT_3D('',#467,#380,#381);
#302=AXIS2_PLACEMENT_3D('',#468,#382,#383);
#303=AXIS2_PLACEMENT_3D('',#469,#384,#385);
#304=AXIS2_PLACEMENT_3D('',#470,#386,#387);
#305=AXIS2_PLACEMENT_3D('',#471,#388,#389);
#306=AXIS2_PLACEMENT_3D('',#472,#390,#391);
#307=AXIS2_PLACEMENT_3D('',#473,#392,#393);
#308=AXIS2_PLACEMENT_3D('',#474,#394,#395);
#309=AXIS2_PLACEMENT_3D('',#475,#396,#397);
#310=DIRECTION('',(0.0,0.0,1.0));
#311=DIRECTION('',(1.0,0.0,0.0));
#312=DIRECTION('',(0.0,0.0,1.0));
#313=DIRECTION('',(1.0,0.0,0.0));
#314=DIRECTION('',(0.0,0.0,-1.0));
#315=DIRECTION('',(-1.0,0.0,0.0));
#316=DIRECTION('',(0.0,0.0,-1.0));
#317=DIRECTION('',(-1.0,0.0,0.0));
#318=DIRECTION('',(0.0,0.0,-1.0));
#319=DIRECTION('',(-1.0,0.0,0.0));
#320=DIRECTION('',(0.0,0.0,-1.0));
#321=DIRECTION('',(-1.0,0.0,0.0));
#322=DIRECTION('',(0.0,0.0,-1.0));
#323=DIRECTION('',(-1.0,0.0,0.0));
#324=DIRECTION('',(0.0,0.0,-1.0));
#325=DIRECTION('',(-1.0,0.0,0.0));
#326=DIRECTION('',(0.0,0.0,1.0));
#327=DIRECTION('',(1.0,0.0,0.0));
#328=DIRECTION('',(0.0,0.0,1.0));
#329=DIRECTION('',(1.0,0.0,0.0));
#330=DIRECTION('',(0.0,0.0,-1.0));
#331=DIRECTION('',(-1.0,0.0,6.77163453099341E-18));
#332=DIRECTION('',(0.0,0.0,1.0));
#333=DIRECTION('',(1.0,0.0,0.0));
#334=DIRECTION('',(0.0,0.0,1.0));
#335=DIRECTION('',(1.0,0.0,0.0));
#336=DIRECTION('',(0.0,0.0,1.0));
#337=DIRECTION('',(1.0,0.0,0.0));
#338=DIRECTION('',(0.0,0.0,1.0));
#339=DIRECTION('',(1.0,0.0,0.0));
#340=DIRECTION('',(0.0,0.0,1.0));
#341=DIRECTION('',(1.0,0.0,0.0));
#342=DIRECTION('',(0.0,0.0,-1.0));
#343=DIRECTION('',(-1.0,0.0,0.0));
#344=DIRECTION('',(0.0,0.0,1.0));
#345=DIRECTION('',(1.0,0.0,0.0));
#346=DIRECTION('',(0.0,0.0,1.0));
#347=DIRECTION('',(1.0,0.0,0.0));
#348=DIRECTION('',(0.0,0.0,1.0));
#349=DIRECTION('',(1.0,0.0,0.0));
#350=DIRECTION('',(0.0,0.0,1.0));
#351=DIRECTION('',(1.0,0.0,0.0));
#352=DIRECTION('',(0.0,0.0,-1.0));
#353=DIRECTION('',(-1.0,0.0,0.0));
#354=DIRECTION('',(-0.0248035201341082,0.00394671043216829,-0.999684554679986));
#355=DIRECTION('',(0.0,0.0,-1.0));
#356=DIRECTION('',(-1.0,0.0,0.0));
#357=DIRECTION('',(-0.0157864666720801,0.0195340370709642,-0.999684554679986));
#358=DIRECTION('',(0.0,0.0,-1.0));
#359=DIRECTION('',(-1.0,0.0,0.0));
#360=DIRECTION('',(0.0,0.0,-1.0));
#361=DIRECTION('',(-1.0,0.0,0.0));
#362=DIRECTION('',(0.0158141500870706,0.0195116322049721,-0.999684554679986));
#363=DIRECTION('',(0.0,0.0,-1.0));
#364=DIRECTION('',(-1.0,0.0,0.0));
#365=DIRECTION('',(0.0,0.0,-1.0));
#366=DIRECTION('',(-1.0,0.0,0.0));
#367=DIRECTION('',(0.0248046442023397,0.003939639612177,-0.999684554679986));
#368=DIRECTION('',(0.0,0.0,-1.0));
#369=DIRECTION('',(-1.0,0.0,0.0));
#370=DIRECTION('',(0.0,0.0,-1.0));
#371=DIRECTION('',(-1.0,0.0,0.0));
#372=DIRECTION('',(0.00902373900588192,-0.0234384997094998,-0.999684554679986));
#373=DIRECTION('',(0.0,0.0,-1.0));
#374=DIRECTION('',(-1.0,0.0,0.0));
#375=DIRECTION('',(0.0,0.0,1.0));
#376=DIRECTION('',(-1.0,0.0,0.0));
#377=DIRECTION('',(0.0,0.0,-1.0));
#378=DIRECTION('',(-1.0,0.0,0.0));
#379=DIRECTION('',(-0.00898380857141531,-0.0234538337555007,-0.999684554679986));
#380=DIRECTION('',(0.0,0.0,-1.0));
#381=DIRECTION('',(-1.0,0.0,0.0));
#382=DIRECTION('',(0.0,0.0,-1.0));
#383=DIRECTION('',(-1.0,0.0,0.0));
#384=DIRECTION('',(0.0,0.0,-1.0));
#385=DIRECTION('',(-1.0,0.0,0.0));
#386=DIRECTION('',(0.0,0.0,-1.0));
#387=DIRECTION('',(-1.0,0.0,0.0));
#388=DIRECTION('',(0.0,0.0,-1.0));
#389=DIRECTION('',(-1.0,0.0,0.0));
#390=DIRECTION('',(0.0,0.0,-1.0));
#391=DIRECTION('',(-1.0,0.0,0.0));
#392=DIRECTION('',(0.0,0.0,-1.0));
#393=DIRECTION('',(-1.0,0.0,0.0));
#394=DIRECTION('',(0.0,0.0,-1.0));
#395=DIRECTION('',(-1.0,0.0,0.0));
#396=DIRECTION('',(0.0,0.0,-1.0));
#397=DIRECTION('',(-1.0,0.0,0.0));
#398=CARTESIAN_POINT('',(0.0,0.0,0.0));
#399=CARTESIAN_POINT('',(0.0,0.0,1.04083408558608E-13));
#400=CARTESIAN_POINT('',(24.7,0.0,1.04083408558608E-13));
#401=CARTESIAN_POINT('',(-10.0632151919752,-5.81,0.0));
#402=CARTESIAN_POINT('',(7.56714143143875,15.9424831991946,0.0));
#403=CARTESIAN_POINT('',(17.5901661656285,-1.41790488594162,1.00613961606655E-13));
#404=CARTESIAN_POINT('',(5.7387170123698,-3.30023136339521,0.0));
#405=CARTESIAN_POINT('',(10.0501831687922,-14.4989482355205,1.00613961606655E-13));
#406=CARTESIAN_POINT('',(-0.00990452952675801,11.6313911327719,0.0));
#407=CARTESIAN_POINT('',(-10.0254759056977,-14.5160433495789,0.0));
#408=CARTESIAN_POINT('',(-5.73308817305298,-3.31,0.0));
#409=CARTESIAN_POINT('',(-17.5840002560203,-1.42429514457352,0.0));
#410=CARTESIAN_POINT('',(10.0681279375701,-5.82427314056864,0.0));
#411=CARTESIAN_POINT('',(-7.53136591572022,15.9531880546211,0.0));
#412=CARTESIAN_POINT('',(0.0112743071184958,6.61999039953979,0.0));
#413=CARTESIAN_POINT('',(0.0,-16.3686071154476,1.00613961606655E-13));
#414=CARTESIAN_POINT('',(0.0,0.0,-0.299999999999967));
#415=CARTESIAN_POINT('',(25.0,0.0,-0.299999999999967));
#416=CARTESIAN_POINT('',(0.0,0.0,1.04083408558608E-13));
#417=CARTESIAN_POINT('',(0.0,0.0,-7.49999999999984));
#418=CARTESIAN_POINT('',(25.0,0.0,-7.49999999999984));
#419=CARTESIAN_POINT('',(0.0,0.0,-35.0));
#420=CARTESIAN_POINT('',(0.0,0.0,-8.0));
#421=CARTESIAN_POINT('',(24.5,0.0,-8.0));
#422=CARTESIAN_POINT('',(0.0,0.0,-7.49999999999984));
#423=CARTESIAN_POINT('',(0.0,0.0,-8.0));
#424=CARTESIAN_POINT('',(9.49999999999999,0.0,-8.0));
#425=CARTESIAN_POINT('',(0.0,-24.5,-8.0));
#426=CARTESIAN_POINT('',(0.0,0.0,-13.0));
#427=CARTESIAN_POINT('',(4.49999999999999,0.0,-13.0));
#428=CARTESIAN_POINT('',(0.0,0.0,-13.0));
#429=CARTESIAN_POINT('',(0.0,0.0,-35.0));
#430=CARTESIAN_POINT('',(4.49999999999999,0.0,-35.0));
#431=CARTESIAN_POINT('',(0.0,0.0,-35.0));
#432=CARTESIAN_POINT('',(0.0,-2.50471148888849,-35.0));
#433=CARTESIAN_POINT('',(-17.5840002560203,-1.42429514457352,-1.74219201836179E-16));
#434=CARTESIAN_POINT('',(-16.8396598533005,-1.54273381846396,30.0));
#435=CARTESIAN_POINT('',(10.0681279375701,-5.82427314056864,30.0));
#436=CARTESIAN_POINT('',(-7.05762247540669,15.3669820265441,30.0));
#437=CARTESIAN_POINT('',(-7.53136591572022,15.9531880546211,0.0));
#438=CARTESIAN_POINT('',(10.0681279375701,-5.82427314056864,0.0));
#439=CARTESIAN_POINT('',(0.0112743071184958,6.61999039953979,30.0));
#440=CARTESIAN_POINT('',(7.09256722661472,15.3569495291896,30.0));
#441=CARTESIAN_POINT('',(7.56714143143875,15.9424831991946,4.35548004590447E-17));
#442=CARTESIAN_POINT('',(0.0112743071184958,6.61999039953979,0.0));
#443=CARTESIAN_POINT('',(-10.0632151919752,-5.81,30.0));
#444=CARTESIAN_POINT('',(16.845792030221,-1.53613136829749,30.0));
#445=CARTESIAN_POINT('',(17.5901661656285,-1.41790488594162,0.0));
#446=CARTESIAN_POINT('',(-10.0632151919752,-5.81,0.0));
#447=CARTESIAN_POINT('',(5.7387170123698,-3.30023136339521,30.0));
#448=CARTESIAN_POINT('',(9.77938557678269,-13.7955713672942,30.0));
#449=CARTESIAN_POINT('',(10.0501831687922,-14.4989482355205,0.0));
#450=CARTESIAN_POINT('',(5.7387170123698,-3.30023136339521,0.0));
#451=CARTESIAN_POINT('',(3.58734998592506,-15.5170529607122,24.45));
#452=CARTESIAN_POINT('',(3.54701774381426,-15.4755117410105,26.3000273089909));
#453=CARTESIAN_POINT('',(3.50538973197555,-15.4340772977189,28.1500293204981));
#454=CARTESIAN_POINT('',(3.46233244950734,-15.3927497994888,30.0));
#455=CARTESIAN_POINT('',(3.58734998592506,-15.5170529607122,24.45));
#456=CARTESIAN_POINT('',(3.46233244950734,-15.3927497994888,30.0));
#457=CARTESIAN_POINT('',(-0.00990452952675801,11.6313911327719,24.45));
#458=CARTESIAN_POINT('',(-3.58960162766305,-15.5193735973709,24.45));
#459=CARTESIAN_POINT('',(-3.46466450317153,-15.3949896143751,30.0));
#460=CARTESIAN_POINT('',(-3.50769505049887,-15.4363449487374,28.1500293204981));
#461=CARTESIAN_POINT('',(-3.54929625833513,-15.4778063038418,26.3000273089909));
#462=CARTESIAN_POINT('',(-3.58960162766305,-15.5193735973709,24.45));
#463=CARTESIAN_POINT('',(-3.46466450317153,-15.3949896143751,30.0));
#464=CARTESIAN_POINT('',(-0.00990452952675801,11.6313911327719,30.0));
#465=CARTESIAN_POINT('',(-9.75587660471742,-13.8122063148152,30.0));
#466=CARTESIAN_POINT('',(-10.0254759056977,-14.5160433495789,0.0));
#467=CARTESIAN_POINT('',(-0.00990452952675801,11.6313911327719,30.0));
#468=CARTESIAN_POINT('',(-0.00990452952675801,11.6313911327719,0.0));
#469=CARTESIAN_POINT('',(-5.73308817305298,-3.31,30.0));
#470=CARTESIAN_POINT('',(-5.73308817305298,-3.31,0.0));
#471=CARTESIAN_POINT('',(0.0,-19.0,30.0));
#472=CARTESIAN_POINT('',(5.03970112234431,0.397858629485572,30.0));
#473=CARTESIAN_POINT('',(0.0,-19.0,24.45));
#474=CARTESIAN_POINT('',(0.0,-19.0,24.45));
#475=CARTESIAN_POINT('',(0.0,-19.0,30.0));
#476=MECHANICAL_DESIGN_GEOMETRIC_PRESENTATION_REPRESENTATION('',(#24),#477);
#477=(GEOMETRIC_REPRESENTATION_CONTEXT(3)GLOBAL_UNCERTAINTY_ASSIGNED_CONTEXT((#478))
     GLOBAL_UNIT_ASSIGNED_CONTEXT((#484,#480,#479))REPRESENTATION_CONTEXT('C5-391',
     'TOP_LEVEL_ASSEMBLY_PART'));
#478=UNCERTAINTY_MEASURE_WITH_UNIT(LENGTH_MEASURE(2.0E-5),#484,'DISTANCE_ACCURACY_VALUE',
     'Maximum Tolerance applied to model');
#479=(NAMED_UNIT(*)SI_UNIT($,.STERADIAN.)SOLID_ANGLE_UNIT());
#480=(CONVERSION_BASED_UNIT('DEGREE',#482)NAMED_UNIT(*)PLANE_ANGLE_UNIT());
#481=DIMENSIONAL_EXPONENTS(0.0,0.0,0.0,0.0,0.0,0.0,0.0);
#482=PLANE_ANGLE_MEASURE_WITH_UNIT(PLANE_ANGLE_MEASURE(0.0174532925),#483);
#483=(NAMED_UNIT(*)PLANE_ANGLE_UNIT()SI_UNIT($,.RADIAN.));
#484=(LENGTH_UNIT()NAMED_UNIT(*)SI_UNIT(.MILLI.,.METRE.));
#485=CARTESIAN_POINT('',(0.0,0.0,0.0));
#486=DIRECTION('',(0.0,0.0,1.0));
#487=DIRECTION('',(1.0,0.0,0.0));
#488=AXIS2_PLACEMENT_3D('PCS',#485,#486,#487);
#489=CARTESIAN_POINT('',(0.0,0.0,0.0));
#490=DIRECTION('',(0.0,0.0,1.0));
#491=DIRECTION('',(1.0,0.0,0.0));
#492=AXIS2_PLACEMENT_3D('MCS',#489,#490,#491);
#493=CARTESIAN_POINT('',(0.0,0.0,-35.0));
#494=DIRECTION('',(0.0,0.0,1.0));
#495=DIRECTION('',(1.0,0.0,0.0));
#496=AXIS2_PLACEMENT_3D('CSW',#493,#494,#495);
#497=CONSTRUCTIVE_GEOMETRY_REPRESENTATION('supplemental geometry',(#488,#492,#496),
     #477);
#498=CONSTRUCTIVE_GEOMETRY_REPRESENTATION_RELATIONSHIP('supplemental geometry',$,
     #22,#497);
ENDSEC;
END-ISO-10303-21;
