ISO-10303-21;
HEADER;
FILE_DESCRIPTION(
/* description */ ('3-D model version:1'),
/* implementation_level */ '2;1');
FILE_NAME(
/* name */ 'C5-390.140-40070',
/* time_stamp */ '2016-12-02T13:50:48',
/* author */ ('InteractiveCad'),
/* organization */ ('AB Sandvik Coromant'),
/* preprocessor_version */ 'ST-DEVELOPER v11',
/* originating_system */ 'SIEMENS UGS NX 6.0',
/* authorization */ '');
FILE_SCHEMA(('AUTOMOTIVE_DESIGN'));
ENDSEC;
DATA;
#10=SHAPE_REPRESENTATION_RELATIONSHIP('None','relationship between ds680184tlco-None and ds680184tlco-None',
     #22,#11);
#11=ADVANCED_BREP_SHAPE_REPRESENTATION('ds680184tlco-None',(#28,#163),#274);
#12=SHAPE_DEFINITION_REPRESENTATION(#13,#22);
#13=PRODUCT_DEFINITION_SHAPE('','',#14);
#14=PRODUCT_DEFINITION(' ','',#16,#15);
#15=PRODUCT_DEFINITION_CONTEXT('part definition',#21,'design');
#16=PRODUCT_DEFINITION_FORMATION_WITH_SPECIFIED_SOURCE(' ',' ',#18,.NOT_KNOWN.);
#17=PRODUCT_RELATED_PRODUCT_CATEGORY('part','',(#18));
#18=PRODUCT('ds680184tlco','ds680184tlco',' ',(#19));
#19=PRODUCT_CONTEXT(' ',#21,'mechanical');
#20=APPLICATION_PROTOCOL_DEFINITION('international standard','automotive_design',
     2001,#21);
#21=APPLICATION_CONTEXT('core data for automotive mechanical design processes');
#22=SHAPE_REPRESENTATION('ds680184tlco-None',(#162),#274);
#23=SURFACE_STYLE_USAGE(.BOTH.,#24);
#24=SURFACE_SIDE_STYLE('',(#25));
#25=SURFACE_STYLE_FILL_AREA(#26);
#26=FILL_AREA_STYLE('',(#27));
#27=FILL_AREA_STYLE_COLOUR('',#160);
#28=MANIFOLD_SOLID_BREP('NOCUT',#29);
#29=CLOSED_SHELL('',(#39,#40,#41,#42,#43,#44,#45,#46,#47,#48,#49,#50));
#30=FACE_OUTER_BOUND('',#96,.T.);
#31=FACE_OUTER_BOUND('',#97,.T.);
#32=CONICAL_SURFACE('',#172,31.775,82.3777976881392);
#33=CONICAL_SURFACE('',#176,28.0,82.3777976881398);
#34=CONICAL_SURFACE('',#184,22.225,8.30000000000001);
#35=PLANE('',#168);
#36=PLANE('',#180);
#37=PLANE('',#185);
#38=PLANE('',#186);
#39=ADVANCED_FACE('',(#56,#57),#51,.T.);
#40=ADVANCED_FACE('',(#58,#59),#35,.F.);
#41=ADVANCED_FACE('',(#60,#61),#52,.T.);
#42=ADVANCED_FACE('',(#62,#63),#32,.T.);
#43=ADVANCED_FACE('',(#64,#65),#53,.T.);
#44=ADVANCED_FACE('',(#66,#67),#33,.T.);
#45=ADVANCED_FACE('',(#68,#69),#54,.T.);
#46=ADVANCED_FACE('',(#70,#71),#36,.F.);
#47=ADVANCED_FACE('',(#72,#73),#55,.T.);
#48=ADVANCED_FACE('',(#74,#75),#34,.T.);
#49=ADVANCED_FACE('',(#30),#37,.F.);
#50=ADVANCED_FACE('',(#31),#38,.F.);
#51=CYLINDRICAL_SURFACE('',#166,25.0);
#52=CYLINDRICAL_SURFACE('',#170,31.775);
#53=CYLINDRICAL_SURFACE('',#174,28.0);
#54=CYLINDRICAL_SURFACE('',#178,31.775);
#55=CYLINDRICAL_SURFACE('',#182,22.225);
#56=FACE_BOUND('',#76,.T.);
#57=FACE_BOUND('',#77,.T.);
#58=FACE_BOUND('',#78,.T.);
#59=FACE_BOUND('',#79,.T.);
#60=FACE_BOUND('',#80,.T.);
#61=FACE_BOUND('',#81,.T.);
#62=FACE_BOUND('',#82,.T.);
#63=FACE_BOUND('',#83,.T.);
#64=FACE_BOUND('',#84,.T.);
#65=FACE_BOUND('',#85,.T.);
#66=FACE_BOUND('',#86,.T.);
#67=FACE_BOUND('',#87,.T.);
#68=FACE_BOUND('',#88,.T.);
#69=FACE_BOUND('',#89,.T.);
#70=FACE_BOUND('',#90,.T.);
#71=FACE_BOUND('',#91,.T.);
#72=FACE_BOUND('',#92,.T.);
#73=FACE_BOUND('',#93,.T.);
#74=FACE_BOUND('',#94,.T.);
#75=FACE_BOUND('',#95,.T.);
#76=EDGE_LOOP('',(#98));
#77=EDGE_LOOP('',(#99));
#78=EDGE_LOOP('',(#100));
#79=EDGE_LOOP('',(#101));
#80=EDGE_LOOP('',(#102));
#81=EDGE_LOOP('',(#103));
#82=EDGE_LOOP('',(#104));
#83=EDGE_LOOP('',(#105));
#84=EDGE_LOOP('',(#106));
#85=EDGE_LOOP('',(#107));
#86=EDGE_LOOP('',(#108));
#87=EDGE_LOOP('',(#109));
#88=EDGE_LOOP('',(#110));
#89=EDGE_LOOP('',(#111));
#90=EDGE_LOOP('',(#112));
#91=EDGE_LOOP('',(#113));
#92=EDGE_LOOP('',(#114));
#93=EDGE_LOOP('',(#115));
#94=EDGE_LOOP('',(#116));
#95=EDGE_LOOP('',(#117));
#96=EDGE_LOOP('',(#118));
#97=EDGE_LOOP('',(#119));
#98=ORIENTED_EDGE('',*,*,#131,.F.);
#99=ORIENTED_EDGE('',*,*,#132,.T.);
#100=ORIENTED_EDGE('',*,*,#133,.F.);
#101=ORIENTED_EDGE('',*,*,#131,.T.);
#102=ORIENTED_EDGE('',*,*,#134,.F.);
#103=ORIENTED_EDGE('',*,*,#133,.T.);
#104=ORIENTED_EDGE('',*,*,#135,.F.);
#105=ORIENTED_EDGE('',*,*,#134,.T.);
#106=ORIENTED_EDGE('',*,*,#136,.F.);
#107=ORIENTED_EDGE('',*,*,#135,.T.);
#108=ORIENTED_EDGE('',*,*,#137,.F.);
#109=ORIENTED_EDGE('',*,*,#136,.T.);
#110=ORIENTED_EDGE('',*,*,#138,.F.);
#111=ORIENTED_EDGE('',*,*,#137,.T.);
#112=ORIENTED_EDGE('',*,*,#139,.F.);
#113=ORIENTED_EDGE('',*,*,#138,.T.);
#114=ORIENTED_EDGE('',*,*,#140,.F.);
#115=ORIENTED_EDGE('',*,*,#139,.T.);
#116=ORIENTED_EDGE('',*,*,#141,.F.);
#117=ORIENTED_EDGE('',*,*,#140,.T.);
#118=ORIENTED_EDGE('',*,*,#141,.T.);
#119=ORIENTED_EDGE('',*,*,#132,.F.);
#120=VERTEX_POINT('',#240);
#121=VERTEX_POINT('',#242);
#122=VERTEX_POINT('',#245);
#123=VERTEX_POINT('',#248);
#124=VERTEX_POINT('',#251);
#125=VERTEX_POINT('',#254);
#126=VERTEX_POINT('',#257);
#127=VERTEX_POINT('',#260);
#128=VERTEX_POINT('',#263);
#129=VERTEX_POINT('',#266);
#130=VERTEX_POINT('',#269);
#131=EDGE_CURVE('',#120,#120,#142,.T.);
#132=EDGE_CURVE('',#121,#121,#143,.T.);
#133=EDGE_CURVE('',#122,#122,#144,.T.);
#134=EDGE_CURVE('',#123,#123,#145,.T.);
#135=EDGE_CURVE('',#124,#124,#146,.T.);
#136=EDGE_CURVE('',#125,#125,#147,.T.);
#137=EDGE_CURVE('',#126,#126,#148,.T.);
#138=EDGE_CURVE('',#127,#127,#149,.T.);
#139=EDGE_CURVE('',#128,#128,#150,.T.);
#140=EDGE_CURVE('',#129,#129,#151,.T.);
#141=EDGE_CURVE('',#130,#130,#152,.T.);
#142=CIRCLE('',#164,25.0);
#143=CIRCLE('',#165,25.0);
#144=CIRCLE('',#167,31.775);
#145=CIRCLE('',#169,31.775);
#146=CIRCLE('',#171,28.0);
#147=CIRCLE('',#173,28.0);
#148=CIRCLE('',#175,31.775);
#149=CIRCLE('',#177,31.775);
#150=CIRCLE('',#179,22.225);
#151=CIRCLE('',#181,22.225);
#152=CIRCLE('',#183,12.2465191382158);
#153=PRESENTATION_LAYER_ASSIGNMENT('1','Layer 1',(#163,#28));
#154=STYLED_ITEM('',(#156),#163);
#155=STYLED_ITEM('',(#157),#28);
#156=PRESENTATION_STYLE_ASSIGNMENT((#158));
#157=PRESENTATION_STYLE_ASSIGNMENT((#23));
#158=CURVE_STYLE('',#161,POSITIVE_LENGTH_MEASURE(0.176388888888889),#159);
#159=COLOUR_RGB('Deep Blue',0.0,0.0,0.752941176470588);
#160=COLOUR_RGB('Medium Gray',0.490196078431373,0.490196078431373,0.490196078431373);
#161=DRAUGHTING_PRE_DEFINED_CURVE_FONT('continuous');
#162=AXIS2_PLACEMENT_3D('',#237,#187,#188);
#163=AXIS2_PLACEMENT_3D('',#238,#189,#190);
#164=AXIS2_PLACEMENT_3D('',#239,#191,#192);
#165=AXIS2_PLACEMENT_3D('',#241,#193,#194);
#166=AXIS2_PLACEMENT_3D('',#243,#195,#196);
#167=AXIS2_PLACEMENT_3D('',#244,#197,#198);
#168=AXIS2_PLACEMENT_3D('',#246,#199,#200);
#169=AXIS2_PLACEMENT_3D('',#247,#201,#202);
#170=AXIS2_PLACEMENT_3D('',#249,#203,#204);
#171=AXIS2_PLACEMENT_3D('',#250,#205,#206);
#172=AXIS2_PLACEMENT_3D('',#252,#207,#208);
#173=AXIS2_PLACEMENT_3D('',#253,#209,#210);
#174=AXIS2_PLACEMENT_3D('',#255,#211,#212);
#175=AXIS2_PLACEMENT_3D('',#256,#213,#214);
#176=AXIS2_PLACEMENT_3D('',#258,#215,#216);
#177=AXIS2_PLACEMENT_3D('',#259,#217,#218);
#178=AXIS2_PLACEMENT_3D('',#261,#219,#220);
#179=AXIS2_PLACEMENT_3D('',#262,#221,#222);
#180=AXIS2_PLACEMENT_3D('',#264,#223,#224);
#181=AXIS2_PLACEMENT_3D('',#265,#225,#226);
#182=AXIS2_PLACEMENT_3D('',#267,#227,#228);
#183=AXIS2_PLACEMENT_3D('',#268,#229,#230);
#184=AXIS2_PLACEMENT_3D('',#270,#231,#232);
#185=AXIS2_PLACEMENT_3D('',#271,#233,#234);
#186=AXIS2_PLACEMENT_3D('',#272,#235,#236);
#187=DIRECTION('',(0.0,0.0,1.0));
#188=DIRECTION('',(1.0,0.0,0.0));
#189=DIRECTION('',(0.0,0.0,1.0));
#190=DIRECTION('',(1.0,0.0,0.0));
#191=DIRECTION('',(0.0,-1.28349482615625E-17,1.0));
#192=DIRECTION('',(0.0,-1.0,0.0));
#193=DIRECTION('',(0.0,-1.28349482615625E-17,1.0));
#194=DIRECTION('',(0.0,-1.0,0.0));
#195=DIRECTION('',(0.0,-1.28349482615625E-17,1.0));
#196=DIRECTION('',(0.0,-1.0,0.0));
#197=DIRECTION('',(0.0,-1.28349482615625E-17,1.0));
#198=DIRECTION('',(0.0,-1.0,0.0));
#199=DIRECTION('',(0.0,-1.28349482615625E-17,1.0));
#200=DIRECTION('',(0.0,-1.0,-1.38777878078145E-17));
#201=DIRECTION('',(0.0,-1.28349482615625E-17,1.0));
#202=DIRECTION('',(0.0,-1.0,0.0));
#203=DIRECTION('',(0.0,-1.28349482615625E-17,1.0));
#204=DIRECTION('',(0.0,-1.0,0.0));
#205=DIRECTION('',(0.0,-1.28349482615625E-17,1.0));
#206=DIRECTION('',(0.0,-1.0,0.0));
#207=DIRECTION('',(0.0,1.28349482615625E-17,-1.0));
#208=DIRECTION('',(0.0,1.0,-9.24651152071002E-18));
#209=DIRECTION('',(0.0,-1.28349482615625E-17,1.0));
#210=DIRECTION('',(0.0,-1.0,0.0));
#211=DIRECTION('',(0.0,-1.28349482615625E-17,1.0));
#212=DIRECTION('',(0.0,-1.0,0.0));
#213=DIRECTION('',(0.0,-1.28349482615625E-17,1.0));
#214=DIRECTION('',(0.0,-1.0,0.0));
#215=DIRECTION('',(0.0,-1.28349482615625E-17,1.0));
#216=DIRECTION('',(0.0,-1.0,-1.29516313491892E-17));
#217=DIRECTION('',(0.0,-1.28349482615625E-17,1.0));
#218=DIRECTION('',(0.0,-1.0,-1.36484931233423E-17));
#219=DIRECTION('',(0.0,-1.28349482615625E-17,1.0));
#220=DIRECTION('',(0.0,-1.0,0.0));
#221=DIRECTION('',(0.0,-1.28349482615625E-17,1.0));
#222=DIRECTION('',(0.0,-1.0,-1.95131999547447E-17));
#223=DIRECTION('',(0.0,1.28349482615625E-17,-1.0));
#224=DIRECTION('',(0.0,1.0,1.30104260698261E-17));
#225=DIRECTION('',(0.0,-1.28349482615625E-17,1.0));
#226=DIRECTION('',(0.0,-1.0,-1.28349482615625E-17));
#227=DIRECTION('',(0.0,-1.28349482615625E-17,1.0));
#228=DIRECTION('',(0.0,-1.0,0.0));
#229=DIRECTION('',(0.0,-1.28349482615625E-17,1.0));
#230=DIRECTION('',(0.0,-1.0,0.0));
#231=DIRECTION('',(0.0,1.28349482615625E-17,-1.0));
#232=DIRECTION('',(0.0,1.0,0.0));
#233=DIRECTION('',(0.0,1.28349482615625E-17,-1.0));
#234=DIRECTION('',(0.0,1.0,1.38777878078145E-17));
#235=DIRECTION('',(0.0,-1.28349482615625E-17,1.0));
#236=DIRECTION('',(0.0,-1.0,-1.38777878078145E-17));
#237=CARTESIAN_POINT('',(0.0,0.0,0.0));
#238=CARTESIAN_POINT('',(0.0,2.69533913492813E-15,-3.19999999999999));
#239=CARTESIAN_POINT('',(0.0,2.89941481228697E-15,-19.1));
#240=CARTESIAN_POINT('',(0.0,-25.0,-19.1));
#241=CARTESIAN_POINT('',(0.0,3.5527136788005E-15,-70.0));
#242=CARTESIAN_POINT('',(0.0,-25.0,-70.0));
#243=CARTESIAN_POINT('',(0.0,3.5527136788005E-15,-70.0));
#244=CARTESIAN_POINT('',(0.0,2.89941481228697E-15,-19.1));
#245=CARTESIAN_POINT('',(0.0,-31.775,-19.1));
#246=CARTESIAN_POINT('',(0.0,-25.0,-19.1));
#247=CARTESIAN_POINT('',(0.0,2.84212307380179E-15,-14.6362703987865));
#248=CARTESIAN_POINT('',(0.0,-31.775,-14.6362703987865));
#249=CARTESIAN_POINT('',(0.0,3.5527136788005E-15,-70.0));
#250=CARTESIAN_POINT('',(0.0,2.83563909557217E-15,-14.1310889132455));
#251=CARTESIAN_POINT('',(0.0,-28.0,-14.1310889132455));
#252=CARTESIAN_POINT('',(0.0,2.84212307380179E-15,-14.6362703987865));
#253=CARTESIAN_POINT('',(0.0,2.75783135681677E-15,-8.06891108675446));
#254=CARTESIAN_POINT('',(0.0,-28.0,-8.06891108675446));
#255=CARTESIAN_POINT('',(0.0,3.5527136788005E-15,-70.0));
#256=CARTESIAN_POINT('',(0.0,2.75134737858715E-15,-7.56372960121354));
#257=CARTESIAN_POINT('',(0.0,-31.775,-7.56372960121354));
#258=CARTESIAN_POINT('',(0.0,2.75783135681677E-15,-8.06891108675446));
#259=CARTESIAN_POINT('',(0.0,2.69533913492813E-15,-3.19999999999999));
#260=CARTESIAN_POINT('',(0.0,-31.775,-3.19999999999999));
#261=CARTESIAN_POINT('',(0.0,3.5527136788005E-15,-70.0));
#262=CARTESIAN_POINT('',(0.0,2.69533913492813E-15,-3.19999999999999));
#263=CARTESIAN_POINT('',(0.0,-22.225,-3.19999999999999));
#264=CARTESIAN_POINT('',(0.0,-31.775,-3.2));
#265=CARTESIAN_POINT('',(0.0,2.65426730049113E-15,0.0));
#266=CARTESIAN_POINT('',(0.0,-22.225,-2.85256725113227E-16));
#267=CARTESIAN_POINT('',(0.0,3.5527136788005E-15,-70.0));
#268=CARTESIAN_POINT('',(0.0,1.77635683940025E-15,68.4));
#269=CARTESIAN_POINT('',(0.0,-12.2465191382158,68.4));
#270=CARTESIAN_POINT('',(0.0,2.65426730049113E-15,0.0));
#271=CARTESIAN_POINT('',(0.0,-8.5,68.4));
#272=CARTESIAN_POINT('',(0.0,-16.5232469928385,-70.0));
#273=MECHANICAL_DESIGN_GEOMETRIC_PRESENTATION_REPRESENTATION('',(#154,#155),#274);
#274=(GEOMETRIC_REPRESENTATION_CONTEXT(3)GLOBAL_UNCERTAINTY_ASSIGNED_CONTEXT((#275))
     GLOBAL_UNIT_ASSIGNED_CONTEXT((#281,#277,#276))REPRESENTATION_CONTEXT('C5-390',
     'TOP_LEVEL_ASSEMBLY_PART'));
#275=UNCERTAINTY_MEASURE_WITH_UNIT(LENGTH_MEASURE(2.0E-5),#281,'DISTANCE_ACCURACY_VALUE',
     'Maximum Tolerance applied to model');
#276=(NAMED_UNIT(*)SI_UNIT($,.STERADIAN.)SOLID_ANGLE_UNIT());
#277=(CONVERSION_BASED_UNIT('DEGREE',#279)NAMED_UNIT(*)PLANE_ANGLE_UNIT());
#278=DIMENSIONAL_EXPONENTS(0.0,0.0,0.0,0.0,0.0,0.0,0.0);
#279=PLANE_ANGLE_MEASURE_WITH_UNIT(PLANE_ANGLE_MEASURE(0.0174532925),#280);
#280=(NAMED_UNIT(*)PLANE_ANGLE_UNIT()SI_UNIT($,.RADIAN.));
#281=(LENGTH_UNIT()NAMED_UNIT(*)SI_UNIT(.MILLI.,.METRE.));
#282=CARTESIAN_POINT('',(0.0,0.0,0.0));
#283=DIRECTION('',(0.0,0.0,1.0));
#284=DIRECTION('',(1.0,0.0,0.0));
#285=AXIS2_PLACEMENT_3D('PCS',#282,#283,#284);
#286=CARTESIAN_POINT('',(0.0,0.0,0.0));
#287=DIRECTION('',(0.0,0.0,1.0));
#288=DIRECTION('',(1.0,0.0,0.0));
#289=AXIS2_PLACEMENT_3D('MCS',#286,#287,#288);
#290=CARTESIAN_POINT('',(0.0,0.0,-70.0));
#291=DIRECTION('',(0.0,0.0,1.0));
#292=DIRECTION('',(1.0,0.0,0.0));
#293=AXIS2_PLACEMENT_3D('CSW',#290,#291,#292);
#294=CONSTRUCTIVE_GEOMETRY_REPRESENTATION('supplemental geometry',(#285,#289,#293),
     #274);
#295=CONSTRUCTIVE_GEOMETRY_REPRESENTATION_RELATIONSHIP('supplemental geometry',$,
     #22,#294);
ENDSEC;
END-ISO-10303-21;
