ISO-10303-21;
HEADER;
FILE_DESCRIPTION(
/* description */ ('3-D model version:1'),
/* implementation_level */ '2;1');
FILE_NAME(
/* name */ 'C5-390.140-40030',
/* time_stamp */ '2016-12-02T13:50:48',
/* author */ ('InteractiveCad'),
/* organization */ ('AB Sandvik Coromant'),
/* preprocessor_version */ 'ST-DEVELOPER v11',
/* originating_system */ 'SIEMENS UGS NX 6.0',
/* authorization */ '');
FILE_SCHEMA(('AUTOMOTIVE_DESIGN'));
ENDSEC;
DATA;
#10=SHAPE_REPRESENTATION_RELATIONSHIP('None','relationship between ds680184tlca-None and ds680184tlca-None',
     #22,#11);
#11=ADVANCED_BREP_SHAPE_REPRESENTATION('ds680184tlca-None',(#28,#163),#274);
#12=SHAPE_DEFINITION_REPRESENTATION(#13,#22);
#13=PRODUCT_DEFINITION_SHAPE('','',#14);
#14=PRODUCT_DEFINITION(' ','',#16,#15);
#15=PRODUCT_DEFINITION_CONTEXT('part definition',#21,'design');
#16=PRODUCT_DEFINITION_FORMATION_WITH_SPECIFIED_SOURCE(' ',' ',#18,.NOT_KNOWN.);
#17=PRODUCT_RELATED_PRODUCT_CATEGORY('part','',(#18));
#18=PRODUCT('ds680184tlca','ds680184tlca',' ',(#19));
#19=PRODUCT_CONTEXT(' ',#21,'mechanical');
#20=APPLICATION_PROTOCOL_DEFINITION('international standard','automotive_design',
     2001,#21);
#21=APPLICATION_CONTEXT('core data for automotive mechanical design processes');
#22=SHAPE_REPRESENTATION('ds680184tlca-None',(#162),#274);
#23=SURFACE_STYLE_USAGE(.BOTH.,#24);
#24=SURFACE_SIDE_STYLE('',(#25));
#25=SURFACE_STYLE_FILL_AREA(#26);
#26=FILL_AREA_STYLE('',(#27));
#27=FILL_AREA_STYLE_COLOUR('',#160);
#28=MANIFOLD_SOLID_BREP('NOCUT',#29);
#29=CLOSED_SHELL('',(#58,#59,#60,#61,#62,#63,#64,#65,#66,#67,#68,#69));
#30=CONICAL_SURFACE('',#173,31.775,82.3777976881392);
#31=CONICAL_SURFACE('',#177,28.0,82.3777976881398);
#32=CONICAL_SURFACE('',#185,22.225,8.30000000000002);
#33=CYLINDRICAL_SURFACE('',#167,25.0);
#34=CYLINDRICAL_SURFACE('',#171,31.775);
#35=CYLINDRICAL_SURFACE('',#175,28.0);
#36=CYLINDRICAL_SURFACE('',#179,31.775);
#37=CYLINDRICAL_SURFACE('',#183,22.225);
#38=FACE_BOUND('',#77,.T.);
#39=FACE_BOUND('',#78,.T.);
#40=FACE_BOUND('',#79,.T.);
#41=FACE_BOUND('',#80,.T.);
#42=FACE_BOUND('',#81,.T.);
#43=FACE_BOUND('',#82,.T.);
#44=FACE_BOUND('',#83,.T.);
#45=FACE_BOUND('',#84,.T.);
#46=FACE_BOUND('',#85,.T.);
#47=FACE_BOUND('',#86,.T.);
#48=FACE_BOUND('',#87,.T.);
#49=FACE_BOUND('',#88,.T.);
#50=FACE_BOUND('',#89,.T.);
#51=FACE_BOUND('',#90,.T.);
#52=FACE_BOUND('',#91,.T.);
#53=FACE_BOUND('',#92,.T.);
#54=FACE_BOUND('',#93,.T.);
#55=FACE_BOUND('',#94,.T.);
#56=FACE_BOUND('',#95,.T.);
#57=FACE_BOUND('',#96,.T.);
#58=ADVANCED_FACE('',(#74),#70,.F.);
#59=ADVANCED_FACE('',(#38,#39),#33,.T.);
#60=ADVANCED_FACE('',(#40,#41),#71,.F.);
#61=ADVANCED_FACE('',(#42,#43),#34,.T.);
#62=ADVANCED_FACE('',(#44,#45),#30,.T.);
#63=ADVANCED_FACE('',(#46,#47),#35,.T.);
#64=ADVANCED_FACE('',(#48,#49),#31,.T.);
#65=ADVANCED_FACE('',(#50,#51),#36,.T.);
#66=ADVANCED_FACE('',(#52,#53),#72,.F.);
#67=ADVANCED_FACE('',(#54,#55),#37,.T.);
#68=ADVANCED_FACE('',(#56,#57),#32,.T.);
#69=ADVANCED_FACE('',(#75),#73,.F.);
#70=PLANE('',#165);
#71=PLANE('',#169);
#72=PLANE('',#181);
#73=PLANE('',#186);
#74=FACE_OUTER_BOUND('',#76,.T.);
#75=FACE_OUTER_BOUND('',#97,.T.);
#76=EDGE_LOOP('',(#98));
#77=EDGE_LOOP('',(#99));
#78=EDGE_LOOP('',(#100));
#79=EDGE_LOOP('',(#101));
#80=EDGE_LOOP('',(#102));
#81=EDGE_LOOP('',(#103));
#82=EDGE_LOOP('',(#104));
#83=EDGE_LOOP('',(#105));
#84=EDGE_LOOP('',(#106));
#85=EDGE_LOOP('',(#107));
#86=EDGE_LOOP('',(#108));
#87=EDGE_LOOP('',(#109));
#88=EDGE_LOOP('',(#110));
#89=EDGE_LOOP('',(#111));
#90=EDGE_LOOP('',(#112));
#91=EDGE_LOOP('',(#113));
#92=EDGE_LOOP('',(#114));
#93=EDGE_LOOP('',(#115));
#94=EDGE_LOOP('',(#116));
#95=EDGE_LOOP('',(#117));
#96=EDGE_LOOP('',(#118));
#97=EDGE_LOOP('',(#119));
#98=ORIENTED_EDGE('',*,*,#131,.F.);
#99=ORIENTED_EDGE('',*,*,#132,.F.);
#100=ORIENTED_EDGE('',*,*,#131,.T.);
#101=ORIENTED_EDGE('',*,*,#133,.F.);
#102=ORIENTED_EDGE('',*,*,#132,.T.);
#103=ORIENTED_EDGE('',*,*,#134,.F.);
#104=ORIENTED_EDGE('',*,*,#133,.T.);
#105=ORIENTED_EDGE('',*,*,#135,.F.);
#106=ORIENTED_EDGE('',*,*,#134,.T.);
#107=ORIENTED_EDGE('',*,*,#136,.F.);
#108=ORIENTED_EDGE('',*,*,#135,.T.);
#109=ORIENTED_EDGE('',*,*,#137,.F.);
#110=ORIENTED_EDGE('',*,*,#136,.T.);
#111=ORIENTED_EDGE('',*,*,#138,.F.);
#112=ORIENTED_EDGE('',*,*,#137,.T.);
#113=ORIENTED_EDGE('',*,*,#139,.F.);
#114=ORIENTED_EDGE('',*,*,#138,.T.);
#115=ORIENTED_EDGE('',*,*,#140,.F.);
#116=ORIENTED_EDGE('',*,*,#139,.T.);
#117=ORIENTED_EDGE('',*,*,#141,.F.);
#118=ORIENTED_EDGE('',*,*,#140,.T.);
#119=ORIENTED_EDGE('',*,*,#141,.T.);
#120=VERTEX_POINT('',#240);
#121=VERTEX_POINT('',#243);
#122=VERTEX_POINT('',#246);
#123=VERTEX_POINT('',#249);
#124=VERTEX_POINT('',#252);
#125=VERTEX_POINT('',#255);
#126=VERTEX_POINT('',#258);
#127=VERTEX_POINT('',#261);
#128=VERTEX_POINT('',#264);
#129=VERTEX_POINT('',#267);
#130=VERTEX_POINT('',#270);
#131=EDGE_CURVE('',#120,#120,#142,.T.);
#132=EDGE_CURVE('',#121,#121,#143,.T.);
#133=EDGE_CURVE('',#122,#122,#144,.T.);
#134=EDGE_CURVE('',#123,#123,#145,.T.);
#135=EDGE_CURVE('',#124,#124,#146,.T.);
#136=EDGE_CURVE('',#125,#125,#147,.T.);
#137=EDGE_CURVE('',#126,#126,#148,.T.);
#138=EDGE_CURVE('',#127,#127,#149,.T.);
#139=EDGE_CURVE('',#128,#128,#150,.T.);
#140=EDGE_CURVE('',#129,#129,#151,.T.);
#141=EDGE_CURVE('',#130,#130,#152,.T.);
#142=CIRCLE('',#164,25.0);
#143=CIRCLE('',#166,25.0);
#144=CIRCLE('',#168,31.775);
#145=CIRCLE('',#170,31.775);
#146=CIRCLE('',#172,28.0);
#147=CIRCLE('',#174,28.0);
#148=CIRCLE('',#176,31.775);
#149=CIRCLE('',#178,31.775);
#150=CIRCLE('',#180,22.225);
#151=CIRCLE('',#182,22.225);
#152=CIRCLE('',#184,12.2465191382158);
#153=PRESENTATION_LAYER_ASSIGNMENT('1','Layer 1',(#163,#28));
#154=STYLED_ITEM('',(#156),#163);
#155=STYLED_ITEM('',(#157),#28);
#156=PRESENTATION_STYLE_ASSIGNMENT((#158));
#157=PRESENTATION_STYLE_ASSIGNMENT((#23));
#158=CURVE_STYLE('',#161,POSITIVE_LENGTH_MEASURE(0.176388888888889),#159);
#159=COLOUR_RGB('Deep Blue',0.0,0.0,0.752941176470588);
#160=COLOUR_RGB('Medium Gray',0.490196078431373,0.490196078431373,0.490196078431373);
#161=DRAUGHTING_PRE_DEFINED_CURVE_FONT('continuous');
#162=AXIS2_PLACEMENT_3D('',#237,#187,#188);
#163=AXIS2_PLACEMENT_3D('',#238,#189,#190);
#164=AXIS2_PLACEMENT_3D('',#239,#191,#192);
#165=AXIS2_PLACEMENT_3D('',#241,#193,#194);
#166=AXIS2_PLACEMENT_3D('',#242,#195,#196);
#167=AXIS2_PLACEMENT_3D('',#244,#197,#198);
#168=AXIS2_PLACEMENT_3D('',#245,#199,#200);
#169=AXIS2_PLACEMENT_3D('',#247,#201,#202);
#170=AXIS2_PLACEMENT_3D('',#248,#203,#204);
#171=AXIS2_PLACEMENT_3D('',#250,#205,#206);
#172=AXIS2_PLACEMENT_3D('',#251,#207,#208);
#173=AXIS2_PLACEMENT_3D('',#253,#209,#210);
#174=AXIS2_PLACEMENT_3D('',#254,#211,#212);
#175=AXIS2_PLACEMENT_3D('',#256,#213,#214);
#176=AXIS2_PLACEMENT_3D('',#257,#215,#216);
#177=AXIS2_PLACEMENT_3D('',#259,#217,#218);
#178=AXIS2_PLACEMENT_3D('',#260,#219,#220);
#179=AXIS2_PLACEMENT_3D('',#262,#221,#222);
#180=AXIS2_PLACEMENT_3D('',#263,#223,#224);
#181=AXIS2_PLACEMENT_3D('',#265,#225,#226);
#182=AXIS2_PLACEMENT_3D('',#266,#227,#228);
#183=AXIS2_PLACEMENT_3D('',#268,#229,#230);
#184=AXIS2_PLACEMENT_3D('',#269,#231,#232);
#185=AXIS2_PLACEMENT_3D('',#271,#233,#234);
#186=AXIS2_PLACEMENT_3D('',#272,#235,#236);
#187=DIRECTION('',(0.0,0.0,1.0));
#188=DIRECTION('',(1.0,0.0,0.0));
#189=DIRECTION('',(0.0,0.0,1.0));
#190=DIRECTION('',(1.0,0.0,0.0));
#191=DIRECTION('',(0.0,0.0,1.0));
#192=DIRECTION('',(1.0,0.0,0.0));
#193=DIRECTION('',(0.0,0.0,1.0));
#194=DIRECTION('',(1.0,0.0,0.0));
#195=DIRECTION('',(0.0,0.0,1.0));
#196=DIRECTION('',(1.0,0.0,0.0));
#197=DIRECTION('',(0.0,0.0,1.0));
#198=DIRECTION('',(1.0,0.0,0.0));
#199=DIRECTION('',(0.0,0.0,1.0));
#200=DIRECTION('',(1.0,0.0,0.0));
#201=DIRECTION('',(0.0,0.0,1.0));
#202=DIRECTION('',(1.0,0.0,0.0));
#203=DIRECTION('',(0.0,0.0,1.0));
#204=DIRECTION('',(1.0,0.0,0.0));
#205=DIRECTION('',(0.0,0.0,1.0));
#206=DIRECTION('',(1.0,0.0,0.0));
#207=DIRECTION('',(0.0,0.0,1.0));
#208=DIRECTION('',(1.0,0.0,0.0));
#209=DIRECTION('',(0.0,0.0,-1.0));
#210=DIRECTION('',(-1.0,0.0,-8.78418594467452E-18));
#211=DIRECTION('',(0.0,0.0,1.0));
#212=DIRECTION('',(1.0,0.0,0.0));
#213=DIRECTION('',(0.0,0.0,1.0));
#214=DIRECTION('',(1.0,0.0,0.0));
#215=DIRECTION('',(0.0,0.0,1.0));
#216=DIRECTION('',(1.0,0.0,0.0));
#217=DIRECTION('',(0.0,0.0,1.0));
#218=DIRECTION('',(1.0,0.0,1.38767478741313E-18));
#219=DIRECTION('',(0.0,0.0,1.0));
#220=DIRECTION('',(1.0,0.0,0.0));
#221=DIRECTION('',(0.0,0.0,1.0));
#222=DIRECTION('',(1.0,0.0,0.0));
#223=DIRECTION('',(0.0,0.0,1.0));
#224=DIRECTION('',(1.0,0.0,0.0));
#225=DIRECTION('',(0.0,0.0,-1.0));
#226=DIRECTION('',(-1.0,0.0,0.0));
#227=DIRECTION('',(0.0,0.0,1.0));
#228=DIRECTION('',(1.0,0.0,0.0));
#229=DIRECTION('',(0.0,0.0,1.0));
#230=DIRECTION('',(1.0,0.0,0.0));
#231=DIRECTION('',(0.0,0.0,1.0));
#232=DIRECTION('',(1.0,0.0,0.0));
#233=DIRECTION('',(0.0,0.0,-1.0));
#234=DIRECTION('',(-1.0,0.0,0.0));
#235=DIRECTION('',(0.0,0.0,-1.0));
#236=DIRECTION('',(-1.0,0.0,0.0));
#237=CARTESIAN_POINT('',(0.0,0.0,0.0));
#238=CARTESIAN_POINT('',(0.0,1.77635683940025E-15,-3.2));
#239=CARTESIAN_POINT('',(0.0,1.77635683940025E-15,-30.0));
#240=CARTESIAN_POINT('',(25.0,1.77635683940025E-15,-30.0));
#241=CARTESIAN_POINT('',(0.0,-16.5232469928385,-30.0));
#242=CARTESIAN_POINT('',(0.0,1.77635683940025E-15,-19.1));
#243=CARTESIAN_POINT('',(25.0,1.77635683940025E-15,-19.1));
#244=CARTESIAN_POINT('',(0.0,1.77635683940025E-15,-30.0));
#245=CARTESIAN_POINT('',(0.0,1.77635683940025E-15,-19.1));
#246=CARTESIAN_POINT('',(31.775,1.77635683940025E-15,-19.1));
#247=CARTESIAN_POINT('',(0.0,-25.0,-19.1));
#248=CARTESIAN_POINT('',(0.0,1.77635683940025E-15,-14.6362703987865));
#249=CARTESIAN_POINT('',(31.775,1.77635683940025E-15,-14.6362703987865));
#250=CARTESIAN_POINT('',(0.0,1.77635683940025E-15,-30.0));
#251=CARTESIAN_POINT('',(0.0,1.77635683940025E-15,-14.1310889132455));
#252=CARTESIAN_POINT('',(28.0,1.77635683940025E-15,-14.1310889132455));
#253=CARTESIAN_POINT('',(0.0,1.77635683940025E-15,-14.6362703987865));
#254=CARTESIAN_POINT('',(0.0,1.77635683940025E-15,-8.06891108675446));
#255=CARTESIAN_POINT('',(28.0,1.77635683940025E-15,-8.06891108675446));
#256=CARTESIAN_POINT('',(0.0,1.77635683940025E-15,-30.0));
#257=CARTESIAN_POINT('',(0.0,1.77635683940025E-15,-7.56372960121354));
#258=CARTESIAN_POINT('',(31.775,1.77635683940025E-15,-7.56372960121354));
#259=CARTESIAN_POINT('',(0.0,1.77635683940025E-15,-8.06891108675446));
#260=CARTESIAN_POINT('',(0.0,1.77635683940025E-15,-3.2));
#261=CARTESIAN_POINT('',(31.775,1.77635683940025E-15,-3.2));
#262=CARTESIAN_POINT('',(0.0,1.77635683940025E-15,-30.0));
#263=CARTESIAN_POINT('',(0.0,1.77635683940025E-15,-3.2));
#264=CARTESIAN_POINT('',(22.225,1.77635683940025E-15,-3.2));
#265=CARTESIAN_POINT('',(0.0,-31.775,-3.2));
#266=CARTESIAN_POINT('',(0.0,1.77635683940025E-15,0.0));
#267=CARTESIAN_POINT('',(22.225,1.77635683940025E-15,0.0));
#268=CARTESIAN_POINT('',(0.0,1.77635683940025E-15,-30.0));
#269=CARTESIAN_POINT('',(0.0,1.77635683940025E-15,68.4));
#270=CARTESIAN_POINT('',(12.2465191382158,1.77635683940025E-15,68.4));
#271=CARTESIAN_POINT('',(0.0,1.77635683940025E-15,0.0));
#272=CARTESIAN_POINT('',(0.0,-8.5,68.4));
#273=MECHANICAL_DESIGN_GEOMETRIC_PRESENTATION_REPRESENTATION('',(#154,#155),#274);
#274=(GEOMETRIC_REPRESENTATION_CONTEXT(3)GLOBAL_UNCERTAINTY_ASSIGNED_CONTEXT((#275))
     GLOBAL_UNIT_ASSIGNED_CONTEXT((#281,#277,#276))REPRESENTATION_CONTEXT('C5-390',
     'TOP_LEVEL_ASSEMBLY_PART'));
#275=UNCERTAINTY_MEASURE_WITH_UNIT(LENGTH_MEASURE(2.0E-5),#281,'DISTANCE_ACCURACY_VALUE',
     'Maximum Tolerance applied to model');
#276=(NAMED_UNIT(*)SI_UNIT($,.STERADIAN.)SOLID_ANGLE_UNIT());
#277=(CONVERSION_BASED_UNIT('DEGREE',#279)NAMED_UNIT(*)PLANE_ANGLE_UNIT());
#278=DIMENSIONAL_EXPONENTS(0.0,0.0,0.0,0.0,0.0,0.0,0.0);
#279=PLANE_ANGLE_MEASURE_WITH_UNIT(PLANE_ANGLE_MEASURE(0.0174532925),#280);
#280=(NAMED_UNIT(*)PLANE_ANGLE_UNIT()SI_UNIT($,.RADIAN.));
#281=(LENGTH_UNIT()NAMED_UNIT(*)SI_UNIT(.MILLI.,.METRE.));
#282=CARTESIAN_POINT('',(0.0,0.0,0.0));
#283=DIRECTION('',(0.0,0.0,1.0));
#284=DIRECTION('',(1.0,0.0,0.0));
#285=AXIS2_PLACEMENT_3D('PCS',#282,#283,#284);
#286=CARTESIAN_POINT('',(0.0,0.0,0.0));
#287=DIRECTION('',(0.0,0.0,1.0));
#288=DIRECTION('',(1.0,0.0,0.0));
#289=AXIS2_PLACEMENT_3D('MCS',#286,#287,#288);
#290=CARTESIAN_POINT('',(0.0,0.0,-30.0));
#291=DIRECTION('',(0.0,0.0,1.0));
#292=DIRECTION('',(1.0,0.0,0.0));
#293=AXIS2_PLACEMENT_3D('CSW',#290,#291,#292);
#294=CONSTRUCTIVE_GEOMETRY_REPRESENTATION('supplemental geometry',(#285,#289,#293),
     #274);
#295=CONSTRUCTIVE_GEOMETRY_REPRESENTATION_RELATIONSHIP('supplemental geometry',$,
     #22,#294);
ENDSEC;
END-ISO-10303-21;
