ISO-10303-21;
HEADER;
FILE_DESCRIPTION(
/* description */ ('3-D model version:1'),
/* implementation_level */ '2;1');
FILE_NAME(
/* name */ 'C4-391.327-06029',
/* time_stamp */ '2016-12-02T14:01:31',
/* author */ ('InteractiveCad'),
/* organization */ ('AB Sandvik Coromant'),
/* preprocessor_version */ 'ST-DEVELOPER v11',
/* originating_system */ 'SIEMENS UGS NX 6.0',
/* authorization */ '');
FILE_SCHEMA(('AUTOMOTIVE_DESIGN'));
ENDSEC;
DATA;
#10=SHAPE_REPRESENTATION_RELATIONSHIP('None','relationship between ds680184tkjj-None and ds680184tkjj-None',
     #22,#11);
#11=ADVANCED_BREP_SHAPE_REPRESENTATION('ds680184tkjj-None',(#32),#477);
#12=SHAPE_DEFINITION_REPRESENTATION(#13,#22);
#13=PRODUCT_DEFINITION_SHAPE('','',#14);
#14=PRODUCT_DEFINITION(' ','',#16,#15);
#15=PRODUCT_DEFINITION_CONTEXT('part definition',#21,'design');
#16=PRODUCT_DEFINITION_FORMATION_WITH_SPECIFIED_SOURCE(' ',' ',#18,.NOT_KNOWN.);
#17=PRODUCT_RELATED_PRODUCT_CATEGORY('part','',(#18));
#18=PRODUCT('ds680184tkjj','ds680184tkjj',' ',(#19));
#19=PRODUCT_CONTEXT(' ',#21,'mechanical');
#20=APPLICATION_PROTOCOL_DEFINITION('international standard','automotive_design',
     2001,#21);
#21=APPLICATION_CONTEXT('core data for automotive mechanical design processes');
#22=SHAPE_REPRESENTATION('ds680184tkjj-None',(#269),#477);
#23=PRESENTATION_LAYER_ASSIGNMENT('1','Layer 1',(#32));
#24=STYLED_ITEM('',(#25),#32);
#25=PRESENTATION_STYLE_ASSIGNMENT((#26));
#26=SURFACE_STYLE_USAGE(.BOTH.,#27);
#27=SURFACE_SIDE_STYLE('',(#28));
#28=SURFACE_STYLE_FILL_AREA(#29);
#29=FILL_AREA_STYLE('',(#30));
#30=FILL_AREA_STYLE_COLOUR('',#31);
#31=COLOUR_RGB('Medium Gray',0.490196078431373,0.490196078431373,0.490196078431373);
#32=MANIFOLD_SOLID_BREP('NOCUT',#33);
#33=CLOSED_SHELL('',(#70,#71,#72,#73,#74,#75,#76,#77,#78,#79,#80,#81,#82,#83,#84,
     #85,#86));
#34=B_SPLINE_CURVE_WITH_KNOTS('',3,(#451,#452,#453,#454),.UNSPECIFIED.,.F.,.F.,
     (4,4),(0.0,1.0),.UNSPECIFIED.);
#35=B_SPLINE_CURVE_WITH_KNOTS('',3,(#459,#460,#461,#462),.UNSPECIFIED.,.F.,.F.,
     (4,4),(0.0,1.0),.UNSPECIFIED.);
#36=LINE('',#433,#42);
#37=LINE('',#437,#43);
#38=LINE('',#441,#44);
#39=LINE('',#445,#45);
#40=LINE('',#449,#46);
#41=LINE('',#466,#47);
#42=VECTOR('',#354,1.0);
#43=VECTOR('',#357,1.0);
#44=VECTOR('',#362,1.0);
#45=VECTOR('',#367,1.0);
#46=VECTOR('',#372,1.0);
#47=VECTOR('',#379,1.0);
#48=CONICAL_SURFACE('',#287,19.5,44.9999999999985);
#49=CONICAL_SURFACE('',#290,20.0,45.0000000000033);
#50=CONICAL_SURFACE('',#292,20.0,1.43916666666667);
#51=CONICAL_SURFACE('',#294,8.5,1.43916666666667);
#52=CONICAL_SURFACE('',#296,20.0,1.43916666666667);
#53=CONICAL_SURFACE('',#298,8.5,1.43916666666667);
#54=CONICAL_SURFACE('',#302,20.0,1.43916666666667);
#55=CONICAL_SURFACE('',#304,8.5,1.43916666666667);
#56=TOROIDAL_SURFACE('',#283,8.00000000000001,5.0);
#57=CYLINDRICAL_SURFACE('',#281,3.00000000000001);
#58=CYLINDRICAL_SURFACE('',#289,20.0);
#59=CYLINDRICAL_SURFACE('',#309,4.0);
#60=FACE_OUTER_BOUND('',#108,.T.);
#61=FACE_OUTER_BOUND('',#121,.T.);
#62=FACE_OUTER_BOUND('',#122,.T.);
#63=FACE_OUTER_BOUND('',#123,.T.);
#64=FACE_OUTER_BOUND('',#124,.T.);
#65=FACE_OUTER_BOUND('',#125,.T.);
#66=FACE_OUTER_BOUND('',#126,.T.);
#67=FACE_OUTER_BOUND('',#127,.T.);
#68=FACE_OUTER_BOUND('',#128,.T.);
#69=FACE_OUTER_BOUND('',#129,.T.);
#70=ADVANCED_FACE('',(#92,#93),#87,.T.);
#71=ADVANCED_FACE('',(#60),#88,.T.);
#72=ADVANCED_FACE('',(#94,#95),#57,.T.);
#73=ADVANCED_FACE('',(#96,#97),#56,.F.);
#74=ADVANCED_FACE('',(#98,#99),#89,.T.);
#75=ADVANCED_FACE('',(#100,#101),#48,.T.);
#76=ADVANCED_FACE('',(#102,#103),#58,.T.);
#77=ADVANCED_FACE('',(#104,#105),#49,.T.);
#78=ADVANCED_FACE('',(#61),#50,.T.);
#79=ADVANCED_FACE('',(#62),#51,.T.);
#80=ADVANCED_FACE('',(#63),#52,.T.);
#81=ADVANCED_FACE('',(#64),#53,.T.);
#82=ADVANCED_FACE('',(#65),#54,.T.);
#83=ADVANCED_FACE('',(#66),#55,.T.);
#84=ADVANCED_FACE('',(#67),#90,.F.);
#85=ADVANCED_FACE('',(#68),#91,.F.);
#86=ADVANCED_FACE('',(#69),#59,.F.);
#87=PLANE('',#277);
#88=PLANE('',#279);
#89=PLANE('',#285);
#90=PLANE('',#306);
#91=PLANE('',#308);
#92=FACE_BOUND('',#106,.T.);
#93=FACE_BOUND('',#107,.T.);
#94=FACE_BOUND('',#109,.T.);
#95=FACE_BOUND('',#110,.T.);
#96=FACE_BOUND('',#111,.T.);
#97=FACE_BOUND('',#112,.T.);
#98=FACE_BOUND('',#113,.T.);
#99=FACE_BOUND('',#114,.T.);
#100=FACE_BOUND('',#115,.T.);
#101=FACE_BOUND('',#116,.T.);
#102=FACE_BOUND('',#117,.T.);
#103=FACE_BOUND('',#118,.T.);
#104=FACE_BOUND('',#119,.T.);
#105=FACE_BOUND('',#120,.T.);
#106=EDGE_LOOP('',(#130));
#107=EDGE_LOOP('',(#131,#132,#133,#134,#135,#136));
#108=EDGE_LOOP('',(#137));
#109=EDGE_LOOP('',(#138));
#110=EDGE_LOOP('',(#139));
#111=EDGE_LOOP('',(#140));
#112=EDGE_LOOP('',(#141));
#113=EDGE_LOOP('',(#142));
#114=EDGE_LOOP('',(#143));
#115=EDGE_LOOP('',(#144));
#116=EDGE_LOOP('',(#145));
#117=EDGE_LOOP('',(#146));
#118=EDGE_LOOP('',(#147));
#119=EDGE_LOOP('',(#148));
#120=EDGE_LOOP('',(#149));
#121=EDGE_LOOP('',(#150,#151,#152,#153));
#122=EDGE_LOOP('',(#154,#155,#156,#157));
#123=EDGE_LOOP('',(#158,#159,#160,#161));
#124=EDGE_LOOP('',(#162,#163,#164,#165));
#125=EDGE_LOOP('',(#166,#167,#168,#169,#170,#171,#172,#173));
#126=EDGE_LOOP('',(#174,#175,#176,#177));
#127=EDGE_LOOP('',(#178,#179,#180,#181,#182,#183,#184,#185));
#128=EDGE_LOOP('',(#186,#187));
#129=EDGE_LOOP('',(#188,#189,#190,#191));
#130=ORIENTED_EDGE('',*,*,#215,.F.);
#131=ORIENTED_EDGE('',*,*,#216,.T.);
#132=ORIENTED_EDGE('',*,*,#217,.T.);
#133=ORIENTED_EDGE('',*,*,#218,.T.);
#134=ORIENTED_EDGE('',*,*,#219,.T.);
#135=ORIENTED_EDGE('',*,*,#220,.T.);
#136=ORIENTED_EDGE('',*,*,#221,.T.);
#137=ORIENTED_EDGE('',*,*,#222,.T.);
#138=ORIENTED_EDGE('',*,*,#223,.T.);
#139=ORIENTED_EDGE('',*,*,#222,.F.);
#140=ORIENTED_EDGE('',*,*,#224,.T.);
#141=ORIENTED_EDGE('',*,*,#223,.F.);
#142=ORIENTED_EDGE('',*,*,#225,.T.);
#143=ORIENTED_EDGE('',*,*,#224,.F.);
#144=ORIENTED_EDGE('',*,*,#226,.T.);
#145=ORIENTED_EDGE('',*,*,#225,.F.);
#146=ORIENTED_EDGE('',*,*,#227,.T.);
#147=ORIENTED_EDGE('',*,*,#226,.F.);
#148=ORIENTED_EDGE('',*,*,#215,.T.);
#149=ORIENTED_EDGE('',*,*,#227,.F.);
#150=ORIENTED_EDGE('',*,*,#221,.F.);
#151=ORIENTED_EDGE('',*,*,#228,.F.);
#152=ORIENTED_EDGE('',*,*,#229,.T.);
#153=ORIENTED_EDGE('',*,*,#230,.T.);
#154=ORIENTED_EDGE('',*,*,#216,.F.);
#155=ORIENTED_EDGE('',*,*,#230,.F.);
#156=ORIENTED_EDGE('',*,*,#231,.T.);
#157=ORIENTED_EDGE('',*,*,#232,.T.);
#158=ORIENTED_EDGE('',*,*,#217,.F.);
#159=ORIENTED_EDGE('',*,*,#232,.F.);
#160=ORIENTED_EDGE('',*,*,#233,.T.);
#161=ORIENTED_EDGE('',*,*,#234,.T.);
#162=ORIENTED_EDGE('',*,*,#218,.F.);
#163=ORIENTED_EDGE('',*,*,#234,.F.);
#164=ORIENTED_EDGE('',*,*,#235,.T.);
#165=ORIENTED_EDGE('',*,*,#236,.T.);
#166=ORIENTED_EDGE('',*,*,#237,.F.);
#167=ORIENTED_EDGE('',*,*,#238,.F.);
#168=ORIENTED_EDGE('',*,*,#239,.F.);
#169=ORIENTED_EDGE('',*,*,#240,.T.);
#170=ORIENTED_EDGE('',*,*,#241,.T.);
#171=ORIENTED_EDGE('',*,*,#219,.F.);
#172=ORIENTED_EDGE('',*,*,#236,.F.);
#173=ORIENTED_EDGE('',*,*,#242,.T.);
#174=ORIENTED_EDGE('',*,*,#220,.F.);
#175=ORIENTED_EDGE('',*,*,#241,.F.);
#176=ORIENTED_EDGE('',*,*,#243,.T.);
#177=ORIENTED_EDGE('',*,*,#228,.T.);
#178=ORIENTED_EDGE('',*,*,#240,.F.);
#179=ORIENTED_EDGE('',*,*,#244,.T.);
#180=ORIENTED_EDGE('',*,*,#242,.F.);
#181=ORIENTED_EDGE('',*,*,#235,.F.);
#182=ORIENTED_EDGE('',*,*,#233,.F.);
#183=ORIENTED_EDGE('',*,*,#231,.F.);
#184=ORIENTED_EDGE('',*,*,#229,.F.);
#185=ORIENTED_EDGE('',*,*,#243,.F.);
#186=ORIENTED_EDGE('',*,*,#238,.T.);
#187=ORIENTED_EDGE('',*,*,#245,.F.);
#188=ORIENTED_EDGE('',*,*,#237,.T.);
#189=ORIENTED_EDGE('',*,*,#244,.F.);
#190=ORIENTED_EDGE('',*,*,#239,.T.);
#191=ORIENTED_EDGE('',*,*,#245,.T.);
#192=VERTEX_POINT('',#400);
#193=VERTEX_POINT('',#402);
#194=VERTEX_POINT('',#403);
#195=VERTEX_POINT('',#405);
#196=VERTEX_POINT('',#407);
#197=VERTEX_POINT('',#409);
#198=VERTEX_POINT('',#411);
#199=VERTEX_POINT('',#415);
#200=VERTEX_POINT('',#418);
#201=VERTEX_POINT('',#421);
#202=VERTEX_POINT('',#424);
#203=VERTEX_POINT('',#427);
#204=VERTEX_POINT('',#430);
#205=VERTEX_POINT('',#434);
#206=VERTEX_POINT('',#436);
#207=VERTEX_POINT('',#440);
#208=VERTEX_POINT('',#444);
#209=VERTEX_POINT('',#448);
#210=VERTEX_POINT('',#455);
#211=VERTEX_POINT('',#456);
#212=VERTEX_POINT('',#458);
#213=VERTEX_POINT('',#463);
#214=VERTEX_POINT('',#465);
#215=EDGE_CURVE('',#192,#192,#246,.T.);
#216=EDGE_CURVE('',#193,#194,#247,.T.);
#217=EDGE_CURVE('',#194,#195,#248,.T.);
#218=EDGE_CURVE('',#195,#196,#249,.T.);
#219=EDGE_CURVE('',#196,#197,#250,.T.);
#220=EDGE_CURVE('',#197,#198,#251,.T.);
#221=EDGE_CURVE('',#198,#193,#252,.T.);
#222=EDGE_CURVE('',#199,#199,#253,.T.);
#223=EDGE_CURVE('',#200,#200,#254,.T.);
#224=EDGE_CURVE('',#201,#201,#255,.T.);
#225=EDGE_CURVE('',#202,#202,#256,.T.);
#226=EDGE_CURVE('',#203,#203,#257,.T.);
#227=EDGE_CURVE('',#204,#204,#258,.T.);
#228=EDGE_CURVE('',#205,#198,#36,.T.);
#229=EDGE_CURVE('',#205,#206,#259,.T.);
#230=EDGE_CURVE('',#206,#193,#37,.T.);
#231=EDGE_CURVE('',#206,#207,#260,.T.);
#232=EDGE_CURVE('',#207,#194,#38,.T.);
#233=EDGE_CURVE('',#207,#208,#261,.T.);
#234=EDGE_CURVE('',#208,#195,#39,.T.);
#235=EDGE_CURVE('',#208,#209,#262,.T.);
#236=EDGE_CURVE('',#209,#196,#40,.T.);
#237=EDGE_CURVE('',#210,#211,#34,.T.);
#238=EDGE_CURVE('',#212,#210,#263,.T.);
#239=EDGE_CURVE('',#213,#212,#35,.T.);
#240=EDGE_CURVE('',#213,#214,#264,.T.);
#241=EDGE_CURVE('',#214,#197,#41,.T.);
#242=EDGE_CURVE('',#209,#211,#265,.T.);
#243=EDGE_CURVE('',#214,#205,#266,.T.);
#244=EDGE_CURVE('',#213,#211,#267,.T.);
#245=EDGE_CURVE('',#212,#210,#268,.T.);
#246=CIRCLE('',#270,19.7);
#247=CIRCLE('',#271,8.5);
#248=CIRCLE('',#272,20.0);
#249=CIRCLE('',#273,8.5);
#250=CIRCLE('',#274,20.0);
#251=CIRCLE('',#275,8.5);
#252=CIRCLE('',#276,20.0);
#253=CIRCLE('',#278,3.00000000000001);
#254=CIRCLE('',#280,3.00000000000001);
#255=CIRCLE('',#282,8.00000000000001);
#256=CIRCLE('',#284,19.5);
#257=CIRCLE('',#286,20.0);
#258=CIRCLE('',#288,20.0);
#259=CIRCLE('',#291,19.3970364630095);
#260=CIRCLE('',#293,7.89703646300946);
#261=CIRCLE('',#295,19.3970364630095);
#262=CIRCLE('',#297,7.89703646300946);
#263=CIRCLE('',#299,19.5025550819828);
#264=CIRCLE('',#300,19.3970364630095);
#265=CIRCLE('',#301,19.3970364630095);
#266=CIRCLE('',#303,7.89703646300946);
#267=CIRCLE('',#305,4.0);
#268=CIRCLE('',#307,4.0);
#269=AXIS2_PLACEMENT_3D('',#398,#310,#311);
#270=AXIS2_PLACEMENT_3D('',#399,#312,#313);
#271=AXIS2_PLACEMENT_3D('',#401,#314,#315);
#272=AXIS2_PLACEMENT_3D('',#404,#316,#317);
#273=AXIS2_PLACEMENT_3D('',#406,#318,#319);
#274=AXIS2_PLACEMENT_3D('',#408,#320,#321);
#275=AXIS2_PLACEMENT_3D('',#410,#322,#323);
#276=AXIS2_PLACEMENT_3D('',#412,#324,#325);
#277=AXIS2_PLACEMENT_3D('',#413,#326,#327);
#278=AXIS2_PLACEMENT_3D('',#414,#328,#329);
#279=AXIS2_PLACEMENT_3D('',#416,#330,#331);
#280=AXIS2_PLACEMENT_3D('',#417,#332,#333);
#281=AXIS2_PLACEMENT_3D('',#419,#334,#335);
#282=AXIS2_PLACEMENT_3D('',#420,#336,#337);
#283=AXIS2_PLACEMENT_3D('',#422,#338,#339);
#284=AXIS2_PLACEMENT_3D('',#423,#340,#341);
#285=AXIS2_PLACEMENT_3D('',#425,#342,#343);
#286=AXIS2_PLACEMENT_3D('',#426,#344,#345);
#287=AXIS2_PLACEMENT_3D('',#428,#346,#347);
#288=AXIS2_PLACEMENT_3D('',#429,#348,#349);
#289=AXIS2_PLACEMENT_3D('',#431,#350,#351);
#290=AXIS2_PLACEMENT_3D('',#432,#352,#353);
#291=AXIS2_PLACEMENT_3D('',#435,#355,#356);
#292=AXIS2_PLACEMENT_3D('',#438,#358,#359);
#293=AXIS2_PLACEMENT_3D('',#439,#360,#361);
#294=AXIS2_PLACEMENT_3D('',#442,#363,#364);
#295=AXIS2_PLACEMENT_3D('',#443,#365,#366);
#296=AXIS2_PLACEMENT_3D('',#446,#368,#369);
#297=AXIS2_PLACEMENT_3D('',#447,#370,#371);
#298=AXIS2_PLACEMENT_3D('',#450,#373,#374);
#299=AXIS2_PLACEMENT_3D('',#457,#375,#376);
#300=AXIS2_PLACEMENT_3D('',#464,#377,#378);
#301=AXIS2_PLACEMENT_3D('',#467,#380,#381);
#302=AXIS2_PLACEMENT_3D('',#468,#382,#383);
#303=AXIS2_PLACEMENT_3D('',#469,#384,#385);
#304=AXIS2_PLACEMENT_3D('',#470,#386,#387);
#305=AXIS2_PLACEMENT_3D('',#471,#388,#389);
#306=AXIS2_PLACEMENT_3D('',#472,#390,#391);
#307=AXIS2_PLACEMENT_3D('',#473,#392,#393);
#308=AXIS2_PLACEMENT_3D('',#474,#394,#395);
#309=AXIS2_PLACEMENT_3D('',#475,#396,#397);
#310=DIRECTION('',(0.0,0.0,1.0));
#311=DIRECTION('',(1.0,0.0,0.0));
#312=DIRECTION('',(0.0,1.53134210293125E-17,-1.0));
#313=DIRECTION('',(0.0,1.0,1.53134210293125E-17));
#314=DIRECTION('',(0.0,0.0,-1.0));
#315=DIRECTION('',(-1.0,0.0,0.0));
#316=DIRECTION('',(0.0,0.0,-1.0));
#317=DIRECTION('',(-1.0,0.0,0.0));
#318=DIRECTION('',(0.0,0.0,-1.0));
#319=DIRECTION('',(-1.0,0.0,0.0));
#320=DIRECTION('',(0.0,0.0,-1.0));
#321=DIRECTION('',(-1.0,0.0,0.0));
#322=DIRECTION('',(0.0,0.0,-1.0));
#323=DIRECTION('',(-1.0,0.0,0.0));
#324=DIRECTION('',(0.0,0.0,-1.0));
#325=DIRECTION('',(-1.0,0.0,0.0));
#326=DIRECTION('',(0.0,-1.53134210293125E-17,1.0));
#327=DIRECTION('',(0.0,-1.0,-1.53134210293125E-17));
#328=DIRECTION('',(0.0,1.53134210293125E-17,-1.0));
#329=DIRECTION('',(0.0,1.0,0.0));
#330=DIRECTION('',(0.0,1.53134210293125E-17,-1.0));
#331=DIRECTION('',(0.0,1.0,1.38777878078145E-17));
#332=DIRECTION('',(0.0,1.53134210293125E-17,-1.0));
#333=DIRECTION('',(0.0,1.0,0.0));
#334=DIRECTION('',(0.0,1.53134210293125E-17,-1.0));
#335=DIRECTION('',(0.0,1.0,1.53134210293113E-17));
#336=DIRECTION('',(0.0,1.53134210293125E-17,-1.0));
#337=DIRECTION('',(0.0,1.0,0.0));
#338=DIRECTION('',(0.0,1.53134210293125E-17,-1.0));
#339=DIRECTION('',(0.0,1.0,0.0));
#340=DIRECTION('',(0.0,1.53134210293125E-17,-1.0));
#341=DIRECTION('',(0.0,1.0,0.0));
#342=DIRECTION('',(0.0,1.53134210293125E-17,-1.0));
#343=DIRECTION('',(0.0,1.0,1.56125112837913E-17));
#344=DIRECTION('',(0.0,1.53134210293125E-17,-1.0));
#345=DIRECTION('',(0.0,1.0,0.0));
#346=DIRECTION('',(0.0,-1.53134210293125E-17,1.0));
#347=DIRECTION('',(0.0,-1.0,-3.57324109813779E-17));
#348=DIRECTION('',(0.0,1.53134210293125E-17,-1.0));
#349=DIRECTION('',(0.0,1.0,1.62630325872825E-17));
#350=DIRECTION('',(0.0,1.53134210293125E-17,-1.0));
#351=DIRECTION('',(0.0,1.0,1.53134210293124E-17));
#352=DIRECTION('',(0.0,1.53134210293125E-17,-1.0));
#353=DIRECTION('',(0.0,1.0,-3.18882991907465E-19));
#354=DIRECTION('',(-0.0251112246842899,4.66400186113526E-4,-0.999684554679986));
#355=DIRECTION('',(0.0,0.0,-1.0));
#356=DIRECTION('',(-1.0,0.0,0.0));
#357=DIRECTION('',(-0.0130940393650178,0.0214321549869784,-0.999684554679986));
#358=DIRECTION('',(0.0,0.0,-1.0));
#359=DIRECTION('',(-1.0,0.0,0.0));
#360=DIRECTION('',(0.0,0.0,-1.0));
#361=DIRECTION('',(-1.0,0.0,0.0));
#362=DIRECTION('',(0.0129628683279737,0.0215117451405067,-0.999684554679986));
#363=DIRECTION('',(0.0,0.0,-1.0));
#364=DIRECTION('',(-1.0,0.0,0.0));
#365=DIRECTION('',(0.0,0.0,-1.0));
#366=DIRECTION('',(-1.0,0.0,0.0));
#367=DIRECTION('',(0.0251111519354021,4.70300707684483E-4,-0.999684554679986));
#368=DIRECTION('',(0.0,0.0,-1.0));
#369=DIRECTION('',(-1.0,0.0,0.0));
#370=DIRECTION('',(0.0,0.0,-1.0));
#371=DIRECTION('',(-1.0,0.0,0.0));
#372=DIRECTION('',(0.0120137709940597,-0.0220558482217481,-0.999684554679986));
#373=DIRECTION('',(0.0,0.0,-1.0));
#374=DIRECTION('',(-1.0,0.0,0.0));
#375=DIRECTION('',(0.0,0.0,1.0));
#376=DIRECTION('',(-1.0,0.0,0.0));
#377=DIRECTION('',(0.0,0.0,-1.0));
#378=DIRECTION('',(-1.0,0.0,0.0));
#379=DIRECTION('',(-0.0121516979326409,-0.0219801585897907,-0.999684554679986));
#380=DIRECTION('',(0.0,0.0,-1.0));
#381=DIRECTION('',(-1.0,0.0,0.0));
#382=DIRECTION('',(0.0,0.0,-1.0));
#383=DIRECTION('',(-1.0,0.0,0.0));
#384=DIRECTION('',(0.0,0.0,-1.0));
#385=DIRECTION('',(-1.0,0.0,0.0));
#386=DIRECTION('',(0.0,0.0,-1.0));
#387=DIRECTION('',(-1.0,0.0,0.0));
#388=DIRECTION('',(0.0,0.0,-1.0));
#389=DIRECTION('',(-1.0,0.0,0.0));
#390=DIRECTION('',(0.0,0.0,-1.0));
#391=DIRECTION('',(-1.0,0.0,0.0));
#392=DIRECTION('',(0.0,0.0,-1.0));
#393=DIRECTION('',(-1.0,0.0,0.0));
#394=DIRECTION('',(0.0,0.0,-1.0));
#395=DIRECTION('',(-1.0,0.0,0.0));
#396=DIRECTION('',(0.0,0.0,-1.0));
#397=DIRECTION('',(-1.0,0.0,0.0));
#398=CARTESIAN_POINT('',(0.0,0.0,0.0));
#399=CARTESIAN_POINT('',(0.0,2.1316282072803E-14,3.0167439427745E-16));
#400=CARTESIAN_POINT('',(0.0,19.7,6.03348788554906E-16));
#401=CARTESIAN_POINT('',(-0.0400909987552516,6.39987442937897,0.0));
#402=CARTESIAN_POINT('',(-4.47158103907075,13.653280251652,0.0));
#403=CARTESIAN_POINT('',(4.34700608320457,13.6802163989199,4.9033161194107E-14));
#404=CARTESIAN_POINT('',(-5.97557528611263,-3.45,0.0));
#405=CARTESIAN_POINT('',(14.0209179723354,-3.07549050099937,0.0));
#406=CARTESIAN_POINT('',(5.522408337495,-3.23465703807462,0.0));
#407=CARTESIAN_POINT('',(9.58829702338366,-10.6991429007421,9.71445146547012E-14));
#408=CARTESIAN_POINT('',(0.0215001154103374,6.86435324671078,0.0));
#409=CARTESIAN_POINT('',(-9.65513066655617,-10.6388697910471,0.0));
#410=CARTESIAN_POINT('',(-5.54256258422041,-3.2,0.0));
#411=CARTESIAN_POINT('',(-14.0410968398797,-3.04215353857228,0.0));
#412=CARTESIAN_POINT('',(5.95545434990689,-3.41355697722574,0.0));
#413=CARTESIAN_POINT('',(0.0,-19.7,4.85219958863407E-14));
#414=CARTESIAN_POINT('',(0.0,2.17603712826531E-14,-29.0));
#415=CARTESIAN_POINT('',(0.0,3.00000000000003,-29.0));
#416=CARTESIAN_POINT('',(0.0,-2.13216956551224,-29.0));
#417=CARTESIAN_POINT('',(0.0,2.15153565461841E-14,-13.0));
#418=CARTESIAN_POINT('',(0.0,3.00000000000003,-13.0));
#419=CARTESIAN_POINT('',(0.0,2.1316282072803E-14,9.59232693276135E-14));
#420=CARTESIAN_POINT('',(0.0,2.14387894410375E-14,-8.0));
#421=CARTESIAN_POINT('',(0.0,8.00000000000003,-8.0));
#422=CARTESIAN_POINT('',(0.0,2.08166817117217E-14,-13.0));
#423=CARTESIAN_POINT('',(0.0,2.14387894410375E-14,-7.99999999999997));
#424=CARTESIAN_POINT('',(0.0,19.5,-7.99999999999997));
#425=CARTESIAN_POINT('',(0.0,-7.99999999999999,-7.99999999999999));
#426=CARTESIAN_POINT('',(0.0,2.14311327305229E-14,-7.49999999999995));
#427=CARTESIAN_POINT('',(0.0,20.0,-7.49999999999995));
#428=CARTESIAN_POINT('',(0.0,2.14387894410375E-14,-7.99999999999997));
#429=CARTESIAN_POINT('',(0.0,2.13208760991118E-14,-0.299999999999967));
#430=CARTESIAN_POINT('',(0.0,20.0,-0.299999999999966));
#431=CARTESIAN_POINT('',(0.0,2.1316282072803E-14,9.59232693276135E-14));
#432=CARTESIAN_POINT('',(0.0,2.13208760991118E-14,-0.299999999999967));
#433=CARTESIAN_POINT('',(-14.0410968398797,-3.04215353857228,-1.30664401377134E-16));
#434=CARTESIAN_POINT('',(-13.4382372782294,-3.05335067512332,24.0));
#435=CARTESIAN_POINT('',(5.95545434990689,-3.41355697722574,24.0));
#436=CARTESIAN_POINT('',(-4.15722493214758,13.1387462246137,24.0));
#437=CARTESIAN_POINT('',(-4.47158103907075,13.653280251652,0.0));
#438=CARTESIAN_POINT('',(5.95545434990689,-3.41355697722574,0.0));
#439=CARTESIAN_POINT('',(-0.0400909987552516,6.39987442937897,24.0));
#440=CARTESIAN_POINT('',(4.03579907453875,13.1637716054546,24.0));
#441=CARTESIAN_POINT('',(4.34700608320455,13.6802163989199,0.0));
#442=CARTESIAN_POINT('',(-0.0400909987552516,6.39987442937897,0.0));
#443=CARTESIAN_POINT('',(-5.97557528611263,-3.45,24.0));
#444=CARTESIAN_POINT('',(13.4180601572094,-3.08678127960707,24.0));
#445=CARTESIAN_POINT('',(14.0209179723354,-3.07549050099937,8.71096009180893E-17));
#446=CARTESIAN_POINT('',(-5.97557528611263,-3.45,0.0));
#447=CARTESIAN_POINT('',(5.522408337495,-3.23465703807462,24.0));
#448=CARTESIAN_POINT('',(9.29987553831857,-10.1696355127927,24.0));
#449=CARTESIAN_POINT('',(9.58829702338366,-10.6991429007421,0.0));
#450=CARTESIAN_POINT('',(5.522408337495,-3.23465703807462,0.0));
#451=CARTESIAN_POINT('',(3.04217367114143,-12.4028516879828,19.8));
#452=CARTESIAN_POINT('',(3.01536690869658,-12.3714515455493,21.2000133982658));
#453=CARTESIAN_POINT('',(2.98779256558135,-12.3401358046305,22.600014237919));
#454=CARTESIAN_POINT('',(2.95939263898617,-12.30890445946,24.0));
#455=CARTESIAN_POINT('',(3.04217367114143,-12.4028516879828,19.8));
#456=CARTESIAN_POINT('',(2.95939263898617,-12.30890445946,24.0));
#457=CARTESIAN_POINT('',(0.0215001154103374,6.86435324671078,19.8));
#458=CARTESIAN_POINT('',(-3.03706002783089,-12.39687372812,19.8));
#459=CARTESIAN_POINT('',(-2.95409439161902,-12.303089485095,24.0));
#460=CARTESIAN_POINT('',(-2.98255568535731,-12.3342649162952,22.600014237919));
#461=CARTESIAN_POINT('',(-3.01019156319168,-12.365526366739,21.2000133982658));
#462=CARTESIAN_POINT('',(-3.03706002783089,-12.39687372812,19.8));
#463=CARTESIAN_POINT('',(-2.95409439161902,-12.303089485095,24.0));
#464=CARTESIAN_POINT('',(0.0215001154103374,6.86435324671078,24.0));
#465=CARTESIAN_POINT('',(-9.36339789043387,-10.1111795274681,24.0));
#466=CARTESIAN_POINT('',(-9.65513066655617,-10.6388697910471,0.0));
#467=CARTESIAN_POINT('',(0.0215001154103374,6.86435324671078,24.0));
#468=CARTESIAN_POINT('',(0.0215001154103374,6.86435324671078,0.0));
#469=CARTESIAN_POINT('',(-5.54256258422041,-3.2,24.0));
#470=CARTESIAN_POINT('',(-5.54256258422041,-3.2,0.0));
#471=CARTESIAN_POINT('',(0.0,-15.0,24.0));
#472=CARTESIAN_POINT('',(2.95768167557582,1.49315872607661,24.0));
#473=CARTESIAN_POINT('',(0.0,-15.0,19.8));
#474=CARTESIAN_POINT('',(0.0,-15.0,19.8));
#475=CARTESIAN_POINT('',(0.0,-15.0,24.0));
#476=MECHANICAL_DESIGN_GEOMETRIC_PRESENTATION_REPRESENTATION('',(#24),#477);
#477=(GEOMETRIC_REPRESENTATION_CONTEXT(3)GLOBAL_UNCERTAINTY_ASSIGNED_CONTEXT((#478))
     GLOBAL_UNIT_ASSIGNED_CONTEXT((#484,#480,#479))REPRESENTATION_CONTEXT('C4-391',
     'TOP_LEVEL_ASSEMBLY_PART'));
#478=UNCERTAINTY_MEASURE_WITH_UNIT(LENGTH_MEASURE(2.0E-5),#484,'DISTANCE_ACCURACY_VALUE',
     'Maximum Tolerance applied to model');
#479=(NAMED_UNIT(*)SI_UNIT($,.STERADIAN.)SOLID_ANGLE_UNIT());
#480=(CONVERSION_BASED_UNIT('DEGREE',#482)NAMED_UNIT(*)PLANE_ANGLE_UNIT());
#481=DIMENSIONAL_EXPONENTS(0.0,0.0,0.0,0.0,0.0,0.0,0.0);
#482=PLANE_ANGLE_MEASURE_WITH_UNIT(PLANE_ANGLE_MEASURE(0.0174532925),#483);
#483=(NAMED_UNIT(*)PLANE_ANGLE_UNIT()SI_UNIT($,.RADIAN.));
#484=(LENGTH_UNIT()NAMED_UNIT(*)SI_UNIT(.MILLI.,.METRE.));
#485=CARTESIAN_POINT('',(0.0,0.0,0.0));
#486=DIRECTION('',(0.0,0.0,1.0));
#487=DIRECTION('',(1.0,0.0,0.0));
#488=AXIS2_PLACEMENT_3D('PCS',#485,#486,#487);
#489=CARTESIAN_POINT('',(0.0,0.0,0.0));
#490=DIRECTION('',(0.0,0.0,1.0));
#491=DIRECTION('',(1.0,0.0,0.0));
#492=AXIS2_PLACEMENT_3D('MCS',#489,#490,#491);
#493=CARTESIAN_POINT('',(0.0,0.0,-29.0));
#494=DIRECTION('',(0.0,0.0,1.0));
#495=DIRECTION('',(1.0,0.0,0.0));
#496=AXIS2_PLACEMENT_3D('CSW',#493,#494,#495);
#497=CONSTRUCTIVE_GEOMETRY_REPRESENTATION('supplemental geometry',(#488,#492,#496),
     #477);
#498=CONSTRUCTIVE_GEOMETRY_REPRESENTATION_RELATIONSHIP('supplemental geometry',$,
     #22,#497);
ENDSEC;
END-ISO-10303-21;
