ISO-10303-21;
HEADER;
FILE_DESCRIPTION(
/* description */ ('3-D model version:1'),
/* implementation_level */ '2;1');
FILE_NAME(
/* name */ 'C3-391.327-06029',
/* time_stamp */ '2016-12-02T14:01:33',
/* author */ ('InteractiveCad'),
/* organization */ ('AB Sandvik Coromant'),
/* preprocessor_version */ 'ST-DEVELOPER v11',
/* originating_system */ 'SIEMENS UGS NX 6.0',
/* authorization */ '');
FILE_SCHEMA(('AUTOMOTIVE_DESIGN'));
ENDSEC;
DATA;
#10=SHAPE_REPRESENTATION_RELATIONSHIP('None','relationship between ds681106m480-None and ds681106m480-None',
     #22,#11);
#11=ADVANCED_BREP_SHAPE_REPRESENTATION('ds681106m480-None',(#32),#477);
#12=SHAPE_DEFINITION_REPRESENTATION(#13,#22);
#13=PRODUCT_DEFINITION_SHAPE('','',#14);
#14=PRODUCT_DEFINITION(' ','',#16,#15);
#15=PRODUCT_DEFINITION_CONTEXT('part definition',#21,'design');
#16=PRODUCT_DEFINITION_FORMATION_WITH_SPECIFIED_SOURCE(' ',' ',#18,.NOT_KNOWN.);
#17=PRODUCT_RELATED_PRODUCT_CATEGORY('part','',(#18));
#18=PRODUCT('ds681106m480','ds681106m480',' ',(#19));
#19=PRODUCT_CONTEXT(' ',#21,'mechanical');
#20=APPLICATION_PROTOCOL_DEFINITION('international standard','automotive_design',
     2001,#21);
#21=APPLICATION_CONTEXT('core data for automotive mechanical design processes');
#22=SHAPE_REPRESENTATION('ds681106m480-None',(#269),#477);
#23=PRESENTATION_LAYER_ASSIGNMENT('1','Layer 1',(#32));
#24=STYLED_ITEM('',(#25),#32);
#25=PRESENTATION_STYLE_ASSIGNMENT((#26));
#26=SURFACE_STYLE_USAGE(.BOTH.,#27);
#27=SURFACE_SIDE_STYLE('',(#28));
#28=SURFACE_STYLE_FILL_AREA(#29);
#29=FILL_AREA_STYLE('',(#30));
#30=FILL_AREA_STYLE_COLOUR('',#31);
#31=COLOUR_RGB('Medium Gray',0.490196078431373,0.490196078431373,0.490196078431373);
#32=MANIFOLD_SOLID_BREP('NOCUT',#33);
#33=CLOSED_SHELL('',(#67,#68,#69,#70,#71,#72,#73,#74,#75,#76,#77,#78,#79,#80,#81,
     #82,#83));
#34=B_SPLINE_CURVE_WITH_KNOTS('',3,(#451,#452,#453,#454),.UNSPECIFIED.,.F.,.F.,
     (4,4),(0.0,1.0),.UNSPECIFIED.);
#35=B_SPLINE_CURVE_WITH_KNOTS('',3,(#459,#460,#461,#462),.UNSPECIFIED.,.F.,.F.,
     (4,4),(0.0,1.0),.UNSPECIFIED.);
#36=LINE('',#433,#42);
#37=LINE('',#437,#43);
#38=LINE('',#441,#44);
#39=LINE('',#445,#45);
#40=LINE('',#449,#46);
#41=LINE('',#466,#47);
#42=VECTOR('',#354,1.0);
#43=VECTOR('',#357,1.0);
#44=VECTOR('',#362,1.0);
#45=VECTOR('',#367,1.0);
#46=VECTOR('',#372,1.0);
#47=VECTOR('',#379,1.0);
#48=FACE_OUTER_BOUND('',#118,.T.);
#49=FACE_OUTER_BOUND('',#121,.T.);
#50=FACE_OUTER_BOUND('',#122,.T.);
#51=FACE_OUTER_BOUND('',#123,.T.);
#52=FACE_OUTER_BOUND('',#124,.T.);
#53=FACE_OUTER_BOUND('',#125,.T.);
#54=FACE_OUTER_BOUND('',#126,.T.);
#55=FACE_OUTER_BOUND('',#127,.T.);
#56=FACE_OUTER_BOUND('',#128,.T.);
#57=FACE_OUTER_BOUND('',#129,.T.);
#58=TOROIDAL_SURFACE('',#280,7.99999999999997,5.0);
#59=PLANE('',#278);
#60=PLANE('',#283);
#61=PLANE('',#290);
#62=PLANE('',#306);
#63=PLANE('',#308);
#64=CYLINDRICAL_SURFACE('',#274,16.0);
#65=CYLINDRICAL_SURFACE('',#282,2.99999999999997);
#66=CYLINDRICAL_SURFACE('',#309,4.0);
#67=ADVANCED_FACE('',(#92,#93),#84,.T.);
#68=ADVANCED_FACE('',(#94,#95),#64,.T.);
#69=ADVANCED_FACE('',(#96,#97),#85,.T.);
#70=ADVANCED_FACE('',(#98,#99),#59,.F.);
#71=ADVANCED_FACE('',(#100,#101),#58,.F.);
#72=ADVANCED_FACE('',(#102,#103),#65,.T.);
#73=ADVANCED_FACE('',(#48),#60,.F.);
#74=ADVANCED_FACE('',(#104,#105),#61,.F.);
#75=ADVANCED_FACE('',(#49),#86,.T.);
#76=ADVANCED_FACE('',(#50),#87,.T.);
#77=ADVANCED_FACE('',(#51),#88,.T.);
#78=ADVANCED_FACE('',(#52),#89,.T.);
#79=ADVANCED_FACE('',(#53),#90,.T.);
#80=ADVANCED_FACE('',(#54),#91,.T.);
#81=ADVANCED_FACE('',(#55),#62,.F.);
#82=ADVANCED_FACE('',(#56),#63,.F.);
#83=ADVANCED_FACE('',(#57),#66,.F.);
#84=CONICAL_SURFACE('',#272,15.7,44.9999999999937);
#85=CONICAL_SURFACE('',#276,16.0,44.9999999999938);
#86=CONICAL_SURFACE('',#292,15.0,1.43916666666667);
#87=CONICAL_SURFACE('',#294,6.0,1.43916666666667);
#88=CONICAL_SURFACE('',#296,15.0,1.43916666666667);
#89=CONICAL_SURFACE('',#298,6.0,1.43916666666667);
#90=CONICAL_SURFACE('',#302,15.0,1.43916666666667);
#91=CONICAL_SURFACE('',#304,6.0,1.43916666666667);
#92=FACE_BOUND('',#106,.T.);
#93=FACE_BOUND('',#107,.T.);
#94=FACE_BOUND('',#108,.T.);
#95=FACE_BOUND('',#109,.T.);
#96=FACE_BOUND('',#110,.T.);
#97=FACE_BOUND('',#111,.T.);
#98=FACE_BOUND('',#112,.T.);
#99=FACE_BOUND('',#113,.T.);
#100=FACE_BOUND('',#114,.T.);
#101=FACE_BOUND('',#115,.T.);
#102=FACE_BOUND('',#116,.T.);
#103=FACE_BOUND('',#117,.T.);
#104=FACE_BOUND('',#119,.T.);
#105=FACE_BOUND('',#120,.T.);
#106=EDGE_LOOP('',(#130));
#107=EDGE_LOOP('',(#131));
#108=EDGE_LOOP('',(#132));
#109=EDGE_LOOP('',(#133));
#110=EDGE_LOOP('',(#134));
#111=EDGE_LOOP('',(#135));
#112=EDGE_LOOP('',(#136));
#113=EDGE_LOOP('',(#137));
#114=EDGE_LOOP('',(#138));
#115=EDGE_LOOP('',(#139));
#116=EDGE_LOOP('',(#140));
#117=EDGE_LOOP('',(#141));
#118=EDGE_LOOP('',(#142));
#119=EDGE_LOOP('',(#143,#144,#145,#146,#147,#148));
#120=EDGE_LOOP('',(#149));
#121=EDGE_LOOP('',(#150,#151,#152,#153));
#122=EDGE_LOOP('',(#154,#155,#156,#157));
#123=EDGE_LOOP('',(#158,#159,#160,#161));
#124=EDGE_LOOP('',(#162,#163,#164,#165));
#125=EDGE_LOOP('',(#166,#167,#168,#169,#170,#171,#172,#173));
#126=EDGE_LOOP('',(#174,#175,#176,#177));
#127=EDGE_LOOP('',(#178,#179,#180,#181,#182,#183,#184,#185));
#128=EDGE_LOOP('',(#186,#187));
#129=EDGE_LOOP('',(#188,#189,#190,#191));
#130=ORIENTED_EDGE('',*,*,#215,.F.);
#131=ORIENTED_EDGE('',*,*,#216,.T.);
#132=ORIENTED_EDGE('',*,*,#217,.F.);
#133=ORIENTED_EDGE('',*,*,#215,.T.);
#134=ORIENTED_EDGE('',*,*,#218,.F.);
#135=ORIENTED_EDGE('',*,*,#217,.T.);
#136=ORIENTED_EDGE('',*,*,#219,.F.);
#137=ORIENTED_EDGE('',*,*,#218,.T.);
#138=ORIENTED_EDGE('',*,*,#220,.F.);
#139=ORIENTED_EDGE('',*,*,#219,.T.);
#140=ORIENTED_EDGE('',*,*,#221,.F.);
#141=ORIENTED_EDGE('',*,*,#220,.T.);
#142=ORIENTED_EDGE('',*,*,#221,.T.);
#143=ORIENTED_EDGE('',*,*,#222,.T.);
#144=ORIENTED_EDGE('',*,*,#223,.T.);
#145=ORIENTED_EDGE('',*,*,#224,.T.);
#146=ORIENTED_EDGE('',*,*,#225,.T.);
#147=ORIENTED_EDGE('',*,*,#226,.T.);
#148=ORIENTED_EDGE('',*,*,#227,.T.);
#149=ORIENTED_EDGE('',*,*,#216,.F.);
#150=ORIENTED_EDGE('',*,*,#223,.F.);
#151=ORIENTED_EDGE('',*,*,#228,.F.);
#152=ORIENTED_EDGE('',*,*,#229,.T.);
#153=ORIENTED_EDGE('',*,*,#230,.T.);
#154=ORIENTED_EDGE('',*,*,#224,.F.);
#155=ORIENTED_EDGE('',*,*,#230,.F.);
#156=ORIENTED_EDGE('',*,*,#231,.T.);
#157=ORIENTED_EDGE('',*,*,#232,.T.);
#158=ORIENTED_EDGE('',*,*,#225,.F.);
#159=ORIENTED_EDGE('',*,*,#232,.F.);
#160=ORIENTED_EDGE('',*,*,#233,.T.);
#161=ORIENTED_EDGE('',*,*,#234,.T.);
#162=ORIENTED_EDGE('',*,*,#226,.F.);
#163=ORIENTED_EDGE('',*,*,#234,.F.);
#164=ORIENTED_EDGE('',*,*,#235,.T.);
#165=ORIENTED_EDGE('',*,*,#236,.T.);
#166=ORIENTED_EDGE('',*,*,#237,.F.);
#167=ORIENTED_EDGE('',*,*,#238,.F.);
#168=ORIENTED_EDGE('',*,*,#239,.F.);
#169=ORIENTED_EDGE('',*,*,#240,.T.);
#170=ORIENTED_EDGE('',*,*,#241,.T.);
#171=ORIENTED_EDGE('',*,*,#227,.F.);
#172=ORIENTED_EDGE('',*,*,#236,.F.);
#173=ORIENTED_EDGE('',*,*,#242,.T.);
#174=ORIENTED_EDGE('',*,*,#222,.F.);
#175=ORIENTED_EDGE('',*,*,#241,.F.);
#176=ORIENTED_EDGE('',*,*,#243,.T.);
#177=ORIENTED_EDGE('',*,*,#228,.T.);
#178=ORIENTED_EDGE('',*,*,#240,.F.);
#179=ORIENTED_EDGE('',*,*,#244,.T.);
#180=ORIENTED_EDGE('',*,*,#242,.F.);
#181=ORIENTED_EDGE('',*,*,#235,.F.);
#182=ORIENTED_EDGE('',*,*,#233,.F.);
#183=ORIENTED_EDGE('',*,*,#231,.F.);
#184=ORIENTED_EDGE('',*,*,#229,.F.);
#185=ORIENTED_EDGE('',*,*,#243,.F.);
#186=ORIENTED_EDGE('',*,*,#238,.T.);
#187=ORIENTED_EDGE('',*,*,#245,.F.);
#188=ORIENTED_EDGE('',*,*,#237,.T.);
#189=ORIENTED_EDGE('',*,*,#244,.F.);
#190=ORIENTED_EDGE('',*,*,#239,.T.);
#191=ORIENTED_EDGE('',*,*,#245,.T.);
#192=VERTEX_POINT('',#400);
#193=VERTEX_POINT('',#402);
#194=VERTEX_POINT('',#405);
#195=VERTEX_POINT('',#408);
#196=VERTEX_POINT('',#411);
#197=VERTEX_POINT('',#414);
#198=VERTEX_POINT('',#417);
#199=VERTEX_POINT('',#421);
#200=VERTEX_POINT('',#422);
#201=VERTEX_POINT('',#424);
#202=VERTEX_POINT('',#426);
#203=VERTEX_POINT('',#428);
#204=VERTEX_POINT('',#430);
#205=VERTEX_POINT('',#434);
#206=VERTEX_POINT('',#436);
#207=VERTEX_POINT('',#440);
#208=VERTEX_POINT('',#444);
#209=VERTEX_POINT('',#448);
#210=VERTEX_POINT('',#455);
#211=VERTEX_POINT('',#456);
#212=VERTEX_POINT('',#458);
#213=VERTEX_POINT('',#463);
#214=VERTEX_POINT('',#465);
#215=EDGE_CURVE('',#192,#192,#246,.T.);
#216=EDGE_CURVE('',#193,#193,#247,.T.);
#217=EDGE_CURVE('',#194,#194,#248,.T.);
#218=EDGE_CURVE('',#195,#195,#249,.T.);
#219=EDGE_CURVE('',#196,#196,#250,.T.);
#220=EDGE_CURVE('',#197,#197,#251,.T.);
#221=EDGE_CURVE('',#198,#198,#252,.T.);
#222=EDGE_CURVE('',#199,#200,#253,.T.);
#223=EDGE_CURVE('',#200,#201,#254,.T.);
#224=EDGE_CURVE('',#201,#202,#255,.T.);
#225=EDGE_CURVE('',#202,#203,#256,.T.);
#226=EDGE_CURVE('',#203,#204,#257,.T.);
#227=EDGE_CURVE('',#204,#199,#258,.T.);
#228=EDGE_CURVE('',#205,#200,#36,.T.);
#229=EDGE_CURVE('',#205,#206,#259,.T.);
#230=EDGE_CURVE('',#206,#201,#37,.T.);
#231=EDGE_CURVE('',#206,#207,#260,.T.);
#232=EDGE_CURVE('',#207,#202,#38,.T.);
#233=EDGE_CURVE('',#207,#208,#261,.T.);
#234=EDGE_CURVE('',#208,#203,#39,.T.);
#235=EDGE_CURVE('',#208,#209,#262,.T.);
#236=EDGE_CURVE('',#209,#204,#40,.T.);
#237=EDGE_CURVE('',#210,#211,#34,.T.);
#238=EDGE_CURVE('',#212,#210,#263,.T.);
#239=EDGE_CURVE('',#213,#212,#35,.T.);
#240=EDGE_CURVE('',#213,#214,#264,.T.);
#241=EDGE_CURVE('',#214,#199,#41,.T.);
#242=EDGE_CURVE('',#209,#211,#265,.T.);
#243=EDGE_CURVE('',#214,#205,#266,.T.);
#244=EDGE_CURVE('',#213,#211,#267,.T.);
#245=EDGE_CURVE('',#212,#210,#268,.T.);
#246=CIRCLE('',#270,16.0);
#247=CIRCLE('',#271,15.7);
#248=CIRCLE('',#273,16.0);
#249=CIRCLE('',#275,15.5);
#250=CIRCLE('',#277,7.99999999999994);
#251=CIRCLE('',#279,2.99999999999996);
#252=CIRCLE('',#281,2.99999999999997);
#253=CIRCLE('',#284,6.0);
#254=CIRCLE('',#285,15.0);
#255=CIRCLE('',#286,6.0);
#256=CIRCLE('',#287,15.0);
#257=CIRCLE('',#288,6.0);
#258=CIRCLE('',#289,15.0);
#259=CIRCLE('',#291,14.5226538665492);
#260=CIRCLE('',#293,5.52265386654916);
#261=CIRCLE('',#295,14.5226538665492);
#262=CIRCLE('',#297,5.52265386654915);
#263=CIRCLE('',#299,14.6068175269208);
#264=CIRCLE('',#300,14.5226538665492);
#265=CIRCLE('',#301,14.5226538665492);
#266=CIRCLE('',#303,5.52265386654916);
#267=CIRCLE('',#305,4.0);
#268=CIRCLE('',#307,4.0);
#269=AXIS2_PLACEMENT_3D('',#398,#310,#311);
#270=AXIS2_PLACEMENT_3D('',#399,#312,#313);
#271=AXIS2_PLACEMENT_3D('',#401,#314,#315);
#272=AXIS2_PLACEMENT_3D('',#403,#316,#317);
#273=AXIS2_PLACEMENT_3D('',#404,#318,#319);
#274=AXIS2_PLACEMENT_3D('',#406,#320,#321);
#275=AXIS2_PLACEMENT_3D('',#407,#322,#323);
#276=AXIS2_PLACEMENT_3D('',#409,#324,#325);
#277=AXIS2_PLACEMENT_3D('',#410,#326,#327);
#278=AXIS2_PLACEMENT_3D('',#412,#328,#329);
#279=AXIS2_PLACEMENT_3D('',#413,#330,#331);
#280=AXIS2_PLACEMENT_3D('',#415,#332,#333);
#281=AXIS2_PLACEMENT_3D('',#416,#334,#335);
#282=AXIS2_PLACEMENT_3D('',#418,#336,#337);
#283=AXIS2_PLACEMENT_3D('',#419,#338,#339);
#284=AXIS2_PLACEMENT_3D('',#420,#340,#341);
#285=AXIS2_PLACEMENT_3D('',#423,#342,#343);
#286=AXIS2_PLACEMENT_3D('',#425,#344,#345);
#287=AXIS2_PLACEMENT_3D('',#427,#346,#347);
#288=AXIS2_PLACEMENT_3D('',#429,#348,#349);
#289=AXIS2_PLACEMENT_3D('',#431,#350,#351);
#290=AXIS2_PLACEMENT_3D('',#432,#352,#353);
#291=AXIS2_PLACEMENT_3D('',#435,#355,#356);
#292=AXIS2_PLACEMENT_3D('',#438,#358,#359);
#293=AXIS2_PLACEMENT_3D('',#439,#360,#361);
#294=AXIS2_PLACEMENT_3D('',#442,#363,#364);
#295=AXIS2_PLACEMENT_3D('',#443,#365,#366);
#296=AXIS2_PLACEMENT_3D('',#446,#368,#369);
#297=AXIS2_PLACEMENT_3D('',#447,#370,#371);
#298=AXIS2_PLACEMENT_3D('',#450,#373,#374);
#299=AXIS2_PLACEMENT_3D('',#457,#375,#376);
#300=AXIS2_PLACEMENT_3D('',#464,#377,#378);
#301=AXIS2_PLACEMENT_3D('',#467,#380,#381);
#302=AXIS2_PLACEMENT_3D('',#468,#382,#383);
#303=AXIS2_PLACEMENT_3D('',#469,#384,#385);
#304=AXIS2_PLACEMENT_3D('',#470,#386,#387);
#305=AXIS2_PLACEMENT_3D('',#471,#388,#389);
#306=AXIS2_PLACEMENT_3D('',#472,#390,#391);
#307=AXIS2_PLACEMENT_3D('',#473,#392,#393);
#308=AXIS2_PLACEMENT_3D('',#474,#394,#395);
#309=AXIS2_PLACEMENT_3D('',#475,#396,#397);
#310=DIRECTION('',(0.0,0.0,1.0));
#311=DIRECTION('',(1.0,0.0,0.0));
#312=DIRECTION('',(0.0,3.06268420586249E-17,-1.0));
#313=DIRECTION('',(0.0,1.0,3.04931861011549E-17));
#314=DIRECTION('',(0.0,3.06268420586249E-17,-1.0));
#315=DIRECTION('',(0.0,1.0,3.06268420586251E-17));
#316=DIRECTION('',(0.0,3.06268420586249E-17,-1.0));
#317=DIRECTION('',(0.0,1.0,9.77404689922454E-18));
#318=DIRECTION('',(0.0,3.06268420586249E-17,-1.0));
#319=DIRECTION('',(0.0,1.0,5.42101086242753E-17));
#320=DIRECTION('',(0.0,3.06268420586249E-17,-1.0));
#321=DIRECTION('',(0.0,1.0,3.06268420586249E-17));
#322=DIRECTION('',(0.0,3.06268420586249E-17,-1.0));
#323=DIRECTION('',(0.0,1.0,0.0));
#324=DIRECTION('',(0.0,-3.06268420586249E-17,1.0));
#325=DIRECTION('',(0.0,-1.0,-8.53702498020264E-19));
#326=DIRECTION('',(0.0,3.06268420586249E-17,-1.0));
#327=DIRECTION('',(0.0,1.0,0.0));
#328=DIRECTION('',(0.0,-3.06268420586249E-17,1.0));
#329=DIRECTION('',(0.0,-1.0,-3.12250225675825E-17));
#330=DIRECTION('',(0.0,3.06268420586249E-17,-1.0));
#331=DIRECTION('',(0.0,1.0,0.0));
#332=DIRECTION('',(0.0,3.06268420586249E-17,-1.0));
#333=DIRECTION('',(0.0,1.0,0.0));
#334=DIRECTION('',(0.0,3.06268420586249E-17,-1.0));
#335=DIRECTION('',(0.0,1.0,0.0));
#336=DIRECTION('',(0.0,3.06268420586249E-17,-1.0));
#337=DIRECTION('',(0.0,1.0,3.06268420586231E-17));
#338=DIRECTION('',(0.0,-3.06268420586249E-17,1.0));
#339=DIRECTION('',(0.0,-1.0,-3.12250225675825E-17));
#340=DIRECTION('',(0.0,0.0,-1.0));
#341=DIRECTION('',(-1.0,0.0,0.0));
#342=DIRECTION('',(0.0,0.0,-1.0));
#343=DIRECTION('',(-1.0,0.0,0.0));
#344=DIRECTION('',(0.0,0.0,-1.0));
#345=DIRECTION('',(-1.0,0.0,0.0));
#346=DIRECTION('',(0.0,0.0,-1.0));
#347=DIRECTION('',(-1.0,0.0,0.0));
#348=DIRECTION('',(0.0,0.0,-1.0));
#349=DIRECTION('',(-1.0,0.0,0.0));
#350=DIRECTION('',(0.0,0.0,-1.0));
#351=DIRECTION('',(-1.0,0.0,0.0));
#352=DIRECTION('',(0.0,3.06268420586249E-17,-1.0));
#353=DIRECTION('',(0.0,1.0,3.06268420586249E-17));
#354=DIRECTION('',(-0.0250712352681154,-0.00149140752623239,-0.999684554679986));
#355=DIRECTION('',(0.0,0.0,-1.0));
#356=DIRECTION('',(-1.0,0.0,0.0));
#357=DIRECTION('',(-0.0114223317681576,0.0223678669357772,-0.999684554679986));
#358=DIRECTION('',(0.0,0.0,-1.0));
#359=DIRECTION('',(-1.0,0.0,0.0));
#360=DIRECTION('',(0.0,0.0,-1.0));
#361=DIRECTION('',(-1.0,0.0,0.0));
#362=DIRECTION('',(0.011232158033276,0.0224639658162581,-0.999684554679986));
#363=DIRECTION('',(0.0,0.0,-1.0));
#364=DIRECTION('',(-1.0,0.0,0.0));
#365=DIRECTION('',(0.0,0.0,-1.0));
#366=DIRECTION('',(-1.0,0.0,0.0));
#367=DIRECTION('',(0.0250704440832627,-0.00150464871199052,-0.999684554679986));
#368=DIRECTION('',(0.0,0.0,-1.0));
#369=DIRECTION('',(-1.0,0.0,0.0));
#370=DIRECTION('',(0.0,0.0,-1.0));
#371=DIRECTION('',(-1.0,0.0,0.0));
#372=DIRECTION('',(0.0136599751107742,-0.0210759629495672,-0.999684554679986));
#373=DIRECTION('',(0.0,0.0,-1.0));
#374=DIRECTION('',(-1.0,0.0,0.0));
#375=DIRECTION('',(0.0,0.0,1.0));
#376=DIRECTION('',(-1.0,0.0,0.0));
#377=DIRECTION('',(0.0,0.0,-1.0));
#378=DIRECTION('',(-1.0,0.0,0.0));
#379=DIRECTION('',(-0.0138272144391703,-0.0209666228833281,-0.999684554679986));
#380=DIRECTION('',(0.0,0.0,-1.0));
#381=DIRECTION('',(-1.0,0.0,0.0));
#382=DIRECTION('',(0.0,0.0,-1.0));
#383=DIRECTION('',(-1.0,0.0,0.0));
#384=DIRECTION('',(0.0,0.0,-1.0));
#385=DIRECTION('',(-1.0,0.0,0.0));
#386=DIRECTION('',(0.0,0.0,-1.0));
#387=DIRECTION('',(-1.0,0.0,0.0));
#388=DIRECTION('',(0.0,0.0,-1.0));
#389=DIRECTION('',(-1.0,0.0,0.0));
#390=DIRECTION('',(0.0,0.0,-1.0));
#391=DIRECTION('',(-1.0,0.0,0.0));
#392=DIRECTION('',(0.0,0.0,-1.0));
#393=DIRECTION('',(-1.0,0.0,0.0));
#394=DIRECTION('',(0.0,0.0,-1.0));
#395=DIRECTION('',(-1.0,0.0,0.0));
#396=DIRECTION('',(0.0,0.0,-1.0));
#397=DIRECTION('',(-1.0,0.0,0.0));
#398=CARTESIAN_POINT('',(0.0,0.0,0.0));
#399=CARTESIAN_POINT('',(0.0,-2.48598076989859E-14,-0.299999999999966));
#400=CARTESIAN_POINT('',(0.0,16.0,-0.299999999999966));
#401=CARTESIAN_POINT('',(0.0,-2.48689957516035E-14,1.01094803026975E-13));
#402=CARTESIAN_POINT('',(0.0,15.7,1.01575644447296E-13));
#403=CARTESIAN_POINT('',(0.0,-2.48689957516035E-14,1.01094803026975E-13));
#404=CARTESIAN_POINT('',(0.0,-2.46392944361638E-14,-7.49999999999984));
#405=CARTESIAN_POINT('',(0.0,16.0,-7.49999999999984));
#406=CARTESIAN_POINT('',(0.0,-2.48689957516035E-14,9.9475983006414E-14));
#407=CARTESIAN_POINT('',(0.0,-2.46239810151345E-14,-7.99999999999995));
#408=CARTESIAN_POINT('',(0.0,15.5,-7.99999999999995));
#409=CARTESIAN_POINT('',(0.0,-2.46392944361638E-14,-7.49999999999984));
#410=CARTESIAN_POINT('',(0.0,-2.46239810151345E-14,-7.99999999999997));
#411=CARTESIAN_POINT('',(0.0,7.99999999999991,-7.99999999999997));
#412=CARTESIAN_POINT('',(0.0,-15.5,-7.99999999999996));
#413=CARTESIAN_POINT('',(0.0,-2.44708468048414E-14,-13.0));
#414=CARTESIAN_POINT('',(0.0,2.99999999999994,-13.0));
#415=CARTESIAN_POINT('',(0.0,-2.42861286636753E-14,-13.0));
#416=CARTESIAN_POINT('',(0.0,-2.39808173319034E-14,-29.0));
#417=CARTESIAN_POINT('',(0.0,2.99999999999994,-29.0));
#418=CARTESIAN_POINT('',(0.0,-2.48689957516035E-14,9.9475983006414E-14));
#419=CARTESIAN_POINT('',(0.0,-2.13216956551224,-29.0));
#420=CARTESIAN_POINT('',(-4.9363448015713,-2.85,0.0));
#421=CARTESIAN_POINT('',(-8.23960784215896,-7.85883751829579,0.0));
#422=CARTESIAN_POINT('',(-10.9257568561379,-3.20629094938325,1.00914474483368E-13));
#423=CARTESIAN_POINT('',(4.04777328027858,-2.31556357592513,0.0));
#424=CARTESIAN_POINT('',(-2.77409357748124,11.0434084120311,0.0));
#425=CARTESIAN_POINT('',(-0.0453468343773107,5.69981961684859,0.0));
#426=CARTESIAN_POINT('',(2.63796820789573,11.066366028081,0.0));
#427=CARTESIAN_POINT('',(-4.07031939778686,-2.35,0.0));
#428=CARTESIAN_POINT('',(10.9027382118431,-3.24863553162708,0.0));
#429=CARTESIAN_POINT('',(4.91351516799111,-2.88918131897625,0.0));
#430=CARTESIAN_POINT('',(8.17682544044504,-7.92413971658954,1.00613961606655E-13));
#431=CARTESIAN_POINT('',(0.018549759310196,4.66325627744369,0.0));
#432=CARTESIAN_POINT('',(0.0,-10.3367322527662,1.00696091583761E-13));
#433=CARTESIAN_POINT('',(-10.9257568561379,-3.20629094938325,0.0));
#434=CARTESIAN_POINT('',(-10.449253075156,-3.17794526487131,19.0));
#435=CARTESIAN_POINT('',(4.04777328027858,-2.31556357592513,19.0));
#436=CARTESIAN_POINT('',(-2.55700079298336,10.6182848370091,19.0));
#437=CARTESIAN_POINT('',(-2.77409357748124,11.0434084120311,0.0));
#438=CARTESIAN_POINT('',(4.04777328027858,-2.31556357592513,0.0));
#439=CARTESIAN_POINT('',(-0.0453468343773107,5.69981961684859,19.0));
#440=CARTESIAN_POINT('',(2.42448986451914,10.6394159981833,19.0));
#441=CARTESIAN_POINT('',(2.63796820789573,11.066366028081,0.0));
#442=CARTESIAN_POINT('',(-0.0453468343773107,5.69981961684859,0.0));
#443=CARTESIAN_POINT('',(-4.07031939778686,-2.35,19.0));
#444=CARTESIAN_POINT('',(10.4262494681168,-3.22003818520015,19.0));
#445=CARTESIAN_POINT('',(10.9027382118431,-3.24863553162707,0.0));
#446=CARTESIAN_POINT('',(-4.07031939778686,-2.35,0.0));
#447=CARTESIAN_POINT('',(4.91351516799111,-2.88918131897625,19.0));
#448=CARTESIAN_POINT('',(7.91720401697732,-7.52357006272511,19.0));
#449=CARTESIAN_POINT('',(8.17682544044504,-7.92413971658954,0.0));
#450=CARTESIAN_POINT('',(4.91351516799111,-2.88918131897625,0.0));
#451=CARTESIAN_POINT('',(2.34231219542913,-9.75753587851092,15.65));
#452=CARTESIAN_POINT('',(2.31014888580475,-9.73430153896055,16.7666931783869));
#453=CARTESIAN_POINT('',(2.27707159336123,-9.71113358981944,17.8833618928365));
#454=CARTESIAN_POINT('',(2.24295967667204,-9.68803202176964,19.0));
#455=CARTESIAN_POINT('',(2.34231219542913,-9.75753587851092,15.65));
#456=CARTESIAN_POINT('',(2.24295967667204,-9.68803202176964,19.0));
#457=CARTESIAN_POINT('',(0.018549759310196,4.66325627744369,15.65));
#458=CARTESIAN_POINT('',(-2.33549663529636,-9.75262329463929,15.65));
#459=CARTESIAN_POINT('',(-2.23599835146497,-9.68332826884451,19.0));
#460=CARTESIAN_POINT('',(-2.27015871488702,-9.70635813808953,17.8833618928365));
#461=CARTESIAN_POINT('',(-2.30328459577082,-9.72945656137926,16.7666931783869));
#462=CARTESIAN_POINT('',(-2.33549663529636,-9.75262329463929,15.65));
#463=CARTESIAN_POINT('',(-2.23599835146497,-9.68332826884451,19.0));
#464=CARTESIAN_POINT('',(0.018549759310196,4.66325627744369,19.0));
#465=CARTESIAN_POINT('',(-7.97680786879303,-7.46034598122212,19.0));
#466=CARTESIAN_POINT('',(-8.23960784215896,-7.85883751829579,0.0));
#467=CARTESIAN_POINT('',(0.018549759310196,4.66325627744369,19.0));
#468=CARTESIAN_POINT('',(0.018549759310196,4.66325627744369,0.0));
#469=CARTESIAN_POINT('',(-4.9363448015713,-2.85,19.0));
#470=CARTESIAN_POINT('',(-4.9363448015713,-2.85,0.0));
#471=CARTESIAN_POINT('',(0.0,-13.0,19.0));
#472=CARTESIAN_POINT('',(2.00121322295064,1.69212802046173,19.0));
#473=CARTESIAN_POINT('',(0.0,-13.0,15.65));
#474=CARTESIAN_POINT('',(0.0,-13.0,15.65));
#475=CARTESIAN_POINT('',(0.0,-13.0,19.0));
#476=MECHANICAL_DESIGN_GEOMETRIC_PRESENTATION_REPRESENTATION('',(#24),#477);
#477=(GEOMETRIC_REPRESENTATION_CONTEXT(3)GLOBAL_UNCERTAINTY_ASSIGNED_CONTEXT((#478))
     GLOBAL_UNIT_ASSIGNED_CONTEXT((#484,#480,#479))REPRESENTATION_CONTEXT('C3-391',
     'TOP_LEVEL_ASSEMBLY_PART'));
#478=UNCERTAINTY_MEASURE_WITH_UNIT(LENGTH_MEASURE(2.0E-5),#484,'DISTANCE_ACCURACY_VALUE',
     'Maximum Tolerance applied to model');
#479=(NAMED_UNIT(*)SI_UNIT($,.STERADIAN.)SOLID_ANGLE_UNIT());
#480=(CONVERSION_BASED_UNIT('DEGREE',#482)NAMED_UNIT(*)PLANE_ANGLE_UNIT());
#481=DIMENSIONAL_EXPONENTS(0.0,0.0,0.0,0.0,0.0,0.0,0.0);
#482=PLANE_ANGLE_MEASURE_WITH_UNIT(PLANE_ANGLE_MEASURE(0.0174532925),#483);
#483=(NAMED_UNIT(*)PLANE_ANGLE_UNIT()SI_UNIT($,.RADIAN.));
#484=(LENGTH_UNIT()NAMED_UNIT(*)SI_UNIT(.MILLI.,.METRE.));
#485=CARTESIAN_POINT('',(0.0,0.0,0.0));
#486=DIRECTION('',(0.0,0.0,1.0));
#487=DIRECTION('',(1.0,0.0,0.0));
#488=AXIS2_PLACEMENT_3D('PCS',#485,#486,#487);
#489=CARTESIAN_POINT('',(0.0,0.0,0.0));
#490=DIRECTION('',(0.0,0.0,1.0));
#491=DIRECTION('',(1.0,0.0,0.0));
#492=AXIS2_PLACEMENT_3D('MCS',#489,#490,#491);
#493=CARTESIAN_POINT('',(0.0,0.0,-29.0));
#494=DIRECTION('',(0.0,0.0,1.0));
#495=DIRECTION('',(1.0,0.0,0.0));
#496=AXIS2_PLACEMENT_3D('CSW',#493,#494,#495);
#497=CONSTRUCTIVE_GEOMETRY_REPRESENTATION('supplemental geometry',(#488,#492,#496),
     #477);
#498=CONSTRUCTIVE_GEOMETRY_REPRESENTATION_RELATIONSHIP('supplemental geometry',$,
     #22,#497);
ENDSEC;
END-ISO-10303-21;
