ISO-10303-21;
HEADER;
/* Generated by software containing ST-Developer
 * from STEP Tools, Inc. (www.steptools.com) 
 */
/* OPTION: using custom schema-name function */

FILE_DESCRIPTION(
/* description */ (''),
/* implementation_level */ '2;1');

FILE_NAME(
/* name */ '1493026013486.stp',
/* time_stamp */ '2017-04-24T11:26:57+02:00',
/* author */ (''),
/* organization */ ('SMS'),
/* preprocessor_version */ 'ST-DEVELOPER v15',
/* originating_system */ 'SIEMENS PLM Software NX 8.5',
/* authorisation */ '');

FILE_SCHEMA (('AUTOMOTIVE_DESIGN { 1 0 10303 214 3 1 1 1 }'));
ENDSEC;

DATA;
#10=CONSTRUCTIVE_GEOMETRY_REPRESENTATION_RELATIONSHIP(
'supplemental geometry','',#26,#11);
#11=CONSTRUCTIVE_GEOMETRY_REPRESENTATION('supplemental geometry',(#259,
#260,#261,#262),#439);
#12=GEOMETRICALLY_BOUNDED_WIREFRAME_SHAPE_REPRESENTATION(
'A2B14-3011050-636200776976050343-1-None',(#27),#439);
#13=SHAPE_REPRESENTATION_RELATIONSHIP('None',
'relationship between A2B14-3011050-636200776976050343-1-None and A2B1
4-3011050-636200776976050343-1-None',#26,#15);
#14=SHAPE_REPRESENTATION_RELATIONSHIP('None',
'relationship between A2B14-3011050-636200776976050343-1-None and A2B1
4-3011050-636200776976050343-1-None',#26,#12);
#15=ADVANCED_BREP_SHAPE_REPRESENTATION(
'A2B14-3011050-636200776976050343-1-None',(#33),#439);
#16=SHAPE_DEFINITION_REPRESENTATION(#17,#26);
#17=PRODUCT_DEFINITION_SHAPE('','',#18);
#18=PRODUCT_DEFINITION(' ','',#20,#19);
#19=PRODUCT_DEFINITION_CONTEXT('part definition',#25,'design');
#20=PRODUCT_DEFINITION_FORMATION_WITH_SPECIFIED_SOURCE(' ',' ',#22,
 .NOT_KNOWN.);
#21=PRODUCT_RELATED_PRODUCT_CATEGORY('part','',(#22));
#22=PRODUCT('A2B14-3011050-636200776976050343-1',
'A2B14-3011050-636200776976050343-1',' ',(#23));
#23=PRODUCT_CONTEXT(' ',#25,'mechanical');
#24=APPLICATION_PROTOCOL_DEFINITION('international standard',
'automotive_design',2010,#25);
#25=APPLICATION_CONTEXT(
'core data for automotive mechanical design processes');
#26=SHAPE_REPRESENTATION('A2B14-3011050-636200776976050343-1-None',(#258),
#439);
#27=GEOMETRIC_CURVE_SET('None',(#379,#380,#381));
#28=SURFACE_STYLE_USAGE(.BOTH.,#29);
#29=SURFACE_SIDE_STYLE('',(#30));
#30=SURFACE_STYLE_FILL_AREA(#31);
#31=FILL_AREA_STYLE('',(#32));
#32=FILL_AREA_STYLE_COLOUR('',#257);
#33=MANIFOLD_SOLID_BREP('NOCUT',#34);
#34=CLOSED_SHELL('',(#77,#78,#79,#80,#81,#82,#83,#84,#85,#86,#87,#88,#89,
#90,#91,#92,#93,#94));
#35=CYLINDRICAL_SURFACE('',#270,23.);
#36=CYLINDRICAL_SURFACE('',#276,19.);
#37=CYLINDRICAL_SURFACE('',#282,23.);
#38=CYLINDRICAL_SURFACE('',#286,9.5);
#39=CYLINDRICAL_SURFACE('',#290,7.);
#40=CYLINDRICAL_SURFACE('',#294,9.35);
#41=CONICAL_SURFACE('',#266,8.81670546235339,8.29710000000003);
#42=CONICAL_SURFACE('',#272,23.,60.0000000000001);
#43=CONICAL_SURFACE('',#280,19.4841016151378,60.0000000000001);
#44=CONICAL_SURFACE('',#296,9.35,60.0000000000002);
#45=FACE_BOUND('',#106,.T.);
#46=FACE_BOUND('',#107,.T.);
#47=FACE_BOUND('',#108,.T.);
#48=FACE_BOUND('',#109,.T.);
#49=FACE_BOUND('',#110,.T.);
#50=FACE_BOUND('',#111,.T.);
#51=FACE_BOUND('',#112,.T.);
#52=FACE_BOUND('',#113,.T.);
#53=FACE_BOUND('',#114,.T.);
#54=FACE_BOUND('',#115,.T.);
#55=FACE_BOUND('',#116,.T.);
#56=FACE_BOUND('',#117,.T.);
#57=FACE_BOUND('',#118,.T.);
#58=FACE_BOUND('',#119,.T.);
#59=FACE_BOUND('',#120,.T.);
#60=FACE_BOUND('',#121,.T.);
#61=FACE_BOUND('',#122,.T.);
#62=FACE_BOUND('',#123,.T.);
#63=FACE_BOUND('',#124,.T.);
#64=FACE_BOUND('',#125,.T.);
#65=FACE_BOUND('',#126,.T.);
#66=FACE_BOUND('',#127,.T.);
#67=FACE_BOUND('',#128,.T.);
#68=FACE_BOUND('',#129,.T.);
#69=FACE_BOUND('',#130,.T.);
#70=FACE_BOUND('',#131,.T.);
#71=FACE_BOUND('',#132,.T.);
#72=FACE_BOUND('',#133,.T.);
#73=FACE_BOUND('',#134,.T.);
#74=FACE_BOUND('',#135,.T.);
#75=FACE_BOUND('',#136,.T.);
#76=FACE_BOUND('',#137,.T.);
#77=ADVANCED_FACE('',(#103),#95,.T.);
#78=ADVANCED_FACE('',(#45,#46),#41,.T.);
#79=ADVANCED_FACE('',(#47,#48),#96,.T.);
#80=ADVANCED_FACE('',(#49,#50),#35,.T.);
#81=ADVANCED_FACE('',(#51,#52),#42,.T.);
#82=ADVANCED_FACE('',(#53,#54),#97,.T.);
#83=ADVANCED_FACE('',(#55,#56),#36,.T.);
#84=ADVANCED_FACE('',(#57,#58),#98,.T.);
#85=ADVANCED_FACE('',(#59,#60),#43,.T.);
#86=ADVANCED_FACE('',(#61,#62),#37,.T.);
#87=ADVANCED_FACE('',(#63,#64),#99,.T.);
#88=ADVANCED_FACE('',(#65,#66),#38,.T.);
#89=ADVANCED_FACE('',(#67,#68),#100,.T.);
#90=ADVANCED_FACE('',(#69,#70),#39,.T.);
#91=ADVANCED_FACE('',(#71,#72),#101,.T.);
#92=ADVANCED_FACE('',(#73,#74),#40,.T.);
#93=ADVANCED_FACE('',(#75,#76),#44,.T.);
#94=ADVANCED_FACE('',(#104),#102,.T.);
#95=PLANE('',#264);
#96=PLANE('',#268);
#97=PLANE('',#274);
#98=PLANE('',#278);
#99=PLANE('',#284);
#100=PLANE('',#288);
#101=PLANE('',#292);
#102=PLANE('',#297);
#103=FACE_OUTER_BOUND('',#105,.T.);
#104=FACE_OUTER_BOUND('',#138,.T.);
#105=EDGE_LOOP('',(#139));
#106=EDGE_LOOP('',(#140));
#107=EDGE_LOOP('',(#141));
#108=EDGE_LOOP('',(#142));
#109=EDGE_LOOP('',(#143));
#110=EDGE_LOOP('',(#144));
#111=EDGE_LOOP('',(#145));
#112=EDGE_LOOP('',(#146));
#113=EDGE_LOOP('',(#147));
#114=EDGE_LOOP('',(#148));
#115=EDGE_LOOP('',(#149));
#116=EDGE_LOOP('',(#150));
#117=EDGE_LOOP('',(#151));
#118=EDGE_LOOP('',(#152));
#119=EDGE_LOOP('',(#153));
#120=EDGE_LOOP('',(#154));
#121=EDGE_LOOP('',(#155));
#122=EDGE_LOOP('',(#156));
#123=EDGE_LOOP('',(#157));
#124=EDGE_LOOP('',(#158));
#125=EDGE_LOOP('',(#159));
#126=EDGE_LOOP('',(#160));
#127=EDGE_LOOP('',(#161));
#128=EDGE_LOOP('',(#162));
#129=EDGE_LOOP('',(#163));
#130=EDGE_LOOP('',(#164));
#131=EDGE_LOOP('',(#165));
#132=EDGE_LOOP('',(#166));
#133=EDGE_LOOP('',(#167));
#134=EDGE_LOOP('',(#168));
#135=EDGE_LOOP('',(#169));
#136=EDGE_LOOP('',(#170));
#137=EDGE_LOOP('',(#171));
#138=EDGE_LOOP('',(#172));
#139=ORIENTED_EDGE('',*,*,#190,.T.);
#140=ORIENTED_EDGE('',*,*,#191,.T.);
#141=ORIENTED_EDGE('',*,*,#190,.F.);
#142=ORIENTED_EDGE('',*,*,#192,.T.);
#143=ORIENTED_EDGE('',*,*,#191,.F.);
#144=ORIENTED_EDGE('',*,*,#193,.T.);
#145=ORIENTED_EDGE('',*,*,#192,.F.);
#146=ORIENTED_EDGE('',*,*,#194,.T.);
#147=ORIENTED_EDGE('',*,*,#193,.F.);
#148=ORIENTED_EDGE('',*,*,#195,.T.);
#149=ORIENTED_EDGE('',*,*,#194,.F.);
#150=ORIENTED_EDGE('',*,*,#196,.T.);
#151=ORIENTED_EDGE('',*,*,#195,.F.);
#152=ORIENTED_EDGE('',*,*,#197,.T.);
#153=ORIENTED_EDGE('',*,*,#196,.F.);
#154=ORIENTED_EDGE('',*,*,#198,.T.);
#155=ORIENTED_EDGE('',*,*,#197,.F.);
#156=ORIENTED_EDGE('',*,*,#199,.T.);
#157=ORIENTED_EDGE('',*,*,#198,.F.);
#158=ORIENTED_EDGE('',*,*,#200,.T.);
#159=ORIENTED_EDGE('',*,*,#199,.F.);
#160=ORIENTED_EDGE('',*,*,#201,.T.);
#161=ORIENTED_EDGE('',*,*,#200,.F.);
#162=ORIENTED_EDGE('',*,*,#202,.T.);
#163=ORIENTED_EDGE('',*,*,#201,.F.);
#164=ORIENTED_EDGE('',*,*,#203,.T.);
#165=ORIENTED_EDGE('',*,*,#202,.F.);
#166=ORIENTED_EDGE('',*,*,#204,.T.);
#167=ORIENTED_EDGE('',*,*,#203,.F.);
#168=ORIENTED_EDGE('',*,*,#205,.T.);
#169=ORIENTED_EDGE('',*,*,#204,.F.);
#170=ORIENTED_EDGE('',*,*,#206,.T.);
#171=ORIENTED_EDGE('',*,*,#205,.F.);
#172=ORIENTED_EDGE('',*,*,#206,.F.);
#173=VERTEX_POINT('',#387);
#174=VERTEX_POINT('',#390);
#175=VERTEX_POINT('',#393);
#176=VERTEX_POINT('',#396);
#177=VERTEX_POINT('',#399);
#178=VERTEX_POINT('',#402);
#179=VERTEX_POINT('',#405);
#180=VERTEX_POINT('',#408);
#181=VERTEX_POINT('',#411);
#182=VERTEX_POINT('',#414);
#183=VERTEX_POINT('',#417);
#184=VERTEX_POINT('',#420);
#185=VERTEX_POINT('',#423);
#186=VERTEX_POINT('',#426);
#187=VERTEX_POINT('',#429);
#188=VERTEX_POINT('',#432);
#189=VERTEX_POINT('',#435);
#190=EDGE_CURVE('',#173,#173,#207,.T.);
#191=EDGE_CURVE('',#174,#174,#208,.T.);
#192=EDGE_CURVE('',#175,#175,#209,.T.);
#193=EDGE_CURVE('',#176,#176,#210,.T.);
#194=EDGE_CURVE('',#177,#177,#211,.T.);
#195=EDGE_CURVE('',#178,#178,#212,.T.);
#196=EDGE_CURVE('',#179,#179,#213,.T.);
#197=EDGE_CURVE('',#180,#180,#214,.T.);
#198=EDGE_CURVE('',#181,#181,#215,.T.);
#199=EDGE_CURVE('',#182,#182,#216,.T.);
#200=EDGE_CURVE('',#183,#183,#217,.T.);
#201=EDGE_CURVE('',#184,#184,#218,.T.);
#202=EDGE_CURVE('',#185,#185,#219,.T.);
#203=EDGE_CURVE('',#186,#186,#220,.T.);
#204=EDGE_CURVE('',#187,#187,#221,.T.);
#205=EDGE_CURVE('',#188,#188,#222,.T.);
#206=EDGE_CURVE('',#189,#189,#223,.T.);
#207=CIRCLE('',#263,8.81670546235339);
#208=CIRCLE('',#265,16.1666650635391);
#209=CIRCLE('',#267,23.);
#210=CIRCLE('',#269,23.);
#211=CIRCLE('',#271,19.4841016151378);
#212=CIRCLE('',#273,19.);
#213=CIRCLE('',#275,19.);
#214=CIRCLE('',#277,19.4841016151378);
#215=CIRCLE('',#279,23.0000000000001);
#216=CIRCLE('',#281,23.);
#217=CIRCLE('',#283,9.5);
#218=CIRCLE('',#285,9.5);
#219=CIRCLE('',#287,7.);
#220=CIRCLE('',#289,7.);
#221=CIRCLE('',#291,9.35);
#222=CIRCLE('',#293,9.35);
#223=CIRCLE('',#295,7.);
#224=CURVE_STYLE('',#228,POSITIVE_LENGTH_MEASURE(0.13),#255);
#225=CURVE_STYLE('',#229,POSITIVE_LENGTH_MEASURE(0.18),#255);
#226=CURVE_STYLE('',#230,POSITIVE_LENGTH_MEASURE(0.18),#255);
#227=CURVE_STYLE('',#231,POSITIVE_LENGTH_MEASURE(0.18),#256);
#228=DRAUGHTING_PRE_DEFINED_CURVE_FONT('continuous');
#229=DRAUGHTING_PRE_DEFINED_CURVE_FONT('continuous');
#230=DRAUGHTING_PRE_DEFINED_CURVE_FONT('continuous');
#231=DRAUGHTING_PRE_DEFINED_CURVE_FONT('continuous');
#232=PRESENTATION_LAYER_ASSIGNMENT('1','Layer 1',(#379,#380,#381,#259,#260,
#261,#262,#33));
#233=STYLED_ITEM('',(#241),#379);
#234=STYLED_ITEM('',(#242),#380);
#235=STYLED_ITEM('',(#243),#381);
#236=STYLED_ITEM('',(#244),#259);
#237=STYLED_ITEM('',(#245),#260);
#238=STYLED_ITEM('',(#246),#261);
#239=STYLED_ITEM('',(#247),#262);
#240=STYLED_ITEM('',(#248),#33);
#241=PRESENTATION_STYLE_ASSIGNMENT((#249));
#242=PRESENTATION_STYLE_ASSIGNMENT((#250));
#243=PRESENTATION_STYLE_ASSIGNMENT((#251));
#244=PRESENTATION_STYLE_ASSIGNMENT((#224));
#245=PRESENTATION_STYLE_ASSIGNMENT((#225));
#246=PRESENTATION_STYLE_ASSIGNMENT((#226));
#247=PRESENTATION_STYLE_ASSIGNMENT((#227));
#248=PRESENTATION_STYLE_ASSIGNMENT((#28));
#249=POINT_STYLE('',#252,POSITIVE_LENGTH_MEASURE(3.),#255);
#250=POINT_STYLE('',#253,POSITIVE_LENGTH_MEASURE(3.),#255);
#251=POINT_STYLE('',#254,POSITIVE_LENGTH_MEASURE(3.),#256);
#252=PRE_DEFINED_POINT_MARKER_SYMBOL('plus');
#253=PRE_DEFINED_POINT_MARKER_SYMBOL('plus');
#254=PRE_DEFINED_POINT_MARKER_SYMBOL('plus');
#255=COLOUR_RGB('Strong Stone',0.576470588235294,0.54508278019379,0.392156862745098);
#256=COLOUR_RGB('Medium Maroon',0.6,0.4,0.4);
#257=COLOUR_RGB('TLS_NOCUT',0.499992370489052,0.499992370489052,0.499992370489052);
#258=AXIS2_PLACEMENT_3D('',#378,#298,#299);
#259=AXIS2_PLACEMENT_3D('',#382,#300,#301);
#260=AXIS2_PLACEMENT_3D('PCS',#383,#302,#303);
#261=AXIS2_PLACEMENT_3D('MCS',#384,#304,#305);
#262=AXIS2_PLACEMENT_3D('CSW',#385,#306,#307);
#263=AXIS2_PLACEMENT_3D('',#386,#308,#309);
#264=AXIS2_PLACEMENT_3D('',#388,#310,#311);
#265=AXIS2_PLACEMENT_3D('',#389,#312,#313);
#266=AXIS2_PLACEMENT_3D('',#391,#314,#315);
#267=AXIS2_PLACEMENT_3D('',#392,#316,#317);
#268=AXIS2_PLACEMENT_3D('',#394,#318,#319);
#269=AXIS2_PLACEMENT_3D('',#395,#320,#321);
#270=AXIS2_PLACEMENT_3D('',#397,#322,#323);
#271=AXIS2_PLACEMENT_3D('',#398,#324,#325);
#272=AXIS2_PLACEMENT_3D('',#400,#326,#327);
#273=AXIS2_PLACEMENT_3D('',#401,#328,#329);
#274=AXIS2_PLACEMENT_3D('',#403,#330,#331);
#275=AXIS2_PLACEMENT_3D('',#404,#332,#333);
#276=AXIS2_PLACEMENT_3D('',#406,#334,#335);
#277=AXIS2_PLACEMENT_3D('',#407,#336,#337);
#278=AXIS2_PLACEMENT_3D('',#409,#338,#339);
#279=AXIS2_PLACEMENT_3D('',#410,#340,#341);
#280=AXIS2_PLACEMENT_3D('',#412,#342,#343);
#281=AXIS2_PLACEMENT_3D('',#413,#344,#345);
#282=AXIS2_PLACEMENT_3D('',#415,#346,#347);
#283=AXIS2_PLACEMENT_3D('',#416,#348,#349);
#284=AXIS2_PLACEMENT_3D('',#418,#350,#351);
#285=AXIS2_PLACEMENT_3D('',#419,#352,#353);
#286=AXIS2_PLACEMENT_3D('',#421,#354,#355);
#287=AXIS2_PLACEMENT_3D('',#422,#356,#357);
#288=AXIS2_PLACEMENT_3D('',#424,#358,#359);
#289=AXIS2_PLACEMENT_3D('',#425,#360,#361);
#290=AXIS2_PLACEMENT_3D('',#427,#362,#363);
#291=AXIS2_PLACEMENT_3D('',#428,#364,#365);
#292=AXIS2_PLACEMENT_3D('',#430,#366,#367);
#293=AXIS2_PLACEMENT_3D('',#431,#368,#369);
#294=AXIS2_PLACEMENT_3D('',#433,#370,#371);
#295=AXIS2_PLACEMENT_3D('',#434,#372,#373);
#296=AXIS2_PLACEMENT_3D('',#436,#374,#375);
#297=AXIS2_PLACEMENT_3D('',#437,#376,#377);
#298=DIRECTION('',(0.,0.,1.));
#299=DIRECTION('',(1.,0.,0.));
#300=DIRECTION('',(0.,0.,1.));
#301=DIRECTION('',(1.,0.,0.));
#302=DIRECTION('',(0.,0.,1.));
#303=DIRECTION('',(1.,0.,0.));
#304=DIRECTION('',(0.,0.,1.));
#305=DIRECTION('',(1.,0.,0.));
#306=DIRECTION('',(0.,0.,1.));
#307=DIRECTION('',(1.,0.,0.));
#308=DIRECTION('',(0.,0.,1.));
#309=DIRECTION('',(1.,0.,0.));
#310=DIRECTION('',(0.,0.,1.));
#311=DIRECTION('',(1.,0.,0.));
#312=DIRECTION('',(0.,0.,1.));
#313=DIRECTION('',(1.,0.,0.));
#314=DIRECTION('',(0.,0.,-1.));
#315=DIRECTION('',(-1.,0.,0.));
#316=DIRECTION('',(0.,0.,1.));
#317=DIRECTION('',(1.,0.,0.));
#318=DIRECTION('',(0.,0.,1.));
#319=DIRECTION('',(1.,0.,0.));
#320=DIRECTION('',(0.,0.,1.));
#321=DIRECTION('',(1.,0.,0.));
#322=DIRECTION('',(0.,0.,1.));
#323=DIRECTION('',(1.,0.,0.));
#324=DIRECTION('',(0.,0.,1.));
#325=DIRECTION('',(1.,0.,0.));
#326=DIRECTION('',(0.,0.,1.));
#327=DIRECTION('',(1.,0.,-1.8285729488382E-017));
#328=DIRECTION('',(0.,0.,1.));
#329=DIRECTION('',(1.,0.,0.));
#330=DIRECTION('',(0.,0.,-1.));
#331=DIRECTION('',(-1.,0.,0.));
#332=DIRECTION('',(0.,0.,1.));
#333=DIRECTION('',(1.,0.,0.));
#334=DIRECTION('',(0.,0.,1.));
#335=DIRECTION('',(1.,0.,0.));
#336=DIRECTION('',(0.,0.,1.));
#337=DIRECTION('',(1.,0.,0.));
#338=DIRECTION('',(0.,0.,1.));
#339=DIRECTION('',(1.,0.,0.));
#340=DIRECTION('',(0.,0.,1.));
#341=DIRECTION('',(1.,0.,0.));
#342=DIRECTION('',(0.,0.,-1.));
#343=DIRECTION('',(-1.,0.,-3.26832622102311E-017));
#344=DIRECTION('',(0.,0.,1.));
#345=DIRECTION('',(1.,0.,0.));
#346=DIRECTION('',(0.,0.,1.));
#347=DIRECTION('',(1.,0.,0.));
#348=DIRECTION('',(0.,0.,1.));
#349=DIRECTION('',(1.,0.,0.));
#350=DIRECTION('',(0.,0.,-1.));
#351=DIRECTION('',(-1.,0.,0.));
#352=DIRECTION('',(0.,0.,1.));
#353=DIRECTION('',(1.,0.,0.));
#354=DIRECTION('',(0.,0.,1.));
#355=DIRECTION('',(1.,0.,0.));
#356=DIRECTION('',(0.,0.,1.));
#357=DIRECTION('',(1.,0.,0.));
#358=DIRECTION('',(0.,0.,-1.));
#359=DIRECTION('',(-1.,0.,0.));
#360=DIRECTION('',(0.,0.,1.));
#361=DIRECTION('',(1.,0.,0.));
#362=DIRECTION('',(0.,0.,1.));
#363=DIRECTION('',(1.,0.,0.));
#364=DIRECTION('',(0.,0.,1.));
#365=DIRECTION('',(1.,0.,0.));
#366=DIRECTION('',(0.,0.,1.));
#367=DIRECTION('',(1.,0.,0.));
#368=DIRECTION('',(0.,0.,1.));
#369=DIRECTION('',(1.,0.,0.));
#370=DIRECTION('',(0.,0.,1.));
#371=DIRECTION('',(1.,0.,0.));
#372=DIRECTION('',(0.,0.,1.));
#373=DIRECTION('',(1.,0.,0.));
#374=DIRECTION('',(0.,0.,1.));
#375=DIRECTION('',(1.,0.,-3.98466216034112E-018));
#376=DIRECTION('',(0.,0.,-1.));
#377=DIRECTION('',(-1.,0.,0.));
#378=CARTESIAN_POINT('',(0.,0.,0.));
#379=CARTESIAN_POINT('',(0.,0.,0.));
#380=CARTESIAN_POINT('',(0.,0.,0.));
#381=CARTESIAN_POINT('',(0.,0.,-43.7));
#382=CARTESIAN_POINT('',(0.,0.,0.));
#383=CARTESIAN_POINT('',(0.,0.,0.));
#384=CARTESIAN_POINT('',(0.,0.,0.));
#385=CARTESIAN_POINT('',(0.,0.,-43.7));
#386=CARTESIAN_POINT('',(0.,0.,50.4));
#387=CARTESIAN_POINT('',(8.81670546235339,0.,50.4));
#388=CARTESIAN_POINT('',(0.,6.,50.4));
#389=CARTESIAN_POINT('',(0.,0.,0.));
#390=CARTESIAN_POINT('',(16.1666650635391,0.,0.));
#391=CARTESIAN_POINT('',(0.,0.,50.4));
#392=CARTESIAN_POINT('',(0.,0.,0.));
#393=CARTESIAN_POINT('',(23.,0.,0.));
#394=CARTESIAN_POINT('',(0.,16.1666650635391,0.));
#395=CARTESIAN_POINT('',(0.,0.,-7.57009512105641));
#396=CARTESIAN_POINT('',(23.,0.,-7.57009512105641));
#397=CARTESIAN_POINT('',(0.,0.,2.));
#398=CARTESIAN_POINT('',(0.,0.,-9.6));
#399=CARTESIAN_POINT('',(19.4841016151378,0.,-9.6));
#400=CARTESIAN_POINT('',(0.,0.,-7.57009512105641));
#401=CARTESIAN_POINT('',(0.,0.,-9.6));
#402=CARTESIAN_POINT('',(19.,0.,-9.6));
#403=CARTESIAN_POINT('',(0.,19.4841016151378,-9.6));
#404=CARTESIAN_POINT('',(0.,0.,-13.6));
#405=CARTESIAN_POINT('',(19.,0.,-13.6));
#406=CARTESIAN_POINT('',(0.,0.,2.));
#407=CARTESIAN_POINT('',(0.,0.,-13.6));
#408=CARTESIAN_POINT('',(19.4841016151378,0.,-13.6));
#409=CARTESIAN_POINT('',(0.,19.,-13.6));
#410=CARTESIAN_POINT('',(0.,0.,-15.6299048789436));
#411=CARTESIAN_POINT('',(23.0000000000001,0.,-15.6299048789436));
#412=CARTESIAN_POINT('',(0.,0.,-13.6));
#413=CARTESIAN_POINT('',(0.,0.,-20.));
#414=CARTESIAN_POINT('',(23.,0.,-20.));
#415=CARTESIAN_POINT('',(0.,0.,2.));
#416=CARTESIAN_POINT('',(0.,0.,-20.));
#417=CARTESIAN_POINT('',(9.5,0.,-20.));
#418=CARTESIAN_POINT('',(0.,23.,-20.));
#419=CARTESIAN_POINT('',(0.,0.,-29.4));
#420=CARTESIAN_POINT('',(9.5,0.,-29.4));
#421=CARTESIAN_POINT('',(0.,0.,2.));
#422=CARTESIAN_POINT('',(0.,0.,-29.4));
#423=CARTESIAN_POINT('',(7.,0.,-29.4));
#424=CARTESIAN_POINT('',(0.,9.5,-29.4));
#425=CARTESIAN_POINT('',(0.,0.,-36.7));
#426=CARTESIAN_POINT('',(7.,0.,-36.7));
#427=CARTESIAN_POINT('',(0.,0.,2.));
#428=CARTESIAN_POINT('',(0.,0.,-36.7));
#429=CARTESIAN_POINT('',(9.35,0.,-36.7));
#430=CARTESIAN_POINT('',(0.,7.,-36.7));
#431=CARTESIAN_POINT('',(0.,0.,-46.6432268674044));
#432=CARTESIAN_POINT('',(9.35,0.,-46.6432268674044));
#433=CARTESIAN_POINT('',(0.,0.,2.));
#434=CARTESIAN_POINT('',(0.,0.,-48.));
#435=CARTESIAN_POINT('',(7.,0.,-48.));
#436=CARTESIAN_POINT('',(0.,0.,-46.6432268674044));
#437=CARTESIAN_POINT('',(0.,7.,-48.));
#438=MECHANICAL_DESIGN_GEOMETRIC_PRESENTATION_REPRESENTATION('',(#233,#234,
#235,#236,#237,#238,#239,#240),#439);
#439=(
GEOMETRIC_REPRESENTATION_CONTEXT(3)
GLOBAL_UNCERTAINTY_ASSIGNED_CONTEXT((#440))
GLOBAL_UNIT_ASSIGNED_CONTEXT((#446,#442,#441))
REPRESENTATION_CONTEXT('1493026013486','TOP_LEVEL_ASSEMBLY_PART')
);
#440=UNCERTAINTY_MEASURE_WITH_UNIT(LENGTH_MEASURE(2.E-005),#446,
'DISTANCE_ACCURACY_VALUE','Maximum Tolerance applied to model');
#441=(
NAMED_UNIT(*)
SI_UNIT($,.STERADIAN.)
SOLID_ANGLE_UNIT()
);
#442=(
CONVERSION_BASED_UNIT('DEGREE',#444)
NAMED_UNIT(#443)
PLANE_ANGLE_UNIT()
);
#443=DIMENSIONAL_EXPONENTS(0.,0.,0.,0.,0.,0.,0.);
#444=PLANE_ANGLE_MEASURE_WITH_UNIT(PLANE_ANGLE_MEASURE(0.0174532925),#445);
#445=(
NAMED_UNIT(*)
PLANE_ANGLE_UNIT()
SI_UNIT($,.RADIAN.)
);
#446=(
LENGTH_UNIT()
NAMED_UNIT(*)
SI_UNIT(.MILLI.,.METRE.)
);
ENDSEC;
END-ISO-10303-21;
