ISO-10303-21;
HEADER;
FILE_DESCRIPTION(
/* description */ ('3-D model version:1'),
/* implementation_level */ '2;1');
FILE_NAME(
/* name */ 'A2B08-4027055',
/* time_stamp */ '2016-12-02T13:58:47',
/* author */ ('InteractiveCad'),
/* organization */ ('AB Sandvik Coromant'),
/* preprocessor_version */ 'ST-DEVELOPER v11',
/* originating_system */ 'SIEMENS UGS NX 6.0',
/* authorization */ '');
FILE_SCHEMA(('AUTOMOTIVE_DESIGN'));
ENDSEC;
DATA;
#10=SHAPE_REPRESENTATION_RELATIONSHIP('None','relationship between ds29E19D8hco-None and ds29E19D8hco-None',
     #22,#11);
#11=ADVANCED_BREP_SHAPE_REPRESENTATION('ds29E19D8hco-None',(#32),#565);
#12=SHAPE_DEFINITION_REPRESENTATION(#13,#22);
#13=PRODUCT_DEFINITION_SHAPE('','',#14);
#14=PRODUCT_DEFINITION(' ','',#16,#15);
#15=PRODUCT_DEFINITION_CONTEXT('part definition',#21,'design');
#16=PRODUCT_DEFINITION_FORMATION_WITH_SPECIFIED_SOURCE(' ',' ',#18,.NOT_KNOWN.);
#17=PRODUCT_RELATED_PRODUCT_CATEGORY('part','',(#18));
#18=PRODUCT('ds29E19D8hco','ds29E19D8hco',' ',(#19));
#19=PRODUCT_CONTEXT(' ',#21,'mechanical');
#20=APPLICATION_PROTOCOL_DEFINITION('international standard','automotive_design',
     2001,#21);
#21=APPLICATION_CONTEXT('core data for automotive mechanical design processes');
#22=SHAPE_REPRESENTATION('ds29E19D8hco-None',(#322),#565);
#23=PRESENTATION_LAYER_ASSIGNMENT('1','Layer 1',(#32));
#24=STYLED_ITEM('',(#25),#32);
#25=PRESENTATION_STYLE_ASSIGNMENT((#26));
#26=SURFACE_STYLE_USAGE(.BOTH.,#27);
#27=SURFACE_SIDE_STYLE('',(#28));
#28=SURFACE_STYLE_FILL_AREA(#29);
#29=FILL_AREA_STYLE('',(#30));
#30=FILL_AREA_STYLE_COLOUR('',#31);
#31=COLOUR_RGB('Medium Gray',0.490196078431373,0.490196078431373,0.490196078431373);
#32=MANIFOLD_SOLID_BREP('NOCUT',#33);
#33=CLOSED_SHELL('',(#103,#104,#105,#106,#107,#108,#109,#110,#111,#112,#113,#114,
     #115,#116,#117,#118,#119,#120,#121,#122,#123,#124,#125,#126,#127,#128,#129));
#34=CONICAL_SURFACE('',#346,31.4875,59.9999999999609);
#35=CONICAL_SURFACE('',#358,27.1750789242105,60.0);
#36=CONICAL_SURFACE('',#370,21.875,14.9999999999086);
#37=CONICAL_SURFACE('',#372,22.0402528498011,8.29782682820344);
#38=CYLINDRICAL_SURFACE('',#328,13.5);
#39=CYLINDRICAL_SURFACE('',#332,15.75);
#40=CYLINDRICAL_SURFACE('',#336,24.0);
#41=CYLINDRICAL_SURFACE('',#344,31.4875);
#42=CYLINDRICAL_SURFACE('',#352,26.375);
#43=CYLINDRICAL_SURFACE('',#360,31.4875000000009);
#44=CYLINDRICAL_SURFACE('',#368,21.875);
#45=TOROIDAL_SURFACE('',#326,12.5,1.0);
#46=TOROIDAL_SURFACE('',#338,25.0,1.0);
#47=TOROIDAL_SURFACE('',#342,30.4875,1.0);
#48=TOROIDAL_SURFACE('',#350,27.125,0.75);
#49=TOROIDAL_SURFACE('',#354,27.125,0.75);
#50=TOROIDAL_SURFACE('',#362,30.4875,1.0);
#51=TOROIDAL_SURFACE('',#366,22.875,1.0);
#52=TOROIDAL_SURFACE('',#374,11.82197113897,1.0);
#53=FACE_BOUND('',#141,.T.);
#54=FACE_BOUND('',#142,.T.);
#55=FACE_BOUND('',#143,.T.);
#56=FACE_BOUND('',#144,.T.);
#57=FACE_BOUND('',#145,.T.);
#58=FACE_BOUND('',#146,.T.);
#59=FACE_BOUND('',#147,.T.);
#60=FACE_BOUND('',#148,.T.);
#61=FACE_BOUND('',#149,.T.);
#62=FACE_BOUND('',#150,.T.);
#63=FACE_BOUND('',#151,.T.);
#64=FACE_BOUND('',#152,.T.);
#65=FACE_BOUND('',#153,.T.);
#66=FACE_BOUND('',#154,.T.);
#67=FACE_BOUND('',#155,.T.);
#68=FACE_BOUND('',#156,.T.);
#69=FACE_BOUND('',#157,.T.);
#70=FACE_BOUND('',#158,.T.);
#71=FACE_BOUND('',#159,.T.);
#72=FACE_BOUND('',#160,.T.);
#73=FACE_BOUND('',#161,.T.);
#74=FACE_BOUND('',#162,.T.);
#75=FACE_BOUND('',#163,.T.);
#76=FACE_BOUND('',#164,.T.);
#77=FACE_BOUND('',#165,.T.);
#78=FACE_BOUND('',#166,.T.);
#79=FACE_BOUND('',#167,.T.);
#80=FACE_BOUND('',#168,.T.);
#81=FACE_BOUND('',#169,.T.);
#82=FACE_BOUND('',#170,.T.);
#83=FACE_BOUND('',#171,.T.);
#84=FACE_BOUND('',#172,.T.);
#85=FACE_BOUND('',#173,.T.);
#86=FACE_BOUND('',#174,.T.);
#87=FACE_BOUND('',#175,.T.);
#88=FACE_BOUND('',#176,.T.);
#89=FACE_BOUND('',#177,.T.);
#90=FACE_BOUND('',#178,.T.);
#91=FACE_BOUND('',#179,.T.);
#92=FACE_BOUND('',#180,.T.);
#93=FACE_BOUND('',#181,.T.);
#94=FACE_BOUND('',#182,.T.);
#95=FACE_BOUND('',#183,.T.);
#96=FACE_BOUND('',#184,.T.);
#97=FACE_BOUND('',#185,.T.);
#98=FACE_BOUND('',#186,.T.);
#99=FACE_BOUND('',#187,.T.);
#100=FACE_BOUND('',#188,.T.);
#101=FACE_BOUND('',#189,.T.);
#102=FACE_BOUND('',#190,.T.);
#103=ADVANCED_FACE('',(#138),#130,.F.);
#104=ADVANCED_FACE('',(#53,#54),#45,.T.);
#105=ADVANCED_FACE('',(#55,#56),#38,.T.);
#106=ADVANCED_FACE('',(#57,#58),#131,.F.);
#107=ADVANCED_FACE('',(#59,#60),#39,.F.);
#108=ADVANCED_FACE('',(#61,#62),#132,.F.);
#109=ADVANCED_FACE('',(#63,#64),#40,.T.);
#110=ADVANCED_FACE('',(#65,#66),#46,.F.);
#111=ADVANCED_FACE('',(#67,#68),#133,.F.);
#112=ADVANCED_FACE('',(#69,#70),#47,.T.);
#113=ADVANCED_FACE('',(#71,#72),#41,.T.);
#114=ADVANCED_FACE('',(#73,#74),#34,.T.);
#115=ADVANCED_FACE('',(#75,#76),#134,.F.);
#116=ADVANCED_FACE('',(#77,#78),#48,.F.);
#117=ADVANCED_FACE('',(#79,#80),#42,.T.);
#118=ADVANCED_FACE('',(#81,#82),#49,.F.);
#119=ADVANCED_FACE('',(#83,#84),#135,.F.);
#120=ADVANCED_FACE('',(#85,#86),#35,.T.);
#121=ADVANCED_FACE('',(#87,#88),#43,.T.);
#122=ADVANCED_FACE('',(#89,#90),#50,.T.);
#123=ADVANCED_FACE('',(#91,#92),#136,.F.);
#124=ADVANCED_FACE('',(#93,#94),#51,.F.);
#125=ADVANCED_FACE('',(#95,#96),#44,.T.);
#126=ADVANCED_FACE('',(#97,#98),#36,.T.);
#127=ADVANCED_FACE('',(#99,#100),#37,.T.);
#128=ADVANCED_FACE('',(#101,#102),#52,.T.);
#129=ADVANCED_FACE('',(#139),#137,.F.);
#130=PLANE('',#324);
#131=PLANE('',#330);
#132=PLANE('',#334);
#133=PLANE('',#340);
#134=PLANE('',#348);
#135=PLANE('',#356);
#136=PLANE('',#364);
#137=PLANE('',#375);
#138=FACE_OUTER_BOUND('',#140,.T.);
#139=FACE_OUTER_BOUND('',#191,.T.);
#140=EDGE_LOOP('',(#192));
#141=EDGE_LOOP('',(#193));
#142=EDGE_LOOP('',(#194));
#143=EDGE_LOOP('',(#195));
#144=EDGE_LOOP('',(#196));
#145=EDGE_LOOP('',(#197));
#146=EDGE_LOOP('',(#198));
#147=EDGE_LOOP('',(#199));
#148=EDGE_LOOP('',(#200));
#149=EDGE_LOOP('',(#201));
#150=EDGE_LOOP('',(#202));
#151=EDGE_LOOP('',(#203));
#152=EDGE_LOOP('',(#204));
#153=EDGE_LOOP('',(#205));
#154=EDGE_LOOP('',(#206));
#155=EDGE_LOOP('',(#207));
#156=EDGE_LOOP('',(#208));
#157=EDGE_LOOP('',(#209));
#158=EDGE_LOOP('',(#210));
#159=EDGE_LOOP('',(#211));
#160=EDGE_LOOP('',(#212));
#161=EDGE_LOOP('',(#213));
#162=EDGE_LOOP('',(#214));
#163=EDGE_LOOP('',(#215));
#164=EDGE_LOOP('',(#216));
#165=EDGE_LOOP('',(#217));
#166=EDGE_LOOP('',(#218));
#167=EDGE_LOOP('',(#219));
#168=EDGE_LOOP('',(#220));
#169=EDGE_LOOP('',(#221));
#170=EDGE_LOOP('',(#222));
#171=EDGE_LOOP('',(#223));
#172=EDGE_LOOP('',(#224));
#173=EDGE_LOOP('',(#225));
#174=EDGE_LOOP('',(#226));
#175=EDGE_LOOP('',(#227));
#176=EDGE_LOOP('',(#228));
#177=EDGE_LOOP('',(#229));
#178=EDGE_LOOP('',(#230));
#179=EDGE_LOOP('',(#231));
#180=EDGE_LOOP('',(#232));
#181=EDGE_LOOP('',(#233));
#182=EDGE_LOOP('',(#234));
#183=EDGE_LOOP('',(#235));
#184=EDGE_LOOP('',(#236));
#185=EDGE_LOOP('',(#237));
#186=EDGE_LOOP('',(#238));
#187=EDGE_LOOP('',(#239));
#188=EDGE_LOOP('',(#240));
#189=EDGE_LOOP('',(#241));
#190=EDGE_LOOP('',(#242));
#191=EDGE_LOOP('',(#243));
#192=ORIENTED_EDGE('',*,*,#270,.F.);
#193=ORIENTED_EDGE('',*,*,#271,.F.);
#194=ORIENTED_EDGE('',*,*,#270,.T.);
#195=ORIENTED_EDGE('',*,*,#272,.F.);
#196=ORIENTED_EDGE('',*,*,#271,.T.);
#197=ORIENTED_EDGE('',*,*,#273,.F.);
#198=ORIENTED_EDGE('',*,*,#272,.T.);
#199=ORIENTED_EDGE('',*,*,#274,.F.);
#200=ORIENTED_EDGE('',*,*,#273,.T.);
#201=ORIENTED_EDGE('',*,*,#275,.F.);
#202=ORIENTED_EDGE('',*,*,#274,.T.);
#203=ORIENTED_EDGE('',*,*,#276,.F.);
#204=ORIENTED_EDGE('',*,*,#275,.T.);
#205=ORIENTED_EDGE('',*,*,#277,.F.);
#206=ORIENTED_EDGE('',*,*,#276,.T.);
#207=ORIENTED_EDGE('',*,*,#278,.F.);
#208=ORIENTED_EDGE('',*,*,#277,.T.);
#209=ORIENTED_EDGE('',*,*,#279,.F.);
#210=ORIENTED_EDGE('',*,*,#278,.T.);
#211=ORIENTED_EDGE('',*,*,#280,.F.);
#212=ORIENTED_EDGE('',*,*,#279,.T.);
#213=ORIENTED_EDGE('',*,*,#281,.F.);
#214=ORIENTED_EDGE('',*,*,#280,.T.);
#215=ORIENTED_EDGE('',*,*,#282,.F.);
#216=ORIENTED_EDGE('',*,*,#281,.T.);
#217=ORIENTED_EDGE('',*,*,#283,.F.);
#218=ORIENTED_EDGE('',*,*,#282,.T.);
#219=ORIENTED_EDGE('',*,*,#284,.F.);
#220=ORIENTED_EDGE('',*,*,#283,.T.);
#221=ORIENTED_EDGE('',*,*,#285,.F.);
#222=ORIENTED_EDGE('',*,*,#284,.T.);
#223=ORIENTED_EDGE('',*,*,#286,.F.);
#224=ORIENTED_EDGE('',*,*,#285,.T.);
#225=ORIENTED_EDGE('',*,*,#287,.F.);
#226=ORIENTED_EDGE('',*,*,#286,.T.);
#227=ORIENTED_EDGE('',*,*,#288,.F.);
#228=ORIENTED_EDGE('',*,*,#287,.T.);
#229=ORIENTED_EDGE('',*,*,#289,.F.);
#230=ORIENTED_EDGE('',*,*,#288,.T.);
#231=ORIENTED_EDGE('',*,*,#290,.F.);
#232=ORIENTED_EDGE('',*,*,#289,.T.);
#233=ORIENTED_EDGE('',*,*,#291,.F.);
#234=ORIENTED_EDGE('',*,*,#290,.T.);
#235=ORIENTED_EDGE('',*,*,#292,.F.);
#236=ORIENTED_EDGE('',*,*,#291,.T.);
#237=ORIENTED_EDGE('',*,*,#293,.F.);
#238=ORIENTED_EDGE('',*,*,#292,.T.);
#239=ORIENTED_EDGE('',*,*,#294,.F.);
#240=ORIENTED_EDGE('',*,*,#293,.T.);
#241=ORIENTED_EDGE('',*,*,#295,.F.);
#242=ORIENTED_EDGE('',*,*,#294,.T.);
#243=ORIENTED_EDGE('',*,*,#295,.T.);
#244=VERTEX_POINT('',#486);
#245=VERTEX_POINT('',#489);
#246=VERTEX_POINT('',#492);
#247=VERTEX_POINT('',#495);
#248=VERTEX_POINT('',#498);
#249=VERTEX_POINT('',#501);
#250=VERTEX_POINT('',#504);
#251=VERTEX_POINT('',#507);
#252=VERTEX_POINT('',#510);
#253=VERTEX_POINT('',#513);
#254=VERTEX_POINT('',#516);
#255=VERTEX_POINT('',#519);
#256=VERTEX_POINT('',#522);
#257=VERTEX_POINT('',#525);
#258=VERTEX_POINT('',#528);
#259=VERTEX_POINT('',#531);
#260=VERTEX_POINT('',#534);
#261=VERTEX_POINT('',#537);
#262=VERTEX_POINT('',#540);
#263=VERTEX_POINT('',#543);
#264=VERTEX_POINT('',#546);
#265=VERTEX_POINT('',#549);
#266=VERTEX_POINT('',#552);
#267=VERTEX_POINT('',#555);
#268=VERTEX_POINT('',#558);
#269=VERTEX_POINT('',#561);
#270=EDGE_CURVE('',#244,#244,#296,.T.);
#271=EDGE_CURVE('',#245,#245,#297,.T.);
#272=EDGE_CURVE('',#246,#246,#298,.T.);
#273=EDGE_CURVE('',#247,#247,#299,.T.);
#274=EDGE_CURVE('',#248,#248,#300,.T.);
#275=EDGE_CURVE('',#249,#249,#301,.T.);
#276=EDGE_CURVE('',#250,#250,#302,.T.);
#277=EDGE_CURVE('',#251,#251,#303,.T.);
#278=EDGE_CURVE('',#252,#252,#304,.T.);
#279=EDGE_CURVE('',#253,#253,#305,.T.);
#280=EDGE_CURVE('',#254,#254,#306,.T.);
#281=EDGE_CURVE('',#255,#255,#307,.T.);
#282=EDGE_CURVE('',#256,#256,#308,.T.);
#283=EDGE_CURVE('',#257,#257,#309,.T.);
#284=EDGE_CURVE('',#258,#258,#310,.T.);
#285=EDGE_CURVE('',#259,#259,#311,.T.);
#286=EDGE_CURVE('',#260,#260,#312,.T.);
#287=EDGE_CURVE('',#261,#261,#313,.T.);
#288=EDGE_CURVE('',#262,#262,#314,.T.);
#289=EDGE_CURVE('',#263,#263,#315,.T.);
#290=EDGE_CURVE('',#264,#264,#316,.T.);
#291=EDGE_CURVE('',#265,#265,#317,.T.);
#292=EDGE_CURVE('',#266,#266,#318,.T.);
#293=EDGE_CURVE('',#267,#267,#319,.T.);
#294=EDGE_CURVE('',#268,#268,#320,.T.);
#295=EDGE_CURVE('',#269,#269,#321,.T.);
#296=CIRCLE('',#323,12.5);
#297=CIRCLE('',#325,13.5);
#298=CIRCLE('',#327,13.5);
#299=CIRCLE('',#329,15.75);
#300=CIRCLE('',#331,15.75);
#301=CIRCLE('',#333,24.0);
#302=CIRCLE('',#335,24.0);
#303=CIRCLE('',#337,25.0);
#304=CIRCLE('',#339,30.4875);
#305=CIRCLE('',#341,31.4875);
#306=CIRCLE('',#343,31.4875);
#307=CIRCLE('',#345,27.1750789242105);
#308=CIRCLE('',#347,27.125);
#309=CIRCLE('',#349,26.375);
#310=CIRCLE('',#351,26.375);
#311=CIRCLE('',#353,27.125);
#312=CIRCLE('',#355,27.1750789242105);
#313=CIRCLE('',#357,31.4875000000017);
#314=CIRCLE('',#359,31.4875);
#315=CIRCLE('',#361,30.4875);
#316=CIRCLE('',#363,22.875);
#317=CIRCLE('',#365,21.875);
#318=CIRCLE('',#367,21.875);
#319=CIRCLE('',#369,22.0402528498011);
#320=CIRCLE('',#371,12.811502402615);
#321=CIRCLE('',#373,11.82197113897);
#322=AXIS2_PLACEMENT_3D('',#484,#376,#377);
#323=AXIS2_PLACEMENT_3D('',#485,#378,#379);
#324=AXIS2_PLACEMENT_3D('',#487,#380,#381);
#325=AXIS2_PLACEMENT_3D('',#488,#382,#383);
#326=AXIS2_PLACEMENT_3D('',#490,#384,#385);
#327=AXIS2_PLACEMENT_3D('',#491,#386,#387);
#328=AXIS2_PLACEMENT_3D('',#493,#388,#389);
#329=AXIS2_PLACEMENT_3D('',#494,#390,#391);
#330=AXIS2_PLACEMENT_3D('',#496,#392,#393);
#331=AXIS2_PLACEMENT_3D('',#497,#394,#395);
#332=AXIS2_PLACEMENT_3D('',#499,#396,#397);
#333=AXIS2_PLACEMENT_3D('',#500,#398,#399);
#334=AXIS2_PLACEMENT_3D('',#502,#400,#401);
#335=AXIS2_PLACEMENT_3D('',#503,#402,#403);
#336=AXIS2_PLACEMENT_3D('',#505,#404,#405);
#337=AXIS2_PLACEMENT_3D('',#506,#406,#407);
#338=AXIS2_PLACEMENT_3D('',#508,#408,#409);
#339=AXIS2_PLACEMENT_3D('',#509,#410,#411);
#340=AXIS2_PLACEMENT_3D('',#511,#412,#413);
#341=AXIS2_PLACEMENT_3D('',#512,#414,#415);
#342=AXIS2_PLACEMENT_3D('',#514,#416,#417);
#343=AXIS2_PLACEMENT_3D('',#515,#418,#419);
#344=AXIS2_PLACEMENT_3D('',#517,#420,#421);
#345=AXIS2_PLACEMENT_3D('',#518,#422,#423);
#346=AXIS2_PLACEMENT_3D('',#520,#424,#425);
#347=AXIS2_PLACEMENT_3D('',#521,#426,#427);
#348=AXIS2_PLACEMENT_3D('',#523,#428,#429);
#349=AXIS2_PLACEMENT_3D('',#524,#430,#431);
#350=AXIS2_PLACEMENT_3D('',#526,#432,#433);
#351=AXIS2_PLACEMENT_3D('',#527,#434,#435);
#352=AXIS2_PLACEMENT_3D('',#529,#436,#437);
#353=AXIS2_PLACEMENT_3D('',#530,#438,#439);
#354=AXIS2_PLACEMENT_3D('',#532,#440,#441);
#355=AXIS2_PLACEMENT_3D('',#533,#442,#443);
#356=AXIS2_PLACEMENT_3D('',#535,#444,#445);
#357=AXIS2_PLACEMENT_3D('',#536,#446,#447);
#358=AXIS2_PLACEMENT_3D('',#538,#448,#449);
#359=AXIS2_PLACEMENT_3D('',#539,#450,#451);
#360=AXIS2_PLACEMENT_3D('',#541,#452,#453);
#361=AXIS2_PLACEMENT_3D('',#542,#454,#455);
#362=AXIS2_PLACEMENT_3D('',#544,#456,#457);
#363=AXIS2_PLACEMENT_3D('',#545,#458,#459);
#364=AXIS2_PLACEMENT_3D('',#547,#460,#461);
#365=AXIS2_PLACEMENT_3D('',#548,#462,#463);
#366=AXIS2_PLACEMENT_3D('',#550,#464,#465);
#367=AXIS2_PLACEMENT_3D('',#551,#466,#467);
#368=AXIS2_PLACEMENT_3D('',#553,#468,#469);
#369=AXIS2_PLACEMENT_3D('',#554,#470,#471);
#370=AXIS2_PLACEMENT_3D('',#556,#472,#473);
#371=AXIS2_PLACEMENT_3D('',#557,#474,#475);
#372=AXIS2_PLACEMENT_3D('',#559,#476,#477);
#373=AXIS2_PLACEMENT_3D('',#560,#478,#479);
#374=AXIS2_PLACEMENT_3D('',#562,#480,#481);
#375=AXIS2_PLACEMENT_3D('',#563,#482,#483);
#376=DIRECTION('',(0.0,0.0,1.0));
#377=DIRECTION('',(1.0,0.0,0.0));
#378=DIRECTION('',(0.0,0.0,1.0));
#379=DIRECTION('',(1.0,0.0,0.0));
#380=DIRECTION('',(0.0,0.0,1.0));
#381=DIRECTION('',(1.0,0.0,0.0));
#382=DIRECTION('',(0.0,0.0,1.0));
#383=DIRECTION('',(1.0,0.0,0.0));
#384=DIRECTION('',(0.0,0.0,1.0));
#385=DIRECTION('',(1.0,0.0,0.0));
#386=DIRECTION('',(0.0,0.0,1.0));
#387=DIRECTION('',(1.0,0.0,0.0));
#388=DIRECTION('',(0.0,0.0,1.0));
#389=DIRECTION('',(1.0,0.0,0.0));
#390=DIRECTION('',(0.0,0.0,1.0));
#391=DIRECTION('',(1.0,0.0,0.0));
#392=DIRECTION('',(0.0,0.0,1.0));
#393=DIRECTION('',(1.0,0.0,0.0));
#394=DIRECTION('',(0.0,0.0,1.0));
#395=DIRECTION('',(1.0,0.0,0.0));
#396=DIRECTION('',(0.0,0.0,1.0));
#397=DIRECTION('',(1.0,0.0,0.0));
#398=DIRECTION('',(0.0,0.0,1.0));
#399=DIRECTION('',(1.0,0.0,0.0));
#400=DIRECTION('',(0.0,0.0,1.0));
#401=DIRECTION('',(1.0,0.0,0.0));
#402=DIRECTION('',(0.0,0.0,1.0));
#403=DIRECTION('',(1.0,0.0,0.0));
#404=DIRECTION('',(0.0,0.0,1.0));
#405=DIRECTION('',(1.0,0.0,0.0));
#406=DIRECTION('',(0.0,0.0,1.0));
#407=DIRECTION('',(1.0,0.0,0.0));
#408=DIRECTION('',(0.0,0.0,1.0));
#409=DIRECTION('',(1.0,0.0,0.0));
#410=DIRECTION('',(0.0,0.0,1.0));
#411=DIRECTION('',(1.0,0.0,0.0));
#412=DIRECTION('',(0.0,0.0,1.0));
#413=DIRECTION('',(1.0,0.0,0.0));
#414=DIRECTION('',(0.0,0.0,1.0));
#415=DIRECTION('',(1.0,0.0,0.0));
#416=DIRECTION('',(0.0,0.0,1.0));
#417=DIRECTION('',(1.0,0.0,0.0));
#418=DIRECTION('',(0.0,0.0,1.0));
#419=DIRECTION('',(1.0,0.0,0.0));
#420=DIRECTION('',(0.0,0.0,1.0));
#421=DIRECTION('',(1.0,0.0,0.0));
#422=DIRECTION('',(0.0,0.0,1.0));
#423=DIRECTION('',(1.0,0.0,0.0));
#424=DIRECTION('',(0.0,0.0,-1.0));
#425=DIRECTION('',(-1.0,0.0,-4.72157176794208E-17));
#426=DIRECTION('',(0.0,0.0,1.0));
#427=DIRECTION('',(1.0,0.0,0.0));
#428=DIRECTION('',(0.0,0.0,-1.0));
#429=DIRECTION('',(-1.0,0.0,0.0));
#430=DIRECTION('',(0.0,0.0,1.0));
#431=DIRECTION('',(1.0,0.0,0.0));
#432=DIRECTION('',(0.0,0.0,1.0));
#433=DIRECTION('',(1.0,0.0,0.0));
#434=DIRECTION('',(0.0,0.0,1.0));
#435=DIRECTION('',(1.0,0.0,0.0));
#436=DIRECTION('',(0.0,0.0,1.0));
#437=DIRECTION('',(1.0,0.0,0.0));
#438=DIRECTION('',(0.0,0.0,1.0));
#439=DIRECTION('',(1.0,0.0,0.0));
#440=DIRECTION('',(0.0,0.0,1.0));
#441=DIRECTION('',(1.0,0.0,0.0));
#442=DIRECTION('',(0.0,0.0,1.0));
#443=DIRECTION('',(1.0,0.0,0.0));
#444=DIRECTION('',(0.0,0.0,1.0));
#445=DIRECTION('',(1.0,0.0,0.0));
#446=DIRECTION('',(0.0,0.0,1.0));
#447=DIRECTION('',(1.0,0.0,0.0));
#448=DIRECTION('',(0.0,0.0,1.0));
#449=DIRECTION('',(1.0,0.0,1.18328645977456E-17));
#450=DIRECTION('',(0.0,0.0,1.0));
#451=DIRECTION('',(1.0,0.0,0.0));
#452=DIRECTION('',(0.0,0.0,1.0));
#453=DIRECTION('',(1.0,0.0,0.0));
#454=DIRECTION('',(0.0,0.0,1.0));
#455=DIRECTION('',(1.0,0.0,0.0));
#456=DIRECTION('',(0.0,0.0,1.0));
#457=DIRECTION('',(1.0,0.0,0.0));
#458=DIRECTION('',(0.0,0.0,1.0));
#459=DIRECTION('',(1.0,0.0,0.0));
#460=DIRECTION('',(0.0,0.0,-1.0));
#461=DIRECTION('',(-1.0,0.0,0.0));
#462=DIRECTION('',(0.0,0.0,1.0));
#463=DIRECTION('',(1.0,0.0,0.0));
#464=DIRECTION('',(0.0,0.0,1.0));
#465=DIRECTION('',(1.0,0.0,0.0));
#466=DIRECTION('',(0.0,0.0,1.0));
#467=DIRECTION('',(1.0,0.0,0.0));
#468=DIRECTION('',(0.0,0.0,1.0));
#469=DIRECTION('',(1.0,0.0,0.0));
#470=DIRECTION('',(0.0,0.0,1.0));
#471=DIRECTION('',(1.0,0.0,0.0));
#472=DIRECTION('',(0.0,0.0,1.0));
#473=DIRECTION('',(1.0,0.0,1.43650407767748E-16));
#474=DIRECTION('',(0.0,0.0,1.0));
#475=DIRECTION('',(1.0,0.0,0.0));
#476=DIRECTION('',(0.0,0.0,-1.0));
#477=DIRECTION('',(-1.0,0.0,8.2662099890022E-17));
#478=DIRECTION('',(0.0,0.0,1.0));
#479=DIRECTION('',(1.0,0.0,0.0));
#480=DIRECTION('',(0.0,0.0,1.0));
#481=DIRECTION('',(1.0,0.0,0.0));
#482=DIRECTION('',(0.0,0.0,-1.0));
#483=DIRECTION('',(-1.0,0.0,0.0));
#484=CARTESIAN_POINT('',(0.0,0.0,0.0));
#485=CARTESIAN_POINT('',(2.22044604925031E-16,0.0,-76.0));
#486=CARTESIAN_POINT('',(12.5,0.0,-76.0));
#487=CARTESIAN_POINT('',(-3.60624458405139,3.60624458405139,-76.0));
#488=CARTESIAN_POINT('',(2.22044604925031E-16,0.0,-75.0000000000001));
#489=CARTESIAN_POINT('',(13.5,0.0,-75.0000000000001));
#490=CARTESIAN_POINT('',(0.0,0.0,-75.0000000000001));
#491=CARTESIAN_POINT('',(2.22044604925031E-16,0.0,-53.9));
#492=CARTESIAN_POINT('',(13.5,0.0,-53.9));
#493=CARTESIAN_POINT('',(2.22044604925031E-16,0.0,-76.0));
#494=CARTESIAN_POINT('',(2.22044604925031E-16,0.0,-53.9));
#495=CARTESIAN_POINT('',(15.75,0.0,-53.9));
#496=CARTESIAN_POINT('',(-9.54594154601839,9.54594154601839,-53.9));
#497=CARTESIAN_POINT('',(2.22044604925031E-16,0.0,-54.9));
#498=CARTESIAN_POINT('',(15.75,0.0,-54.9));
#499=CARTESIAN_POINT('',(2.22044604925031E-16,0.0,-76.0));
#500=CARTESIAN_POINT('',(2.22044604925031E-16,0.0,-54.9));
#501=CARTESIAN_POINT('',(24.0,0.0,-54.9));
#502=CARTESIAN_POINT('',(-11.1369318036881,11.1369318036881,-54.9));
#503=CARTESIAN_POINT('',(2.22044604925031E-16,0.0,-28.0));
#504=CARTESIAN_POINT('',(24.0,0.0,-28.0));
#505=CARTESIAN_POINT('',(2.22044604925031E-16,0.0,-76.0));
#506=CARTESIAN_POINT('',(2.22044604925031E-16,0.0,-27.0));
#507=CARTESIAN_POINT('',(25.0,0.0,-27.0));
#508=CARTESIAN_POINT('',(0.0,0.0,-28.0));
#509=CARTESIAN_POINT('',(2.22044604925031E-16,0.0,-27.0));
#510=CARTESIAN_POINT('',(30.4875,0.0,-27.0));
#511=CARTESIAN_POINT('',(-17.6776695296637,17.6776695296637,-27.0));
#512=CARTESIAN_POINT('',(2.22044604925031E-16,0.0,-26.0));
#513=CARTESIAN_POINT('',(31.4875,0.0,-26.0));
#514=CARTESIAN_POINT('',(0.0,0.0,-26.0));
#515=CARTESIAN_POINT('',(2.22044604925031E-16,0.0,-21.62727746897));
#516=CARTESIAN_POINT('',(31.4875,0.0,-21.62727746897));
#517=CARTESIAN_POINT('',(2.22044604925031E-16,0.0,-76.0));
#518=CARTESIAN_POINT('',(2.22044604925031E-16,0.0,-19.1375));
#519=CARTESIAN_POINT('',(27.1750789242105,0.0,-19.1375));
#520=CARTESIAN_POINT('',(2.22044604925031E-16,0.0,-21.62727746897));
#521=CARTESIAN_POINT('',(2.22044604925031E-16,0.0,-19.1375));
#522=CARTESIAN_POINT('',(27.125,0.0,-19.1375));
#523=CARTESIAN_POINT('',(-19.2156825865889,19.2156825865889,-19.1375));
#524=CARTESIAN_POINT('',(2.22044604925031E-16,0.0,-18.3875));
#525=CARTESIAN_POINT('',(26.375,0.0,-18.3875));
#526=CARTESIAN_POINT('',(0.0,0.0,-18.3875));
#527=CARTESIAN_POINT('',(2.22044604925031E-16,0.0,-14.8125));
#528=CARTESIAN_POINT('',(26.375,0.0,-14.8125));
#529=CARTESIAN_POINT('',(2.22044604925031E-16,0.0,-76.0));
#530=CARTESIAN_POINT('',(2.22044604925031E-16,0.0,-14.0625));
#531=CARTESIAN_POINT('',(27.125,0.0,-14.0625));
#532=CARTESIAN_POINT('',(0.0,0.0,-14.8125));
#533=CARTESIAN_POINT('',(2.22044604925031E-16,0.0,-14.0625));
#534=CARTESIAN_POINT('',(27.1750789242105,0.0,-14.0625));
#535=CARTESIAN_POINT('',(-19.1802714396851,19.1802714396851,-14.0625));
#536=CARTESIAN_POINT('',(2.22044604925031E-16,0.0,-11.5727225310329));
#537=CARTESIAN_POINT('',(31.4875000000017,0.0,-11.5727225310329));
#538=CARTESIAN_POINT('',(2.22044604925031E-16,0.0,-14.0625));
#539=CARTESIAN_POINT('',(2.22044604925031E-16,0.0,-3.0));
#540=CARTESIAN_POINT('',(31.4875,0.0,-3.0));
#541=CARTESIAN_POINT('',(2.22044604925031E-16,0.0,-76.0));
#542=CARTESIAN_POINT('',(2.22044604925031E-16,0.0,-2.0));
#543=CARTESIAN_POINT('',(30.4875,0.0,-2.0));
#544=CARTESIAN_POINT('',(0.0,0.0,-3.0));
#545=CARTESIAN_POINT('',(2.22044604925031E-16,0.0,-2.0));
#546=CARTESIAN_POINT('',(22.875,0.0,-2.0));
#547=CARTESIAN_POINT('',(-21.5579179914249,21.5579179914249,-2.0));
#548=CARTESIAN_POINT('',(2.22044604925031E-16,0.0,-1.0));
#549=CARTESIAN_POINT('',(21.875,0.0,-1.0));
#550=CARTESIAN_POINT('',(0.0,0.0,-1.0));
#551=CARTESIAN_POINT('',(2.22044604925031E-16,0.0,0.649999999999998));
#552=CARTESIAN_POINT('',(21.875,0.0,0.649999999999998));
#553=CARTESIAN_POINT('',(2.22044604925031E-16,0.0,-76.0));
#554=CARTESIAN_POINT('',(2.22044604925031E-16,0.0,1.26673203155701));
#555=CARTESIAN_POINT('',(22.0402528498011,0.0,1.26673203155701));
#556=CARTESIAN_POINT('',(2.22044604925031E-16,0.0,0.649999999999998));
#557=CARTESIAN_POINT('',(2.22044604925031E-16,0.0,64.54431866917));
#558=CARTESIAN_POINT('',(12.811502402615,0.0,64.54431866917));
#559=CARTESIAN_POINT('',(2.22044604925031E-16,0.0,1.26673203155701));
#560=CARTESIAN_POINT('',(2.22044604925031E-16,0.0,65.4000000000001));
#561=CARTESIAN_POINT('',(11.82197113897,0.0,65.4000000000001));
#562=CARTESIAN_POINT('',(0.0,0.0,64.4000000000001));
#563=CARTESIAN_POINT('',(-6.88081373745785,6.88081373745785,65.4));
#564=MECHANICAL_DESIGN_GEOMETRIC_PRESENTATION_REPRESENTATION('',(#24),#565);
#565=(GEOMETRIC_REPRESENTATION_CONTEXT(3)GLOBAL_UNCERTAINTY_ASSIGNED_CONTEXT((#566))
     GLOBAL_UNIT_ASSIGNED_CONTEXT((#572,#568,#567))REPRESENTATION_CONTEXT('A2B08-4027055',
     'TOP_LEVEL_ASSEMBLY_PART'));
#566=UNCERTAINTY_MEASURE_WITH_UNIT(LENGTH_MEASURE(2.0E-5),#572,'DISTANCE_ACCURACY_VALUE',
     'Maximum Tolerance applied to model');
#567=(NAMED_UNIT(*)SI_UNIT($,.STERADIAN.)SOLID_ANGLE_UNIT());
#568=(CONVERSION_BASED_UNIT('DEGREE',#570)NAMED_UNIT(*)PLANE_ANGLE_UNIT());
#569=DIMENSIONAL_EXPONENTS(0.0,0.0,0.0,0.0,0.0,0.0,0.0);
#570=PLANE_ANGLE_MEASURE_WITH_UNIT(PLANE_ANGLE_MEASURE(0.0174532925),#571);
#571=(NAMED_UNIT(*)PLANE_ANGLE_UNIT()SI_UNIT($,.RADIAN.));
#572=(LENGTH_UNIT()NAMED_UNIT(*)SI_UNIT(.MILLI.,.METRE.));
#573=CARTESIAN_POINT('',(0.0,0.0,0.0));
#574=DIRECTION('',(0.0,0.0,1.0));
#575=DIRECTION('',(1.0,0.0,0.0));
#576=AXIS2_PLACEMENT_3D('PCS',#573,#574,#575);
#577=CARTESIAN_POINT('',(0.0,0.0,0.0));
#578=DIRECTION('',(0.0,0.0,1.0));
#579=DIRECTION('',(1.0,0.0,0.0));
#580=AXIS2_PLACEMENT_3D('MCS',#577,#578,#579);
#581=CARTESIAN_POINT('',(0.0,0.0,-43.0));
#582=DIRECTION('',(0.0,0.0,1.0));
#583=DIRECTION('',(1.0,0.0,0.0));
#584=AXIS2_PLACEMENT_3D('CSW',#581,#582,#583);
#585=CONSTRUCTIVE_GEOMETRY_REPRESENTATION('supplemental geometry',(#576,#580,#584),
     #565);
#586=CONSTRUCTIVE_GEOMETRY_REPRESENTATION_RELATIONSHIP('supplemental geometry',$,
     #22,#585);
ENDSEC;
END-ISO-10303-21;
